ISO-10303-21;
HEADER;
FILE_DESCRIPTION (( 'STEP AP214' ),
    '1' );
FILE_NAME ('48456.STEP',
    '2023-06-22T21:38:50',
    ( '' ),
    ( '' ),
    'SwSTEP 2.0',
    'SolidWorks 2023',
    '' );
FILE_SCHEMA (( 'AUTOMOTIVE_DESIGN' ));
ENDSEC;

DATA;
#1 =( LENGTH_UNIT ( ) NAMED_UNIT ( * ) SI_UNIT ( $, .METRE. ) );
#2 = DIMENSIONAL_EXPONENTS ( 1.000000000000000000, 0.000000000000000000, 0.000000000000000000, 0.000000000000000000, 0.000000000000000000, 0.000000000000000000, 0.000000000000000000 ) ;
#3 = ORIENTED_EDGE ( 'NONE', *, *, #167, .T. ) ;
#4 = EDGE_CURVE ( 'NONE', #243, #308, #64, .T. ) ;
#5 = CLOSED_SHELL ( 'NONE', ( #122, #249, #127, #255 ) ) ;
#6 = APPLICATION_CONTEXT ( 'automotive_design' ) ;
#7 = VERTEX_POINT ( 'NONE', #108 ) ;
#8 = CARTESIAN_POINT ( 'NONE',  ( 0.2500000000000000555, 4.000000000000000000, 0.000000000000000000 ) ) ;
#9 = LENGTH_MEASURE_WITH_UNIT ( LENGTH_MEASURE( 0.02539999999999999897 ), #247 );
#10 = CIRCLE ( 'NONE', #296, 0.2500000000000000000 ) ;
#11 = SURFACE_STYLE_FILL_AREA ( #37 ) ;
#12 = SURFACE_STYLE_USAGE ( .BOTH. , #44 ) ;
#13 =( GEOMETRIC_REPRESENTATION_CONTEXT ( 3 ) GLOBAL_UNCERTAINTY_ASSIGNED_CONTEXT ( ( #145 ) ) GLOBAL_UNIT_ASSIGNED_CONTEXT ( ( #166, #103, #32 ) ) REPRESENTATION_CONTEXT ( 'NONE', 'WORKASPACE' ) );
#14 = DIRECTION ( 'NONE',  ( -6.123233995736763571E-17, 1.000000000000000000, -0.000000000000000000 ) ) ;
#15 = CARTESIAN_POINT ( 'NONE',  ( 4.686749320818300748E-34, 2.000000000000000000, 0.000000000000000000 ) ) ;
#16 = CARTESIAN_POINT ( 'NONE',  ( 0.2499999999999999167, 4.000000000000000000, 3.061616997868383634E-17 ) ) ;
#17 = FACE_OUTER_BOUND ( 'NONE', #165, .T. ) ;
#18 = ADVANCED_FACE ( 'NONE', ( #137 ), #65, .T. ) ;
#19 =( CONVERSION_BASED_UNIT ( 'INCH', #131 ) LENGTH_UNIT ( ) NAMED_UNIT ( #35 ) );
#20 = ORIENTED_EDGE ( 'NONE', *, *, #87, .T. ) ;
#21 = MECHANICAL_DESIGN_GEOMETRIC_PRESENTATION_REPRESENTATION (  '', ( #264 ), #67 ) ;
#22 = DIRECTION ( 'NONE',  ( -6.123233995736763571E-17, 1.000000000000000000, -0.000000000000000000 ) ) ;
#23 = DIRECTION ( 'NONE',  ( 0.000000000000000000, 0.000000000000000000, -1.000000000000000000 ) ) ;
#24 =( NAMED_UNIT ( * ) PLANE_ANGLE_UNIT ( ) SI_UNIT ( $, .RADIAN. ) );
#25 = VECTOR ( 'NONE', #45, 39.37007874015748143 ) ;
#26 = DIMENSIONAL_EXPONENTS ( 1.000000000000000000, 0.000000000000000000, 0.000000000000000000, 0.000000000000000000, 0.000000000000000000, 0.000000000000000000, 0.000000000000000000 ) ;
#27 =( CONVERSION_BASED_UNIT ( 'INCH', #233 ) LENGTH_UNIT ( ) NAMED_UNIT ( #185 ) );
#28 = CARTESIAN_POINT ( 'NONE',  ( 0.2500000000000000000, 2.000000000000000000, 3.061616997868384251E-17 ) ) ;
#29 = PRODUCT_CONTEXT ( 'NONE', #172, 'mechanical' ) ;
#30 = CARTESIAN_POINT ( 'NONE',  ( 0.000000000000000000, 0.000000000000000000, 0.000000000000000000 ) ) ;
#31 = AXIS2_PLACEMENT_3D ( 'NONE', #132, #304, #227 ) ;
#32 =( NAMED_UNIT ( * ) SI_UNIT ( $, .STERADIAN. ) SOLID_ANGLE_UNIT ( ) );
#33 = PRODUCT_DEFINITION_FORMATION_WITH_SPECIFIED_SOURCE ( 'ANY', '', #256, .NOT_KNOWN. ) ;
#34 = UNCERTAINTY_MEASURE_WITH_UNIT (LENGTH_MEASURE( 1.000000000000000082E-05 ), #19, 'distance_accuracy_value', 'NONE');
#35 = DIMENSIONAL_EXPONENTS ( 1.000000000000000000, 0.000000000000000000, 0.000000000000000000, 0.000000000000000000, 0.000000000000000000, 0.000000000000000000, 0.000000000000000000 ) ;
#36 =( LENGTH_UNIT ( ) NAMED_UNIT ( * ) SI_UNIT ( $, .METRE. ) );
#37 = FILL_AREA_STYLE ('',( #245 ) ) ;
#38 = STYLED_ITEM ( 'NONE', ( #56 ), #203 ) ;
#39 = SURFACE_SIDE_STYLE ('',( #86 ) ) ;
#40 = MECHANICAL_DESIGN_GEOMETRIC_PRESENTATION_REPRESENTATION (  '', ( #53 ), #291 ) ;
#41 =( NAMED_UNIT ( * ) SI_UNIT ( $, .STERADIAN. ) SOLID_ANGLE_UNIT ( ) );
#42 = VERTEX_POINT ( 'NONE', #133 ) ;
#43 = DIRECTION ( 'NONE',  ( -1.000000000000000000, 0.000000000000000000, 0.000000000000000000 ) ) ;
#44 = SURFACE_SIDE_STYLE ('',( #113 ) ) ;
#45 = DIRECTION ( 'NONE',  ( -0.000000000000000000, -1.000000000000000000, -0.000000000000000000 ) ) ;
#46 = ORIENTED_EDGE ( 'NONE', *, *, #235, .T. ) ;
#47 = AXIS2_PLACEMENT_3D ( 'NONE', #110, #97, #206 ) ;
#48 =( CONVERSION_BASED_UNIT ( 'INCH', #215 ) LENGTH_UNIT ( ) NAMED_UNIT ( #2 ) );
#49 =( GEOMETRIC_REPRESENTATION_CONTEXT ( 3 ) GLOBAL_UNCERTAINTY_ASSIGNED_CONTEXT ( ( #214 ) ) GLOBAL_UNIT_ASSIGNED_CONTEXT ( ( #48, #24, #234 ) ) REPRESENTATION_CONTEXT ( 'NONE', 'WORKASPACE' ) );
#50 = DIRECTION ( 'NONE',  ( 0.000000000000000000, 0.000000000000000000, -1.000000000000000000 ) ) ;
#51 = ADVANCED_FACE ( 'NONE', ( #17 ), #224, .T. ) ;
#52 =( NAMED_UNIT ( * ) SI_UNIT ( $, .STERADIAN. ) SOLID_ANGLE_UNIT ( ) );
#53 = STYLED_ITEM ( 'NONE', ( #63 ), #249 ) ;
#54 = ORIENTED_EDGE ( 'NONE', *, *, #193, .F. ) ;
#55 = CARTESIAN_POINT ( 'NONE',  ( 3.061616997868382402E-17, 2.000000000000000000, 0.2499999999999999722 ) ) ;
#56 = PRESENTATION_STYLE_ASSIGNMENT (( #170 ) ) ;
#57 = PRESENTATION_LAYER_ASSIGNMENT (  '', '', ( #207 ) ) ;
#58 = DIMENSIONAL_EXPONENTS ( 1.000000000000000000, 0.000000000000000000, 0.000000000000000000, 0.000000000000000000, 0.000000000000000000, 0.000000000000000000, 0.000000000000000000 ) ;
#59 = DIRECTION ( 'NONE',  ( -1.000000000000000000, 0.000000000000000000, 0.000000000000000000 ) ) ;
#60 = PLANE ( 'NONE',  #31 ) ;
#61 = FILL_AREA_STYLE_COLOUR ( '', #163 ) ;
#62 = CIRCLE ( 'NONE', #142, 0.2499999999999999722 ) ;
#63 = PRESENTATION_STYLE_ASSIGNMENT (( #96 ) ) ;
#64 = LINE ( 'NONE', #209, #258 ) ;
#65 = CYLINDRICAL_SURFACE ( 'NONE', #155, 0.2500000000000000555 ) ;
#66 = AXIS2_PLACEMENT_3D ( 'NONE', #307, #98, #197 ) ;
#67 =( GEOMETRIC_REPRESENTATION_CONTEXT ( 3 ) GLOBAL_UNCERTAINTY_ASSIGNED_CONTEXT ( ( #183 ) ) GLOBAL_UNIT_ASSIGNED_CONTEXT ( ( #76, #140, #161 ) ) REPRESENTATION_CONTEXT ( 'NONE', 'WORKASPACE' ) );
#68 = LENGTH_MEASURE_WITH_UNIT ( LENGTH_MEASURE( 0.02539999999999999897 ), #90 );
#69 = ORIENTED_EDGE ( 'NONE', *, *, #81, .F. ) ;
#70 = FILL_AREA_STYLE ('',( #180 ) ) ;
#71 = ORIENTED_EDGE ( 'NONE', *, *, #81, .T. ) ;
#72 = ORIENTED_EDGE ( 'NONE', *, *, #106, .T. ) ;
#73 = ADVANCED_FACE ( 'NONE', ( #250 ), #232, .F. ) ;
#74 =( LENGTH_UNIT ( ) NAMED_UNIT ( * ) SI_UNIT ( $, .METRE. ) );
#75 = CARTESIAN_POINT ( 'NONE',  ( 1.516480271171051896E-32, 2.000000000000000000, 0.000000000000000000 ) ) ;
#76 =( CONVERSION_BASED_UNIT ( 'INCH', #120 ) LENGTH_UNIT ( ) NAMED_UNIT ( #287 ) );
#77 = DIRECTION ( 'NONE',  ( -0.000000000000000000, -1.000000000000000000, -0.000000000000000000 ) ) ;
#78 =( GEOMETRIC_REPRESENTATION_CONTEXT ( 3 ) GLOBAL_UNCERTAINTY_ASSIGNED_CONTEXT ( ( #278 ) ) GLOBAL_UNIT_ASSIGNED_CONTEXT ( ( #253, #248, #222 ) ) REPRESENTATION_CONTEXT ( 'NONE', 'WORKASPACE' ) );
#79 = SURFACE_STYLE_FILL_AREA ( #101 ) ;
#80 = CYLINDRICAL_SURFACE ( 'NONE', #179, 0.2500000000000000000 ) ;
#81 = EDGE_CURVE ( 'NONE', #7, #111, #129, .T. ) ;
#82 = PRESENTATION_STYLE_ASSIGNMENT (( #295 ) ) ;
#83 = STYLED_ITEM ( 'NONE', ( #309 ), #127 ) ;
#84 = AXIS2_PLACEMENT_3D ( 'NONE', #259, #187, #261 ) ;
#85 = DIRECTION ( 'NONE',  ( 6.123233995736763571E-17, -1.000000000000000000, 0.000000000000000000 ) ) ;
#86 = SURFACE_STYLE_FILL_AREA ( #107 ) ;
#87 = EDGE_CURVE ( 'NONE', #135, #42, #156, .T. ) ;
#88 = FILL_AREA_STYLE_COLOUR ( '', #112 ) ;
#89 = MECHANICAL_DESIGN_GEOMETRIC_PRESENTATION_REPRESENTATION (  '', ( #83 ), #49 ) ;
#90 =( LENGTH_UNIT ( ) NAMED_UNIT ( * ) SI_UNIT ( $, .METRE. ) );
#91 = ORIENTED_EDGE ( 'NONE', *, *, #242, .T. ) ;
#92 = CARTESIAN_POINT ( 'NONE',  ( -0.2500000000000002220, 4.000000000000000000, 0.000000000000000000 ) ) ;
#93 = EDGE_LOOP ( 'NONE', ( #139, #158 ) ) ;
#94 = DIRECTION ( 'NONE',  ( -6.123233995736763571E-17, 1.000000000000000000, -0.000000000000000000 ) ) ;
#95 = CARTESIAN_POINT ( 'NONE',  ( -1.224646799147352714E-16, 4.000000000000000000, 0.000000000000000000 ) ) ;
#96 = SURFACE_STYLE_USAGE ( .BOTH. , #208 ) ;
#97 = DIRECTION ( 'NONE',  ( -6.123233995736763571E-17, 1.000000000000000000, -0.000000000000000000 ) ) ;
#98 = DIRECTION ( 'NONE',  ( 0.000000000000000000, -1.000000000000000000, -0.000000000000000000 ) ) ;
#99 = ORIENTED_EDGE ( 'NONE', *, *, #87, .F. ) ;
#100 = SURFACE_STYLE_USAGE ( .BOTH. , #266 ) ;
#101 = FILL_AREA_STYLE ('',( #260 ) ) ;
#102 =( GEOMETRIC_REPRESENTATION_CONTEXT ( 3 ) GLOBAL_UNCERTAINTY_ASSIGNED_CONTEXT ( ( #268 ) ) GLOBAL_UNIT_ASSIGNED_CONTEXT ( ( #244, #292, #196 ) ) REPRESENTATION_CONTEXT ( 'NONE', 'WORKASPACE' ) );
#103 =( NAMED_UNIT ( * ) PLANE_ANGLE_UNIT ( ) SI_UNIT ( $, .RADIAN. ) );
#104 = DIRECTION ( 'NONE',  ( -6.123233995736763571E-17, 1.000000000000000000, -0.000000000000000000 ) ) ;
#105 = COLOUR_RGB ( '',1.000000000000000000, 0.000000000000000000, 0.000000000000000000 ) ;
#106 = EDGE_CURVE ( 'NONE', #42, #308, #134, .T. ) ;
#107 = FILL_AREA_STYLE ('',( #88 ) ) ;
#108 = CARTESIAN_POINT ( 'NONE',  ( 0.2500000000000000555, 4.000000000000000000, 3.061616997868384251E-17 ) ) ;
#109 = PRODUCT_DEFINITION_CONTEXT ( 'detailed design', #6, 'design' ) ;
#110 = CARTESIAN_POINT ( 'NONE',  ( -1.224646799147352714E-16, 4.000000000000000000, 0.000000000000000000 ) ) ;
#111 = VERTEX_POINT ( 'NONE', #281 ) ;
#112 = COLOUR_RGB ( '',0.7921568627450980005, 0.8196078431372548767, 0.9333333333333333481 ) ;
#113 = SURFACE_STYLE_FILL_AREA ( #70 ) ;
#114 = CARTESIAN_POINT ( 'NONE',  ( 3.061616997868383018E-17, 0.000000000000000000, 0.2500000000000000000 ) ) ;
#115 = PRODUCT_DEFINITION_SHAPE ( 'NONE', 'NONE',  #299 ) ;
#116 = DIRECTION ( 'NONE',  ( 0.000000000000000000, 0.000000000000000000, -1.000000000000000000 ) ) ;
#117 = COLOUR_RGB ( '',1.000000000000000000, 0.000000000000000000, 0.000000000000000000 ) ;
#118 = STYLED_ITEM ( 'NONE', ( #157 ), #255 ) ;
#119 = CYLINDRICAL_SURFACE ( 'NONE', #236, 0.2500000000000000000 ) ;
#120 = LENGTH_MEASURE_WITH_UNIT ( LENGTH_MEASURE( 0.02539999999999999897 ), #1 );
#121 = PRESENTATION_STYLE_ASSIGNMENT (( #100 ) ) ;
#122 = ADVANCED_FACE ( 'NONE', ( #198 ), #119, .T. ) ;
#123 = MECHANICAL_DESIGN_GEOMETRIC_PRESENTATION_REPRESENTATION (  '', ( #38 ), #102 ) ;
#124 = DIMENSIONAL_EXPONENTS ( 1.000000000000000000, 0.000000000000000000, 0.000000000000000000, 0.000000000000000000, 0.000000000000000000, 0.000000000000000000, 0.000000000000000000 ) ;
#125 = DIRECTION ( 'NONE',  ( 1.000000000000000000, 6.123233995736763571E-17, 0.000000000000000000 ) ) ;
#126 = FILL_AREA_STYLE ('',( #61 ) ) ;
#127 = ADVANCED_FACE ( 'NONE', ( #143 ), #80, .T. ) ;
#128 = DIRECTION ( 'NONE',  ( 0.000000000000000000, 0.000000000000000000, -1.000000000000000000 ) ) ;
#129 = CIRCLE ( 'NONE', #211, 0.2500000000000001665 ) ;
#130 = LENGTH_MEASURE_WITH_UNIT ( LENGTH_MEASURE( 0.02539999999999999897 ), #36 );
#131 = LENGTH_MEASURE_WITH_UNIT ( LENGTH_MEASURE( 0.02539999999999999897 ), #202 );
#132 = CARTESIAN_POINT ( 'NONE',  ( 0.000000000000000000, 2.000000000000000000, 0.000000000000000000 ) ) ;
#133 = CARTESIAN_POINT ( 'NONE',  ( 3.061616997868383018E-17, 0.000000000000000000, 0.2500000000000000000 ) ) ;
#134 = CIRCLE ( 'NONE', #219, 0.2500000000000000000 ) ;
#135 = VERTEX_POINT ( 'NONE', #55 ) ;
#136 = ORIENTED_EDGE ( 'NONE', *, *, #167, .F. ) ;
#137 = FACE_OUTER_BOUND ( 'NONE', #301, .T. ) ;
#138 = SHAPE_DEFINITION_REPRESENTATION ( #115, #275 ) ;
#139 = ORIENTED_EDGE ( 'NONE', *, *, #176, .F. ) ;
#140 =( NAMED_UNIT ( * ) PLANE_ANGLE_UNIT ( ) SI_UNIT ( $, .RADIAN. ) );
#141 = VECTOR ( 'NONE', #14, 39.37007874015748143 ) ;
#142 = AXIS2_PLACEMENT_3D ( 'NONE', #144, #239, #116 ) ;
#143 = FACE_OUTER_BOUND ( 'NONE', #159, .T. ) ;
#144 = CARTESIAN_POINT ( 'NONE',  ( 0.000000000000000000, 2.000000000000000000, 0.000000000000000000 ) ) ;
#145 = UNCERTAINTY_MEASURE_WITH_UNIT (LENGTH_MEASURE( 1.000000000000000082E-05 ), #166, 'distance_accuracy_value', 'NONE');
#146 = PLANE ( 'NONE',  #223 ) ;
#147 = CIRCLE ( 'NONE', #199, 0.2499999999999999722 ) ;
#148 = ORIENTED_EDGE ( 'NONE', *, *, #193, .T. ) ;
#149 = CARTESIAN_POINT ( 'NONE',  ( 0.000000000000000000, 2.000000000000000000, -0.2499999999999999722 ) ) ;
#150 = SURFACE_STYLE_FILL_AREA ( #126 ) ;
#151 = CIRCLE ( 'NONE', #231, 0.2500000000000001665 ) ;
#152 = ORIENTED_EDGE ( 'NONE', *, *, #267, .T. ) ;
#153 = UNCERTAINTY_MEASURE_WITH_UNIT (LENGTH_MEASURE( 1.000000000000000082E-05 ), #27, 'distance_accuracy_value', 'NONE');
#154 = CARTESIAN_POINT ( 'NONE',  ( -1.224646799147352714E-16, 4.000000000000000000, 0.000000000000000000 ) ) ;
#155 = AXIS2_PLACEMENT_3D ( 'NONE', #154, #22, #43 ) ;
#156 = LINE ( 'NONE', #114, #25 ) ;
#157 = PRESENTATION_STYLE_ASSIGNMENT (( #12 ) ) ;
#158 = ORIENTED_EDGE ( 'NONE', *, *, #235, .F. ) ;
#159 = EDGE_LOOP ( 'NONE', ( #99, #228, #283, #290 ) ) ;
#160 = SURFACE_SIDE_STYLE ('',( #262 ) ) ;
#161 =( NAMED_UNIT ( * ) SI_UNIT ( $, .STERADIAN. ) SOLID_ANGLE_UNIT ( ) );
#162 = DIRECTION ( 'NONE',  ( 0.000000000000000000, 0.000000000000000000, -1.000000000000000000 ) ) ;
#163 = COLOUR_RGB ( '',0.7921568627450980005, 0.8196078431372548767, 0.9333333333333333481 ) ;
#164 =( NAMED_UNIT ( * ) PLANE_ANGLE_UNIT ( ) SI_UNIT ( $, .RADIAN. ) );
#165 = EDGE_LOOP ( 'NONE', ( #173, #46, #277, #69 ) ) ;
#166 =( CONVERSION_BASED_UNIT ( 'INCH', #130 ) LENGTH_UNIT ( ) NAMED_UNIT ( #124 ) );
#167 = EDGE_CURVE ( 'NONE', #243, #135, #62, .T. ) ;
#168 = CARTESIAN_POINT ( 'NONE',  ( -1.224646799147352714E-16, 4.000000000000000000, 0.000000000000000000 ) ) ;
#169 = CARTESIAN_POINT ( 'NONE',  ( 0.000000000000000000, 2.000000000000000000, 0.000000000000000000 ) ) ;
#170 = SURFACE_STYLE_USAGE ( .BOTH. , #217 ) ;
#171 = AXIS2_PLACEMENT_3D ( 'NONE', #15, #204, #302 ) ;
#172 = APPLICATION_CONTEXT ( 'automotive_design' ) ;
#173 = ORIENTED_EDGE ( 'NONE', *, *, #267, .F. ) ;
#174 = MECHANICAL_DESIGN_GEOMETRIC_PRESENTATION_REPRESENTATION (  '', ( #118 ), #78 ) ;
#175 = ORIENTED_EDGE ( 'NONE', *, *, #242, .F. ) ;
#176 = EDGE_CURVE ( 'NONE', #257, #194, #186, .T. ) ;
#177 = CARTESIAN_POINT ( 'NONE',  ( 0.000000000000000000, 0.000000000000000000, -0.2500000000000000000 ) ) ;
#178 = DIRECTION ( 'NONE',  ( -6.123233995736763571E-17, 1.000000000000000000, -0.000000000000000000 ) ) ;
#179 = AXIS2_PLACEMENT_3D ( 'NONE', #265, #284, #50 ) ;
#180 = FILL_AREA_STYLE_COLOUR ( '', #117 ) ;
#181 = DIRECTION ( 'NONE',  ( -0.000000000000000000, -1.000000000000000000, -0.000000000000000000 ) ) ;
#182 = CARTESIAN_POINT ( 'NONE',  ( -0.2499999999999999722, 2.000000000000000000, 0.000000000000000000 ) ) ;
#183 = UNCERTAINTY_MEASURE_WITH_UNIT (LENGTH_MEASURE( 1.000000000000000082E-05 ), #76, 'distance_accuracy_value', 'NONE');
#184 = ORIENTED_EDGE ( 'NONE', *, *, #246, .F. ) ;
#185 = DIMENSIONAL_EXPONENTS ( 1.000000000000000000, 0.000000000000000000, 0.000000000000000000, 0.000000000000000000, 0.000000000000000000, 0.000000000000000000, 0.000000000000000000 ) ;
#186 = CIRCLE ( 'NONE', #305, 0.2499999999999999722 ) ;
#187 = DIRECTION ( 'NONE',  ( 0.000000000000000000, 0.000000000000000000, 1.000000000000000000 ) ) ;
#188 = FILL_AREA_STYLE_COLOUR ( '', #105 ) ;
#189 = PRESENTATION_LAYER_ASSIGNMENT (  '', '', ( #118 ) ) ;
#190 = PRODUCT_RELATED_PRODUCT_CATEGORY ( 'part', '', ( #256 ) ) ;
#191 = FILL_AREA_STYLE ('',( #188 ) ) ;
#192 = AXIS2_PLACEMENT_3D ( 'NONE', #218, #104, #294 ) ;
#193 = EDGE_CURVE ( 'NONE', #308, #42, #10, .T. ) ;
#194 = VERTEX_POINT ( 'NONE', #28 ) ;
#195 = PRESENTATION_LAYER_ASSIGNMENT (  '', '', ( #264 ) ) ;
#196 =( NAMED_UNIT ( * ) SI_UNIT ( $, .STERADIAN. ) SOLID_ANGLE_UNIT ( ) );
#197 = DIRECTION ( 'NONE',  ( 0.000000000000000000, 0.000000000000000000, -1.000000000000000000 ) ) ;
#198 = FACE_OUTER_BOUND ( 'NONE', #298, .T. ) ;
#199 = AXIS2_PLACEMENT_3D ( 'NONE', #169, #274, #128 ) ;
#200 = PLANE ( 'NONE',  #66 ) ;
#201 = EDGE_LOOP ( 'NONE', ( #136, #184 ) ) ;
#202 =( LENGTH_UNIT ( ) NAMED_UNIT ( * ) SI_UNIT ( $, .METRE. ) );
#203 = MANIFOLD_SOLID_BREP ( 'Revolve - Tool Body (Straight Shanked)', #293 ) ;
#204 = DIRECTION ( 'NONE',  ( -6.123233995736763571E-17, 1.000000000000000000, 0.000000000000000000 ) ) ;
#205 = MANIFOLD_SOLID_BREP ( 'Revolve - Cutting Edge', #5 ) ;
#206 = DIRECTION ( 'NONE',  ( -1.000000000000000000, 0.000000000000000000, 0.000000000000000000 ) ) ;
#207 = STYLED_ITEM ( 'NONE', ( #82 ), #205 ) ;
#208 = SURFACE_SIDE_STYLE ('',( #11 ) ) ;
#209 = CARTESIAN_POINT ( 'NONE',  ( 0.000000000000000000, 0.000000000000000000, -0.2500000000000000000 ) ) ;
#210 = DIRECTION ( 'NONE',  ( -0.000000000000000000, -1.000000000000000000, -0.000000000000000000 ) ) ;
#211 = AXIS2_PLACEMENT_3D ( 'NONE', #95, #178, #280 ) ;
#212 = DIRECTION ( 'NONE',  ( -1.000000000000000000, 0.000000000000000000, 0.000000000000000000 ) ) ;
#213 = APPLICATION_PROTOCOL_DEFINITION ( 'draft international standard', 'automotive_design', 1998, #6 ) ;
#214 = UNCERTAINTY_MEASURE_WITH_UNIT (LENGTH_MEASURE( 1.000000000000000082E-05 ), #48, 'distance_accuracy_value', 'NONE');
#215 = LENGTH_MEASURE_WITH_UNIT ( LENGTH_MEASURE( 0.02539999999999999897 ), #238 );
#216 = PRESENTATION_LAYER_ASSIGNMENT (  '', '', ( #83 ) ) ;
#217 = SURFACE_SIDE_STYLE ('',( #150 ) ) ;
#218 = CARTESIAN_POINT ( 'NONE',  ( 1.516480271171051896E-32, 2.000000000000000000, 0.000000000000000000 ) ) ;
#219 = AXIS2_PLACEMENT_3D ( 'NONE', #306, #181, #23 ) ;
#220 = ADVANCED_FACE ( 'NONE', ( #269 ), #146, .F. ) ;
#221 = PRESENTATION_LAYER_ASSIGNMENT (  '', '', ( #53 ) ) ;
#222 =( NAMED_UNIT ( * ) SI_UNIT ( $, .STERADIAN. ) SOLID_ANGLE_UNIT ( ) );
#223 = AXIS2_PLACEMENT_3D ( 'NONE', #8, #85, #125 ) ;
#224 = CYLINDRICAL_SURFACE ( 'NONE', #47, 0.2500000000000000555 ) ;
#225 = EDGE_LOOP ( 'NONE', ( #148, #72 ) ) ;
#226 = DIRECTION ( 'NONE',  ( -0.000000000000000000, -1.000000000000000000, -0.000000000000000000 ) ) ;
#227 = DIRECTION ( 'NONE',  ( 0.000000000000000000, -0.000000000000000000, 1.000000000000000000 ) ) ;
#228 = ORIENTED_EDGE ( 'NONE', *, *, #246, .T. ) ;
#229 = PRESENTATION_LAYER_ASSIGNMENT (  '', '', ( #38 ) ) ;
#230 =( GEOMETRIC_REPRESENTATION_CONTEXT ( 3 ) GLOBAL_UNCERTAINTY_ASSIGNED_CONTEXT ( ( #153 ) ) GLOBAL_UNIT_ASSIGNED_CONTEXT ( ( #27, #164, #52 ) ) REPRESENTATION_CONTEXT ( 'NONE', 'WORKASPACE' ) );
#231 = AXIS2_PLACEMENT_3D ( 'NONE', #168, #271, #59 ) ;
#232 = PLANE ( 'NONE',  #171 ) ;
#233 = LENGTH_MEASURE_WITH_UNIT ( LENGTH_MEASURE( 0.02539999999999999897 ), #74 );
#234 =( NAMED_UNIT ( * ) SI_UNIT ( $, .STERADIAN. ) SOLID_ANGLE_UNIT ( ) );
#235 = EDGE_CURVE ( 'NONE', #194, #257, #270, .T. ) ;
#236 = AXIS2_PLACEMENT_3D ( 'NONE', #30, #210, #289 ) ;
#237 = APPLICATION_PROTOCOL_DEFINITION ( 'draft international standard', 'automotive_design', 1998, #172 ) ;
#238 =( LENGTH_UNIT ( ) NAMED_UNIT ( * ) SI_UNIT ( $, .METRE. ) );
#239 = DIRECTION ( 'NONE',  ( -0.000000000000000000, -1.000000000000000000, -0.000000000000000000 ) ) ;
#240 = MECHANICAL_DESIGN_GEOMETRIC_PRESENTATION_REPRESENTATION (  '', ( #207 ), #13 ) ;
#241 = VECTOR ( 'NONE', #94, 39.37007874015748143 ) ;
#242 = EDGE_CURVE ( 'NONE', #111, #7, #151, .T. ) ;
#243 = VERTEX_POINT ( 'NONE', #149 ) ;
#244 =( CONVERSION_BASED_UNIT ( 'INCH', #9 ) LENGTH_UNIT ( ) NAMED_UNIT ( #26 ) );
#245 = FILL_AREA_STYLE_COLOUR ( '', #272 ) ;
#246 = EDGE_CURVE ( 'NONE', #135, #243, #147, .T. ) ;
#247 =( LENGTH_UNIT ( ) NAMED_UNIT ( * ) SI_UNIT ( $, .METRE. ) );
#248 =( NAMED_UNIT ( * ) PLANE_ANGLE_UNIT ( ) SI_UNIT ( $, .RADIAN. ) );
#249 = ADVANCED_FACE ( 'NONE', ( #273 ), #60, .T. ) ;
#250 = FACE_OUTER_BOUND ( 'NONE', #93, .T. ) ;
#251 = EDGE_LOOP ( 'NONE', ( #91, #71 ) ) ;
#252 = ORIENTED_EDGE ( 'NONE', *, *, #303, .F. ) ;
#253 =( CONVERSION_BASED_UNIT ( 'INCH', #68 ) LENGTH_UNIT ( ) NAMED_UNIT ( #58 ) );
#254 = ORIENTED_EDGE ( 'NONE', *, *, #4, .F. ) ;
#255 = ADVANCED_FACE ( 'NONE', ( #300 ), #200, .T. ) ;
#256 = PRODUCT ( '48456', '48456', '', ( #29 ) ) ;
#257 = VERTEX_POINT ( 'NONE', #182 ) ;
#258 = VECTOR ( 'NONE', #226, 39.37007874015748143 ) ;
#259 = CARTESIAN_POINT ( 'NONE',  ( 0.000000000000000000, 0.000000000000000000, 0.000000000000000000 ) ) ;
#260 = FILL_AREA_STYLE_COLOUR ( '', #285 ) ;
#261 = DIRECTION ( 'NONE',  ( 1.000000000000000000, 0.000000000000000000, 0.000000000000000000 ) ) ;
#262 = SURFACE_STYLE_FILL_AREA ( #191 ) ;
#263 = SURFACE_STYLE_USAGE ( .BOTH. , #160 ) ;
#264 = STYLED_ITEM ( 'NONE', ( #121 ), #122 ) ;
#265 = CARTESIAN_POINT ( 'NONE',  ( 0.000000000000000000, 0.000000000000000000, 0.000000000000000000 ) ) ;
#266 = SURFACE_SIDE_STYLE ('',( #79 ) ) ;
#267 = EDGE_CURVE ( 'NONE', #194, #7, #297, .T. ) ;
#268 = UNCERTAINTY_MEASURE_WITH_UNIT (LENGTH_MEASURE( 1.000000000000000082E-05 ), #244, 'distance_accuracy_value', 'NONE');
#269 = FACE_OUTER_BOUND ( 'NONE', #251, .T. ) ;
#270 = CIRCLE ( 'NONE', #192, 0.2499999999999999722 ) ;
#271 = DIRECTION ( 'NONE',  ( -6.123233995736763571E-17, 1.000000000000000000, -0.000000000000000000 ) ) ;
#272 = COLOUR_RGB ( '',1.000000000000000000, 0.000000000000000000, 0.000000000000000000 ) ;
#273 = FACE_OUTER_BOUND ( 'NONE', #201, .T. ) ;
#274 = DIRECTION ( 'NONE',  ( -0.000000000000000000, -1.000000000000000000, -0.000000000000000000 ) ) ;
#275 = ADVANCED_BREP_SHAPE_REPRESENTATION ( '48456', ( #205, #203, #84 ), #230 ) ;
#276 = LINE ( 'NONE', #92, #241 ) ;
#277 = ORIENTED_EDGE ( 'NONE', *, *, #303, .T. ) ;
#278 = UNCERTAINTY_MEASURE_WITH_UNIT (LENGTH_MEASURE( 1.000000000000000082E-05 ), #253, 'distance_accuracy_value', 'NONE');
#279 = ORIENTED_EDGE ( 'NONE', *, *, #176, .T. ) ;
#280 = DIRECTION ( 'NONE',  ( -1.000000000000000000, 0.000000000000000000, 0.000000000000000000 ) ) ;
#281 = CARTESIAN_POINT ( 'NONE',  ( -0.2500000000000002776, 4.000000000000000000, 0.000000000000000000 ) ) ;
#282 =( NAMED_UNIT ( * ) PLANE_ANGLE_UNIT ( ) SI_UNIT ( $, .RADIAN. ) );
#283 = ORIENTED_EDGE ( 'NONE', *, *, #4, .T. ) ;
#284 = DIRECTION ( 'NONE',  ( -0.000000000000000000, -1.000000000000000000, -0.000000000000000000 ) ) ;
#285 = COLOUR_RGB ( '',1.000000000000000000, 0.000000000000000000, 0.000000000000000000 ) ;
#286 = DIRECTION ( 'NONE',  ( -6.123233995736763571E-17, 1.000000000000000000, -0.000000000000000000 ) ) ;
#287 = DIMENSIONAL_EXPONENTS ( 1.000000000000000000, 0.000000000000000000, 0.000000000000000000, 0.000000000000000000, 0.000000000000000000, 0.000000000000000000, 0.000000000000000000 ) ;
#288 = CARTESIAN_POINT ( 'NONE',  ( 0.000000000000000000, 0.000000000000000000, 0.000000000000000000 ) ) ;
#289 = DIRECTION ( 'NONE',  ( 0.000000000000000000, 0.000000000000000000, -1.000000000000000000 ) ) ;
#290 = ORIENTED_EDGE ( 'NONE', *, *, #106, .F. ) ;
#291 =( GEOMETRIC_REPRESENTATION_CONTEXT ( 3 ) GLOBAL_UNCERTAINTY_ASSIGNED_CONTEXT ( ( #34 ) ) GLOBAL_UNIT_ASSIGNED_CONTEXT ( ( #19, #282, #41 ) ) REPRESENTATION_CONTEXT ( 'NONE', 'WORKASPACE' ) );
#292 =( NAMED_UNIT ( * ) PLANE_ANGLE_UNIT ( ) SI_UNIT ( $, .RADIAN. ) );
#293 = CLOSED_SHELL ( 'NONE', ( #18, #73, #51, #220 ) ) ;
#294 = DIRECTION ( 'NONE',  ( -1.000000000000000000, 0.000000000000000000, 0.000000000000000000 ) ) ;
#295 = SURFACE_STYLE_USAGE ( .BOTH. , #39 ) ;
#296 = AXIS2_PLACEMENT_3D ( 'NONE', #288, #77, #162 ) ;
#297 = LINE ( 'NONE', #16, #141 ) ;
#298 = EDGE_LOOP ( 'NONE', ( #3, #20, #54, #254 ) ) ;
#299 = PRODUCT_DEFINITION ( 'UNKNOWN', '', #33, #109 ) ;
#300 = FACE_OUTER_BOUND ( 'NONE', #225, .T. ) ;
#301 = EDGE_LOOP ( 'NONE', ( #279, #152, #175, #252 ) ) ;
#302 = DIRECTION ( 'NONE',  ( -1.000000000000000000, -6.123233995736763571E-17, 0.000000000000000000 ) ) ;
#303 = EDGE_CURVE ( 'NONE', #257, #111, #276, .T. ) ;
#304 = DIRECTION ( 'NONE',  ( 0.000000000000000000, 1.000000000000000000, 0.000000000000000000 ) ) ;
#305 = AXIS2_PLACEMENT_3D ( 'NONE', #75, #286, #212 ) ;
#306 = CARTESIAN_POINT ( 'NONE',  ( 0.000000000000000000, 0.000000000000000000, 0.000000000000000000 ) ) ;
#307 = CARTESIAN_POINT ( 'NONE',  ( 0.000000000000000000, 0.000000000000000000, 0.000000000000000000 ) ) ;
#308 = VERTEX_POINT ( 'NONE', #177 ) ;
#309 = PRESENTATION_STYLE_ASSIGNMENT (( #263 ) ) ;
ENDSEC;
END-ISO-10303-21;
