ISO-10303-21;
HEADER;
FILE_DESCRIPTION (( 'STEP AP214' ),
    '1' );
FILE_NAME ('Micro_SBM-250-4.STEP',
    '2021-09-02T17:01:49',
    ( '' ),
    ( '' ),
    'SwSTEP 2.0',
    'SolidWorks 2020',
    '' );
FILE_SCHEMA (( 'AUTOMOTIVE_DESIGN' ));
ENDSEC;

DATA;
#1 = PLANE ( 'NONE',  #284 ) ;
#2 = ORIENTED_EDGE ( 'NONE', *, *, #104, .T. ) ;
#3 = FACE_OUTER_BOUND ( 'NONE', #322, .T. ) ;
#4 = DIRECTION ( 'NONE',  ( 1.000000000000000000, 0.0000000000000000000, -0.0000000000000000000 ) ) ;
#5 = VERTEX_POINT ( 'NONE', #240 ) ;
#6 = CARTESIAN_POINT ( 'NONE',  ( 0.0000000000000000000, 0.0000000000000000000, 2.985000000000001208 ) ) ;
#7 = VECTOR ( 'NONE', #42, 39.37007874015748143 ) ;
#8 = ORIENTED_EDGE ( 'NONE', *, *, #118, .F. ) ;
#9 = CARTESIAN_POINT ( 'NONE',  ( 0.0000000000000000000, 7.654042494670956004E-18, 1.707404996040164512E-17 ) ) ;
#10 = DIMENSIONAL_EXPONENTS ( 1.000000000000000000, 0.0000000000000000000, 0.0000000000000000000, 0.0000000000000000000, 0.0000000000000000000, 0.0000000000000000000, 0.0000000000000000000 ) ;
#11 = EDGE_LOOP ( 'NONE', ( #327, #13, #237, #90 ) ) ;
#12 = CARTESIAN_POINT ( 'NONE',  ( 0.0000000000000000000, 0.0000000000000000000, 0.1250000000000000000 ) ) ;
#13 = ORIENTED_EDGE ( 'NONE', *, *, #59, .T. ) ;
#14 = DIRECTION ( 'NONE',  ( -0.0000000000000000000, -0.0000000000000000000, -1.000000000000000000 ) ) ;
#15 = EDGE_LOOP ( 'NONE', ( #299, #279 ) ) ;
#16 = ADVANCED_FACE ( 'NONE', ( #137 ), #1, .T. ) ;
#17 = CIRCLE ( 'NONE', #172, 0.09999999999999997780 ) ;
#18 = PRESENTATION_STYLE_ASSIGNMENT (( #280 ) ) ;
#19 = AXIS2_PLACEMENT_3D ( 'NONE', #210, #249, #160 ) ;
#20 = MECHANICAL_DESIGN_GEOMETRIC_PRESENTATION_REPRESENTATION (  '', ( #285 ), #79 ) ;
#21 = PRODUCT_CONTEXT ( 'NONE', #157, 'mechanical' ) ;
#22 = EDGE_CURVE ( 'NONE', #70, #5, #265, .T. ) ;
#23 = LENGTH_MEASURE_WITH_UNIT ( LENGTH_MEASURE( 0.02539999999999999897 ), #337 );
#24 =( NAMED_UNIT ( * ) SI_UNIT ( $, .STERADIAN. ) SOLID_ANGLE_UNIT ( ) );
#25 = LINE ( 'NONE', #183, #330 ) ;
#26 = FACE_OUTER_BOUND ( 'NONE', #11, .T. ) ;
#27 = CARTESIAN_POINT ( 'NONE',  ( 0.0000000000000000000, 0.0000000000000000000, 1.549999999999994049 ) ) ;
#28 = CARTESIAN_POINT ( 'NONE',  ( 0.0000000000000000000, 0.0000000000000000000, 0.5000000000000000000 ) ) ;
#29 = AXIS2_PLACEMENT_3D ( 'NONE', #275, #112, #117 ) ;
#30 = LINE ( 'NONE', #134, #106 ) ;
#31 = VERTEX_POINT ( 'NONE', #215 ) ;
#32 = ORIENTED_EDGE ( 'NONE', *, *, #118, .T. ) ;
#33 = DIRECTION ( 'NONE',  ( -1.000000000000000000, 0.0000000000000000000, 0.0000000000000000000 ) ) ;
#34 = EDGE_LOOP ( 'NONE', ( #174, #198, #2, #95 ) ) ;
#35 = DIRECTION ( 'NONE',  ( -0.0000000000000000000, -0.0000000000000000000, -1.000000000000000000 ) ) ;
#36 = ORIENTED_EDGE ( 'NONE', *, *, #96, .T. ) ;
#37 = DIRECTION ( 'NONE',  ( 0.0000000000000000000, 0.0000000000000000000, 1.000000000000000000 ) ) ;
#38 = ORIENTED_EDGE ( 'NONE', *, *, #295, .F. ) ;
#39 = UNCERTAINTY_MEASURE_WITH_UNIT (LENGTH_MEASURE( 1.000000000000000082E-05 ), #226, 'distance_accuracy_value', 'NONE');
#40 = DIRECTION ( 'NONE',  ( 1.000000000000000000, 1.224646799147353207E-16, -0.0000000000000000000 ) ) ;
#41 = ORIENTED_EDGE ( 'NONE', *, *, #171, .F. ) ;
#42 = DIRECTION ( 'NONE',  ( -0.0000000000000000000, -0.0000000000000000000, -1.000000000000000000 ) ) ;
#43 = PRODUCT_DEFINITION_CONTEXT ( 'detailed design', #105, 'design' ) ;
#44 = ADVANCED_FACE ( 'NONE', ( #212 ), #318, .T. ) ;
#45 = UNCERTAINTY_MEASURE_WITH_UNIT (LENGTH_MEASURE( 1.000000000000000082E-05 ), #153, 'distance_accuracy_value', 'NONE');
#46 = VECTOR ( 'NONE', #238, 39.37007874015748143 ) ;
#47 = SURFACE_STYLE_FILL_AREA ( #101 ) ;
#48 = DIRECTION ( 'NONE',  ( 1.000000000000000000, 0.0000000000000000000, 0.0000000000000000000 ) ) ;
#49 = CIRCLE ( 'NONE', #289, 0.1250000000000000000 ) ;
#50 = AXIS2_PLACEMENT_3D ( 'NONE', #229, #281, #124 ) ;
#51 = CARTESIAN_POINT ( 'NONE',  ( 0.0000000000000000000, 0.0000000000000000000, 0.1999999999999999833 ) ) ;
#52 = CARTESIAN_POINT ( 'NONE',  ( 0.0000000000000000000, 0.0000000000000000000, 3.000000000000000444 ) ) ;
#53 = CARTESIAN_POINT ( 'NONE',  ( 0.0000000000000000000, 0.0000000000000000000, 0.1250000000000000000 ) ) ;
#54 = AXIS2_PLACEMENT_3D ( 'NONE', #98, #62, #231 ) ;
#55 = EDGE_CURVE ( 'NONE', #163, #70, #25, .T. ) ;
#56 = EDGE_LOOP ( 'NONE', ( #8, #225, #283, #38 ) ) ;
#57 = CARTESIAN_POINT ( 'NONE',  ( 1.224646799147353115E-17, -0.09999999999999999167, 0.1999999999999999833 ) ) ;
#58 = ORIENTED_EDGE ( 'NONE', *, *, #91, .F. ) ;
#59 = EDGE_CURVE ( 'NONE', #144, #204, #63, .T. ) ;
#60 = CYLINDRICAL_SURFACE ( 'NONE', #310, 0.1250000000000000000 ) ;
#61 = EDGE_LOOP ( 'NONE', ( #181, #192, #194, #223 ) ) ;
#62 = DIRECTION ( 'NONE',  ( 0.0000000000000000000, 0.0000000000000000000, 1.000000000000000000 ) ) ;
#63 = CIRCLE ( 'NONE', #113, 0.09999999999999997780 ) ;
#64 = AXIS2_PLACEMENT_3D ( 'NONE', #81, #323, #33 ) ;
#65 = ORIENTED_EDGE ( 'NONE', *, *, #73, .T. ) ;
#66 = ORIENTED_EDGE ( 'NONE', *, *, #156, .F. ) ;
#67 = ADVANCED_FACE ( 'NONE', ( #80 ), #297, .T. ) ;
#68 = DIRECTION ( 'NONE',  ( -1.000000000000000000, 0.0000000000000000000, 0.0000000000000000000 ) ) ;
#69 = DIRECTION ( 'NONE',  ( -1.000000000000000000, 0.0000000000000000000, 0.0000000000000000000 ) ) ;
#70 = VERTEX_POINT ( 'NONE', #87 ) ;
#71 = CARTESIAN_POINT ( 'NONE',  ( 0.0000000000000000000, 0.0000000000000000000, 0.1250000000000000000 ) ) ;
#72 = FILL_AREA_STYLE ('',( #197 ) ) ;
#73 = EDGE_CURVE ( 'NONE', #218, #204, #314, .T. ) ;
#74 = AXIS2_PLACEMENT_3D ( 'NONE', #278, #115, #296 ) ;
#75 = EDGE_CURVE ( 'NONE', #245, #5, #30, .T. ) ;
#76 = APPLICATION_PROTOCOL_DEFINITION ( 'draft international standard', 'automotive_design', 1998, #105 ) ;
#77 =( NAMED_UNIT ( * ) SI_UNIT ( $, .STERADIAN. ) SOLID_ANGLE_UNIT ( ) );
#78 = DIRECTION ( 'NONE',  ( 0.0000000000000000000, 0.0000000000000000000, 1.000000000000000000 ) ) ;
#79 =( GEOMETRIC_REPRESENTATION_CONTEXT ( 3 ) GLOBAL_UNCERTAINTY_ASSIGNED_CONTEXT ( ( #39 ) ) GLOBAL_UNIT_ASSIGNED_CONTEXT ( ( #226, #260, #261 ) ) REPRESENTATION_CONTEXT ( 'NONE', 'WORKASPACE' ) );
#80 = FACE_OUTER_BOUND ( 'NONE', #166, .T. ) ;
#81 = CARTESIAN_POINT ( 'NONE',  ( 0.0000000000000000000, 0.0000000000000000000, 0.1999999999999999833 ) ) ;
#82 = DIRECTION ( 'NONE',  ( -0.0000000000000000000, -0.0000000000000000000, -1.000000000000000000 ) ) ;
#83 = CARTESIAN_POINT ( 'NONE',  ( 0.09999999999999996392, 0.0000000000000000000, 0.5000000000000000000 ) ) ;
#84 = CIRCLE ( 'NONE', #140, 0.09999999999999997780 ) ;
#85 = ORIENTED_EDGE ( 'NONE', *, *, #156, .T. ) ;
#86 = DIMENSIONAL_EXPONENTS ( 1.000000000000000000, 0.0000000000000000000, 0.0000000000000000000, 0.0000000000000000000, 0.0000000000000000000, 0.0000000000000000000, 0.0000000000000000000 ) ;
#87 = CARTESIAN_POINT ( 'NONE',  ( 0.1250000000000000000, 0.0000000000000000000, 1.199999999999999956 ) ) ;
#88 = EDGE_LOOP ( 'NONE', ( #254, #85, #324, #208 ) ) ;
#89 = LINE ( 'NONE', #136, #46 ) ;
#90 = ORIENTED_EDGE ( 'NONE', *, *, #267, .T. ) ;
#91 = EDGE_CURVE ( 'NONE', #245, #163, #49, .T. ) ;
#92 = DIRECTION ( 'NONE',  ( 0.0000000000000000000, 1.000000000000000000, 0.0000000000000000000 ) ) ;
#93 = COLOUR_RGB ( '',0.7921568627450980005, 0.8196078431372548767, 0.9333333333333333481 ) ;
#94 = CARTESIAN_POINT ( 'NONE',  ( 0.0000000000000000000, 0.0000000000000000000, 1.549999999999994049 ) ) ;
#95 = ORIENTED_EDGE ( 'NONE', *, *, #236, .F. ) ;
#96 = EDGE_CURVE ( 'NONE', #218, #119, #213, .T. ) ;
#97 = CARTESIAN_POINT ( 'NONE',  ( 0.0000000000000000000, 0.0000000000000000000, 0.1250000000000000000 ) ) ;
#98 = CARTESIAN_POINT ( 'NONE',  ( 0.0000000000000000000, 0.0000000000000000000, 1.199999999999999956 ) ) ;
#99 = DIRECTION ( 'NONE',  ( 0.0000000000000000000, 0.0000000000000000000, 1.000000000000000000 ) ) ;
#100 = VECTOR ( 'NONE', #185, 39.37007874015748854 ) ;
#101 = FILL_AREA_STYLE ('',( #311 ) ) ;
#102 = EDGE_CURVE ( 'NONE', #204, #306, #17, .T. ) ;
#103 = SURFACE_SIDE_STYLE ('',( #47 ) ) ;
#104 = EDGE_CURVE ( 'NONE', #241, #245, #301, .T. ) ;
#105 = APPLICATION_CONTEXT ( 'automotive_design' ) ;
#106 = VECTOR ( 'NONE', #294, 39.37007874015748143 ) ;
#107 = AXIS2_PLACEMENT_3D ( 'NONE', #12, #146, #92 ) ;
#108 = EDGE_CURVE ( 'NONE', #116, #163, #224, .T. ) ;
#109 = FACE_OUTER_BOUND ( 'NONE', #61, .T. ) ;
#110 = CARTESIAN_POINT ( 'NONE',  ( 0.0000000000000000000, 0.0000000000000000000, 1.199999999999999956 ) ) ;
#111 = ORIENTED_EDGE ( 'NONE', *, *, #59, .F. ) ;
#112 = DIRECTION ( 'NONE',  ( -0.0000000000000000000, -0.0000000000000000000, -1.000000000000000000 ) ) ;
#113 = AXIS2_PLACEMENT_3D ( 'NONE', #51, #269, #129 ) ;
#114 = AXIS2_PLACEMENT_3D ( 'NONE', #27, #78, #315 ) ;
#115 = DIRECTION ( 'NONE',  ( 0.0000000000000000000, 0.0000000000000000000, -1.000000000000000000 ) ) ;
#116 = VERTEX_POINT ( 'NONE', #321 ) ;
#117 = DIRECTION ( 'NONE',  ( -1.000000000000000000, 0.0000000000000000000, 0.0000000000000000000 ) ) ;
#118 = EDGE_CURVE ( 'NONE', #218, #5, #216, .T. ) ;
#119 = VERTEX_POINT ( 'NONE', #83 ) ;
#120 = DIRECTION ( 'NONE',  ( -1.000000000000000000, 0.0000000000000000000, 0.0000000000000000000 ) ) ;
#121 = DIRECTION ( 'NONE',  ( -1.000000000000000000, 0.0000000000000000000, 0.0000000000000000000 ) ) ;
#122 = AXIS2_PLACEMENT_3D ( 'NONE', #28, #222, #141 ) ;
#123 = DIRECTION ( 'NONE',  ( 0.0000000000000000000, 0.0000000000000000000, -1.000000000000000000 ) ) ;
#124 = DIRECTION ( 'NONE',  ( 1.000000000000000000, 0.0000000000000000000, 0.0000000000000000000 ) ) ;
#125 = CIRCLE ( 'NONE', #221, 0.1250000000000000000 ) ;
#126 = DIRECTION ( 'NONE',  ( 0.0000000000000000000, 0.0000000000000000000, 1.000000000000000000 ) ) ;
#127 = CIRCLE ( 'NONE', #313, 0.1249999999999999861 ) ;
#128 = ADVANCED_FACE ( 'NONE', ( #109 ), #60, .T. ) ;
#129 = DIRECTION ( 'NONE',  ( -1.000000000000000000, 0.0000000000000000000, 0.0000000000000000000 ) ) ;
#130 = DIRECTION ( 'NONE',  ( 0.0000000000000000000, 1.000000000000000000, 0.0000000000000000000 ) ) ;
#131 = VECTOR ( 'NONE', #190, 39.37007874015748854 ) ;
#132 = CARTESIAN_POINT ( 'NONE',  ( -0.09999999999999997780, 0.0000000000000000000, 0.1999999999999999833 ) ) ;
#133 = ORIENTED_EDGE ( 'NONE', *, *, #242, .F. ) ;
#134 = CARTESIAN_POINT ( 'NONE',  ( -0.1250000000000000000, 0.0000000000000000000, 3.000000000000000444 ) ) ;
#135 = CARTESIAN_POINT ( 'NONE',  ( 0.0000000000000000000, 0.0000000000000000000, 3.000000000000000444 ) ) ;
#136 = CARTESIAN_POINT ( 'NONE',  ( 0.1374999999999998168, 0.0000000000000000000, 1.549999999999994049 ) ) ;
#137 = FACE_OUTER_BOUND ( 'NONE', #15, .T. ) ;
#138 = CLOSED_SHELL ( 'NONE', ( #139, #128, #336, #44, #309, #232, #341, #67, #233, #16, #243 ) ) ;
#139 = ADVANCED_FACE ( 'NONE', ( #343 ), #209, .T. ) ;
#140 = AXIS2_PLACEMENT_3D ( 'NONE', #277, #35, #317 ) ;
#141 = DIRECTION ( 'NONE',  ( -1.000000000000000000, 0.0000000000000000000, 0.0000000000000000000 ) ) ;
#142 = ORIENTED_EDGE ( 'NONE', *, *, #55, .F. ) ;
#143 = CARTESIAN_POINT ( 'NONE',  ( 0.09999999999999996392, 1.224646799147352807E-17, 0.0000000000000000000 ) ) ;
#144 = VERTEX_POINT ( 'NONE', #57 ) ;
#145 = VERTEX_POINT ( 'NONE', #9 ) ;
#146 = DIRECTION ( 'NONE',  ( 1.000000000000000000, 0.0000000000000000000, 0.0000000000000000000 ) ) ;
#147 = PRODUCT_RELATED_PRODUCT_CATEGORY ( 'part', '', ( #342 ) ) ;
#148 = DIRECTION ( 'NONE',  ( 1.000000000000000000, 0.0000000000000000000, 0.0000000000000000000 ) ) ;
#149 = CARTESIAN_POINT ( 'NONE',  ( 0.0000000000000000000, 0.09999999999999999167, 0.1999999999999999833 ) ) ;
#150 = DIRECTION ( 'NONE',  ( 0.0000000000000000000, 0.0000000000000000000, -1.000000000000000000 ) ) ;
#151 = CARTESIAN_POINT ( 'NONE',  ( 0.0000000000000000000, 0.0000000000000000000, 0.0000000000000000000 ) ) ;
#152 = EDGE_CURVE ( 'NONE', #306, #31, #84, .T. ) ;
#153 =( CONVERSION_BASED_UNIT ( 'INCH', #23 ) LENGTH_UNIT ( ) NAMED_UNIT ( #10 ) );
#154 = CIRCLE ( 'NONE', #263, 0.1100000000000004446 ) ;
#155 = PRESENTATION_LAYER_ASSIGNMENT (  '', '', ( #308 ) ) ;
#156 = EDGE_CURVE ( 'NONE', #31, #144, #325, .T. ) ;
#157 = APPLICATION_CONTEXT ( 'automotive_design' ) ;
#158 = SPHERICAL_SURFACE ( 'NONE', #178, 0.1249999999999999861 ) ;
#159 = DIRECTION ( 'NONE',  ( 0.0000000000000000000, 0.0000000000000000000, 1.000000000000000000 ) ) ;
#160 = DIRECTION ( 'NONE',  ( -1.000000000000000000, 0.0000000000000000000, 0.0000000000000000000 ) ) ;
#161 = CIRCLE ( 'NONE', #50, 0.1100000000000004446 ) ;
#162 = DIRECTION ( 'NONE',  ( -0.0000000000000000000, -0.0000000000000000000, -1.000000000000000000 ) ) ;
#163 = VERTEX_POINT ( 'NONE', #316 ) ;
#164 = DIRECTION ( 'NONE',  ( -1.000000000000000000, 0.0000000000000000000, 0.0000000000000000000 ) ) ;
#165 = DIRECTION ( 'NONE',  ( 0.0000000000000000000, 0.0000000000000000000, 1.000000000000000000 ) ) ;
#166 = EDGE_LOOP ( 'NONE', ( #320, #176, #65, #111, #66 ) ) ;
#167 = ORIENTED_EDGE ( 'NONE', *, *, #73, .F. ) ;
#168 = DIRECTION ( 'NONE',  ( -1.000000000000000000, 0.0000000000000000000, 0.0000000000000000000 ) ) ;
#169 = ORIENTED_EDGE ( 'NONE', *, *, #104, .F. ) ;
#170 = ORIENTED_EDGE ( 'NONE', *, *, #75, .T. ) ;
#171 = EDGE_CURVE ( 'NONE', #119, #70, #89, .T. ) ;
#172 = AXIS2_PLACEMENT_3D ( 'NONE', #244, #82, #164 ) ;
#173 = CARTESIAN_POINT ( 'NONE',  ( 0.0000000000000000000, 0.0000000000000000000, 3.000000000000000444 ) ) ;
#174 = ORIENTED_EDGE ( 'NONE', *, *, #108, .F. ) ;
#175 =( LENGTH_UNIT ( ) NAMED_UNIT ( * ) SI_UNIT ( $, .METRE. ) );
#176 = ORIENTED_EDGE ( 'NONE', *, *, #203, .T. ) ;
#177 = DIRECTION ( 'NONE',  ( 1.000000000000000000, 0.0000000000000000000, 0.0000000000000000000 ) ) ;
#178 = AXIS2_PLACEMENT_3D ( 'NONE', #53, #345, #130 ) ;
#179 = LINE ( 'NONE', #143, #7 ) ;
#180 =( CONVERSION_BASED_UNIT ( 'INCH', #312 ) LENGTH_UNIT ( ) NAMED_UNIT ( #86 ) );
#181 = ORIENTED_EDGE ( 'NONE', *, *, #91, .T. ) ;
#182 = AXIS2_PLACEMENT_3D ( 'NONE', #52, #239, #120 ) ;
#183 = CARTESIAN_POINT ( 'NONE',  ( 0.1250000000000000000, 1.530808498934191201E-17, 3.000000000000000444 ) ) ;
#184 = CYLINDRICAL_SURFACE ( 'NONE', #182, 0.1250000000000000000 ) ;
#185 = DIRECTION ( 'NONE',  ( -0.7071067811865566766, 0.0000000000000000000, -0.7071067811865382469 ) ) ;
#186 = AXIS2_PLACEMENT_3D ( 'NONE', #201, #150, #69 ) ;
#187 = DIRECTION ( 'NONE',  ( -0.03569153051241254898, 4.370951859869611905E-18, 0.9993628543475495674 ) ) ;
#188 = ORIENTED_EDGE ( 'NONE', *, *, #102, .F. ) ;
#189 = ORIENTED_EDGE ( 'NONE', *, *, #300, .T. ) ;
#190 = DIRECTION ( 'NONE',  ( 0.7071067811865566766, 8.659560562355046257E-17, -0.7071067811865382469 ) ) ;
#191 = ORIENTED_EDGE ( 'NONE', *, *, #108, .T. ) ;
#192 = ORIENTED_EDGE ( 'NONE', *, *, #55, .T. ) ;
#193 = DIRECTION ( 'NONE',  ( -0.0000000000000000000, -0.0000000000000000000, -1.000000000000000000 ) ) ;
#194 = ORIENTED_EDGE ( 'NONE', *, *, #22, .T. ) ;
#195 = CYLINDRICAL_SURFACE ( 'NONE', #228, 0.09999999999999996392 ) ;
#196 = EDGE_LOOP ( 'NONE', ( #133, #191, #58, #169 ) ) ;
#197 = FILL_AREA_STYLE_COLOUR ( '', #234 ) ;
#198 = ORIENTED_EDGE ( 'NONE', *, *, #273, .F. ) ;
#199 = DIRECTION ( 'NONE',  ( 0.0000000000000000000, 0.0000000000000000000, 1.000000000000000000 ) ) ;
#200 = VECTOR ( 'NONE', #193, 39.37007874015748143 ) ;
#201 = CARTESIAN_POINT ( 'NONE',  ( 0.0000000000000000000, 0.0000000000000000000, 3.000000000000000444 ) ) ;
#202 = AXIS2_PLACEMENT_3D ( 'NONE', #151, #99, #262 ) ;
#203 = EDGE_CURVE ( 'NONE', #119, #218, #331, .T. ) ;
#204 = VERTEX_POINT ( 'NONE', #132 ) ;
#205 = FACE_OUTER_BOUND ( 'NONE', #219, .T. ) ;
#206 = PRODUCT_DEFINITION ( 'UNKNOWN', '', #339, #43 ) ;
#207 =( LENGTH_UNIT ( ) NAMED_UNIT ( * ) SI_UNIT ( $, .METRE. ) );
#208 = ORIENTED_EDGE ( 'NONE', *, *, #267, .F. ) ;
#209 = CONICAL_SURFACE ( 'NONE', #74, 0.1100000000000004446, 0.7853981633974613796 ) ;
#210 = CARTESIAN_POINT ( 'NONE',  ( 0.0000000000000000000, 0.0000000000000000000, 0.0000000000000000000 ) ) ;
#211 = PRESENTATION_STYLE_ASSIGNMENT (( #268 ) ) ;
#212 = FACE_OUTER_BOUND ( 'NONE', #251, .T. ) ;
#213 = CIRCLE ( 'NONE', #29, 0.09999999999999996392 ) ;
#214 = CARTESIAN_POINT ( 'NONE',  ( -0.09999999999999996392, 0.0000000000000000000, 0.0000000000000000000 ) ) ;
#215 = CARTESIAN_POINT ( 'NONE',  ( 0.09999999999999997780, 1.224646799147352961E-17, 0.1999999999999999833 ) ) ;
#216 = LINE ( 'NONE', #270, #274 ) ;
#217 = CARTESIAN_POINT ( 'NONE',  ( 0.1100000000000004446, 1.347111479062094019E-17, 3.000000000000000444 ) ) ;
#218 = VERTEX_POINT ( 'NONE', #302 ) ;
#219 = EDGE_LOOP ( 'NONE', ( #36, #189, #253, #188, #167 ) ) ;
#220 = AXIS2_PLACEMENT_3D ( 'NONE', #110, #159, #271 ) ;
#221 = AXIS2_PLACEMENT_3D ( 'NONE', #97, #68, #37 ) ;
#222 = DIRECTION ( 'NONE',  ( -0.0000000000000000000, -0.0000000000000000000, -1.000000000000000000 ) ) ;
#223 = ORIENTED_EDGE ( 'NONE', *, *, #75, .F. ) ;
#224 = LINE ( 'NONE', #217, #131 ) ;
#225 = ORIENTED_EDGE ( 'NONE', *, *, #203, .F. ) ;
#226 =( CONVERSION_BASED_UNIT ( 'INCH', #258 ) LENGTH_UNIT ( ) NAMED_UNIT ( #276 ) );
#227 = ORIENTED_EDGE ( 'NONE', *, *, #96, .F. ) ;
#228 = AXIS2_PLACEMENT_3D ( 'NONE', #255, #14, #121 ) ;
#229 = CARTESIAN_POINT ( 'NONE',  ( 0.0000000000000000000, 0.0000000000000000000, 3.000000000000000444 ) ) ;
#230 = CARTESIAN_POINT ( 'NONE',  ( 0.0000000000000000000, 0.0000000000000000000, 2.985000000000001208 ) ) ;
#231 = DIRECTION ( 'NONE',  ( 1.000000000000000000, 0.0000000000000000000, 0.0000000000000000000 ) ) ;
#232 = ADVANCED_FACE ( 'NONE', ( #26 ), #158, .T. ) ;
#233 = ADVANCED_FACE ( 'NONE', ( #3 ), #184, .T. ) ;
#234 = COLOUR_RGB ( '',0.7921568627450980005, 0.8196078431372548767, 0.9333333333333333481 ) ;
#235 =( GEOMETRIC_REPRESENTATION_CONTEXT ( 3 ) GLOBAL_UNCERTAINTY_ASSIGNED_CONTEXT ( ( #290 ) ) GLOBAL_UNIT_ASSIGNED_CONTEXT ( ( #180, #291, #24 ) ) REPRESENTATION_CONTEXT ( 'NONE', 'WORKASPACE' ) );
#236 = EDGE_CURVE ( 'NONE', #163, #245, #338, .T. ) ;
#237 = ORIENTED_EDGE ( 'NONE', *, *, #102, .T. ) ;
#238 = DIRECTION ( 'NONE',  ( 0.03569153051241254898, 0.0000000000000000000, 0.9993628543475495674 ) ) ;
#239 = DIRECTION ( 'NONE',  ( -0.0000000000000000000, -0.0000000000000000000, -1.000000000000000000 ) ) ;
#240 = CARTESIAN_POINT ( 'NONE',  ( -0.1250000000000000000, 1.530808498934191509E-17, 1.199999999999999956 ) ) ;
#241 = VERTEX_POINT ( 'NONE', #286 ) ;
#242 = EDGE_CURVE ( 'NONE', #116, #241, #154, .T. ) ;
#243 = ADVANCED_FACE ( 'NONE', ( #328 ), #292, .T. ) ;
#244 = CARTESIAN_POINT ( 'NONE',  ( 0.0000000000000000000, 0.0000000000000000000, 0.1999999999999999833 ) ) ;
#245 = VERTEX_POINT ( 'NONE', #305 ) ;
#246 = CARTESIAN_POINT ( 'NONE',  ( -0.1100000000000004446, 0.0000000000000000000, 3.000000000000000444 ) ) ;
#247 = MANIFOLD_SOLID_BREP ( 'Cut-Revolve3', #138 ) ;
#248 = MECHANICAL_DESIGN_GEOMETRIC_PRESENTATION_REPRESENTATION (  '', ( #308 ), #235 ) ;
#249 = DIRECTION ( 'NONE',  ( -0.0000000000000000000, -0.0000000000000000000, -1.000000000000000000 ) ) ;
#250 = CARTESIAN_POINT ( 'NONE',  ( 0.0000000000000000000, 0.0000000000000000000, 3.000000000000000444 ) ) ;
#251 = EDGE_LOOP ( 'NONE', ( #227, #32, #256, #41 ) ) ;
#252 = SPHERICAL_SURFACE ( 'NONE', #107, 0.1249999999999999861 ) ;
#253 = ORIENTED_EDGE ( 'NONE', *, *, #152, .F. ) ;
#254 = ORIENTED_EDGE ( 'NONE', *, *, #152, .T. ) ;
#255 = CARTESIAN_POINT ( 'NONE',  ( 0.0000000000000000000, 0.0000000000000000000, 0.0000000000000000000 ) ) ;
#256 = ORIENTED_EDGE ( 'NONE', *, *, #22, .F. ) ;
#257 = PRESENTATION_LAYER_ASSIGNMENT (  '', '', ( #285 ) ) ;
#258 = LENGTH_MEASURE_WITH_UNIT ( LENGTH_MEASURE( 0.02539999999999999897 ), #175 );
#259 = ORIENTED_EDGE ( 'NONE', *, *, #295, .T. ) ;
#260 =( NAMED_UNIT ( * ) PLANE_ANGLE_UNIT ( ) SI_UNIT ( $, .RADIAN. ) );
#261 =( NAMED_UNIT ( * ) SI_UNIT ( $, .STERADIAN. ) SOLID_ANGLE_UNIT ( ) );
#262 = DIRECTION ( 'NONE',  ( 1.000000000000000000, 0.0000000000000000000, 0.0000000000000000000 ) ) ;
#263 = AXIS2_PLACEMENT_3D ( 'NONE', #173, #199, #177 ) ;
#264 = APPLICATION_PROTOCOL_DEFINITION ( 'draft international standard', 'automotive_design', 1998, #157 ) ;
#265 = CIRCLE ( 'NONE', #220, 0.1250000000000000000 ) ;
#266 = AXIS2_PLACEMENT_3D ( 'NONE', #94, #126, #48 ) ;
#267 = EDGE_CURVE ( 'NONE', #306, #145, #125, .T. ) ;
#268 = SURFACE_STYLE_USAGE ( .BOTH. , #103 ) ;
#269 = DIRECTION ( 'NONE',  ( -0.0000000000000000000, -0.0000000000000000000, -1.000000000000000000 ) ) ;
#270 = CARTESIAN_POINT ( 'NONE',  ( -0.1374999999999998168, 1.683889348827608472E-17, 1.549999999999994049 ) ) ;
#271 = DIRECTION ( 'NONE',  ( 1.000000000000000000, 0.0000000000000000000, 0.0000000000000000000 ) ) ;
#272 = DIRECTION ( 'NONE',  ( 0.0000000000000000000, 0.0000000000000000000, -1.000000000000000000 ) ) ;
#273 = EDGE_CURVE ( 'NONE', #241, #116, #161, .T. ) ;
#274 = VECTOR ( 'NONE', #187, 39.37007874015748143 ) ;
#275 = CARTESIAN_POINT ( 'NONE',  ( 0.0000000000000000000, 0.0000000000000000000, 0.5000000000000000000 ) ) ;
#276 = DIMENSIONAL_EXPONENTS ( 1.000000000000000000, 0.0000000000000000000, 0.0000000000000000000, 0.0000000000000000000, 0.0000000000000000000, 0.0000000000000000000, 0.0000000000000000000 ) ;
#277 = CARTESIAN_POINT ( 'NONE',  ( 0.0000000000000000000, 0.0000000000000000000, 0.1999999999999999833 ) ) ;
#278 = CARTESIAN_POINT ( 'NONE',  ( 0.0000000000000000000, 0.0000000000000000000, 3.000000000000000444 ) ) ;
#279 = ORIENTED_EDGE ( 'NONE', *, *, #242, .T. ) ;
#280 = SURFACE_STYLE_USAGE ( .BOTH. , #282 ) ;
#281 = DIRECTION ( 'NONE',  ( 0.0000000000000000000, 0.0000000000000000000, 1.000000000000000000 ) ) ;
#282 = SURFACE_SIDE_STYLE ('',( #304 ) ) ;
#283 = ORIENTED_EDGE ( 'NONE', *, *, #171, .T. ) ;
#284 = AXIS2_PLACEMENT_3D ( 'NONE', #135, #165, #4 ) ;
#285 = STYLED_ITEM ( 'NONE', ( #18 ), #247 ) ;
#286 = CARTESIAN_POINT ( 'NONE',  ( -0.1100000000000004446, 0.0000000000000000000, 3.000000000000000444 ) ) ;
#287 = EDGE_CURVE ( 'NONE', #144, #145, #127, .T. ) ;
#288 = SHAPE_DEFINITION_REPRESENTATION ( #335, #340 ) ;
#289 = AXIS2_PLACEMENT_3D ( 'NONE', #6, #272, #298 ) ;
#290 = UNCERTAINTY_MEASURE_WITH_UNIT (LENGTH_MEASURE( 1.000000000000000082E-05 ), #180, 'distance_accuracy_value', 'NONE');
#291 =( NAMED_UNIT ( * ) PLANE_ANGLE_UNIT ( ) SI_UNIT ( $, .RADIAN. ) );
#292 = CONICAL_SURFACE ( 'NONE', #186, 0.1100000000000004446, 0.7853981633974613796 ) ;
#293 = DIRECTION ( 'NONE',  ( -0.0000000000000000000, -0.0000000000000000000, -1.000000000000000000 ) ) ;
#294 = DIRECTION ( 'NONE',  ( -0.0000000000000000000, -0.0000000000000000000, -1.000000000000000000 ) ) ;
#295 = EDGE_CURVE ( 'NONE', #5, #70, #319, .T. ) ;
#296 = DIRECTION ( 'NONE',  ( -1.000000000000000000, 0.0000000000000000000, 0.0000000000000000000 ) ) ;
#297 = CYLINDRICAL_SURFACE ( 'NONE', #19, 0.09999999999999996392 ) ;
#298 = DIRECTION ( 'NONE',  ( 1.000000000000000000, 0.0000000000000000000, 0.0000000000000000000 ) ) ;
#299 = ORIENTED_EDGE ( 'NONE', *, *, #273, .T. ) ;
#300 = EDGE_CURVE ( 'NONE', #119, #31, #179, .T. ) ;
#301 = LINE ( 'NONE', #246, #100 ) ;
#302 = CARTESIAN_POINT ( 'NONE',  ( -0.09999999999999996392, 1.377727649040772081E-17, 0.5000000000000000000 ) ) ;
#303 = CONICAL_SURFACE ( 'NONE', #266, 0.1374999999999998168, 0.03569911267932403265 ) ;
#304 = SURFACE_STYLE_FILL_AREA ( #72 ) ;
#305 = CARTESIAN_POINT ( 'NONE',  ( -0.1250000000000000000, 0.0000000000000000000, 2.985000000000001208 ) ) ;
#306 = VERTEX_POINT ( 'NONE', #149 ) ;
#307 = AXIS2_PLACEMENT_3D ( 'NONE', #230, #123, #148 ) ;
#308 = STYLED_ITEM ( 'NONE', ( #211 ), #340 ) ;
#309 = ADVANCED_FACE ( 'NONE', ( #332 ), #252, .T. ) ;
#310 = AXIS2_PLACEMENT_3D ( 'NONE', #250, #162, #168 ) ;
#311 = FILL_AREA_STYLE_COLOUR ( '', #93 ) ;
#312 = LENGTH_MEASURE_WITH_UNIT ( LENGTH_MEASURE( 0.02539999999999999897 ), #207 );
#313 = AXIS2_PLACEMENT_3D ( 'NONE', #71, #40, #329 ) ;
#314 = LINE ( 'NONE', #214, #200 ) ;
#315 = DIRECTION ( 'NONE',  ( 1.000000000000000000, 0.0000000000000000000, 0.0000000000000000000 ) ) ;
#316 = CARTESIAN_POINT ( 'NONE',  ( 0.1250000000000000000, 1.530808498934191201E-17, 2.985000000000001208 ) ) ;
#317 = DIRECTION ( 'NONE',  ( -1.000000000000000000, 0.0000000000000000000, 0.0000000000000000000 ) ) ;
#318 = CONICAL_SURFACE ( 'NONE', #114, 0.1374999999999998168, 0.03569911267932403265 ) ;
#319 = CIRCLE ( 'NONE', #54, 0.1250000000000000000 ) ;
#320 = ORIENTED_EDGE ( 'NONE', *, *, #300, .F. ) ;
#321 = CARTESIAN_POINT ( 'NONE',  ( 0.1100000000000004446, 1.438959988998142687E-17, 3.000000000000000444 ) ) ;
#322 = EDGE_LOOP ( 'NONE', ( #142, #333, #170, #259 ) ) ;
#323 = DIRECTION ( 'NONE',  ( -0.0000000000000000000, -0.0000000000000000000, -1.000000000000000000 ) ) ;
#324 = ORIENTED_EDGE ( 'NONE', *, *, #287, .T. ) ;
#325 = CIRCLE ( 'NONE', #64, 0.09999999999999997780 ) ;
#326 = FACE_OUTER_BOUND ( 'NONE', #56, .T. ) ;
#327 = ORIENTED_EDGE ( 'NONE', *, *, #287, .F. ) ;
#328 = FACE_OUTER_BOUND ( 'NONE', #34, .T. ) ;
#329 = DIRECTION ( 'NONE',  ( -1.224646799147353207E-16, 1.000000000000000000, 0.0000000000000000000 ) ) ;
#330 = VECTOR ( 'NONE', #293, 39.37007874015748143 ) ;
#331 = CIRCLE ( 'NONE', #122, 0.09999999999999996392 ) ;
#332 = FACE_OUTER_BOUND ( 'NONE', #88, .T. ) ;
#333 = ORIENTED_EDGE ( 'NONE', *, *, #236, .T. ) ;
#334 =( NAMED_UNIT ( * ) PLANE_ANGLE_UNIT ( ) SI_UNIT ( $, .RADIAN. ) );
#335 = PRODUCT_DEFINITION_SHAPE ( 'NONE', 'NONE',  #206 ) ;
#336 = ADVANCED_FACE ( 'NONE', ( #205 ), #195, .T. ) ;
#337 =( LENGTH_UNIT ( ) NAMED_UNIT ( * ) SI_UNIT ( $, .METRE. ) );
#338 = CIRCLE ( 'NONE', #307, 0.1250000000000000000 ) ;
#339 = PRODUCT_DEFINITION_FORMATION_WITH_SPECIFIED_SOURCE ( 'ANY', '', #342, .NOT_KNOWN. ) ;
#340 = ADVANCED_BREP_SHAPE_REPRESENTATION ( 'Micro_SBM-250-4', ( #247, #202 ), #344 ) ;
#341 = ADVANCED_FACE ( 'NONE', ( #326 ), #303, .T. ) ;
#342 = PRODUCT ( 'Micro_SBM-250-4', 'Micro_SBM-250-4', '', ( #21 ) ) ;
#343 = FACE_OUTER_BOUND ( 'NONE', #196, .T. ) ;
#344 =( GEOMETRIC_REPRESENTATION_CONTEXT ( 3 ) GLOBAL_UNCERTAINTY_ASSIGNED_CONTEXT ( ( #45 ) ) GLOBAL_UNIT_ASSIGNED_CONTEXT ( ( #153, #334, #77 ) ) REPRESENTATION_CONTEXT ( 'NONE', 'WORKASPACE' ) );
#345 = DIRECTION ( 'NONE',  ( 1.000000000000000000, 0.0000000000000000000, 0.0000000000000000000 ) ) ;
ENDSEC;
END-ISO-10303-21;
