ISO-10303-21;
HEADER;
FILE_DESCRIPTION (( 'STEP AP214' ),
    '1' );
FILE_NAME ('48365.STEP',
    '2023-06-22T21:28:21',
    ( '' ),
    ( '' ),
    'SwSTEP 2.0',
    'SolidWorks 2023',
    '' );
FILE_SCHEMA (( 'AUTOMOTIVE_DESIGN' ));
ENDSEC;

DATA;
#1 = ORIENTED_EDGE ( 'NONE', *, *, #104, .F. ) ;
#2 = FILL_AREA_STYLE_COLOUR ( '', #172 ) ;
#3 = VECTOR ( 'NONE', #167, 39.37007874015748143 ) ;
#4 = CARTESIAN_POINT ( 'NONE',  ( -6.123233995736772199E-17, 3.000000000000000444, 0.000000000000000000 ) ) ;
#5 = PRODUCT_DEFINITION_CONTEXT ( 'detailed design', #130, 'design' ) ;
#6 = FACE_OUTER_BOUND ( 'NONE', #72, .T. ) ;
#7 = LENGTH_MEASURE_WITH_UNIT ( LENGTH_MEASURE( 0.02539999999999999897 ), #247 );
#8 = DIRECTION ( 'NONE',  ( 0.000000000000000000, 0.000000000000000000, -1.000000000000000000 ) ) ;
#9 = CARTESIAN_POINT ( 'NONE',  ( -6.123233995736772199E-17, 3.000000000000000444, 0.000000000000000000 ) ) ;
#10 = ORIENTED_EDGE ( 'NONE', *, *, #253, .F. ) ;
#11 = EDGE_CURVE ( 'NONE', #95, #224, #97, .T. ) ;
#12 =( NAMED_UNIT ( * ) PLANE_ANGLE_UNIT ( ) SI_UNIT ( $, .RADIAN. ) );
#13 =( NAMED_UNIT ( * ) SI_UNIT ( $, .STERADIAN. ) SOLID_ANGLE_UNIT ( ) );
#14 = LINE ( 'NONE', #109, #3 ) ;
#15 =( NAMED_UNIT ( * ) SI_UNIT ( $, .STERADIAN. ) SOLID_ANGLE_UNIT ( ) );
#16 = VECTOR ( 'NONE', #173, 39.37007874015748143 ) ;
#17 = FILL_AREA_STYLE_COLOUR ( '', #304 ) ;
#18 = ADVANCED_FACE ( 'NONE', ( #237 ), #26, .T. ) ;
#19 = CIRCLE ( 'NONE', #67, 0.2500000000000001110 ) ;
#20 = PRODUCT ( '48365', '48365', '', ( #168 ) ) ;
#21 = DIMENSIONAL_EXPONENTS ( 1.000000000000000000, 0.000000000000000000, 0.000000000000000000, 0.000000000000000000, 0.000000000000000000, 0.000000000000000000, 0.000000000000000000 ) ;
#22 = EDGE_LOOP ( 'NONE', ( #233, #1 ) ) ;
#23 = EDGE_CURVE ( 'NONE', #284, #227, #205, .T. ) ;
#24 = ORIENTED_EDGE ( 'NONE', *, *, #259, .F. ) ;
#25 =( CONVERSION_BASED_UNIT ( 'INCH', #285 ) LENGTH_UNIT ( ) NAMED_UNIT ( #21 ) );
#26 = CYLINDRICAL_SURFACE ( 'NONE', #127, 0.2500000000000000000 ) ;
#27 = STYLED_ITEM ( 'NONE', ( #33 ), #208 ) ;
#28 =( CONVERSION_BASED_UNIT ( 'INCH', #145 ) LENGTH_UNIT ( ) NAMED_UNIT ( #216 ) );
#29 = DIRECTION ( 'NONE',  ( -0.000000000000000000, -1.000000000000000000, -0.000000000000000000 ) ) ;
#30 =( CONVERSION_BASED_UNIT ( 'INCH', #7 ) LENGTH_UNIT ( ) NAMED_UNIT ( #124 ) );
#31 = UNCERTAINTY_MEASURE_WITH_UNIT (LENGTH_MEASURE( 1.000000000000000082E-05 ), #30, 'distance_accuracy_value', 'NONE');
#32 = CLOSED_SHELL ( 'NONE', ( #213, #182, #283, #189 ) ) ;
#33 = PRESENTATION_STYLE_ASSIGNMENT (( #252 ) ) ;
#34 = CYLINDRICAL_SURFACE ( 'NONE', #202, 0.2500000000000000555 ) ;
#35 = SURFACE_SIDE_STYLE ('',( #146 ) ) ;
#36 = FILL_AREA_STYLE ('',( #17 ) ) ;
#37 = COLOUR_RGB ( '',1.000000000000000000, 0.000000000000000000, 0.000000000000000000 ) ;
#38 = DIRECTION ( 'NONE',  ( 0.000000000000000000, 0.000000000000000000, -1.000000000000000000 ) ) ;
#39 = AXIS2_PLACEMENT_3D ( 'NONE', #52, #245, #110 ) ;
#40 =( NAMED_UNIT ( * ) PLANE_ANGLE_UNIT ( ) SI_UNIT ( $, .RADIAN. ) );
#41 = CARTESIAN_POINT ( 'NONE',  ( 3.061616997868383634E-17, 1.000000000000000000, 0.2500000000000000555 ) ) ;
#42 =( GEOMETRIC_REPRESENTATION_CONTEXT ( 3 ) GLOBAL_UNCERTAINTY_ASSIGNED_CONTEXT ( ( #250 ) ) GLOBAL_UNIT_ASSIGNED_CONTEXT ( ( #25, #125, #92 ) ) REPRESENTATION_CONTEXT ( 'NONE', 'WORKASPACE' ) );
#43 = MECHANICAL_DESIGN_GEOMETRIC_PRESENTATION_REPRESENTATION (  '', ( #27 ), #185 ) ;
#44 = LENGTH_MEASURE_WITH_UNIT ( LENGTH_MEASURE( 0.02539999999999999897 ), #294 );
#45 = DIRECTION ( 'NONE',  ( 0.000000000000000000, -0.000000000000000000, 1.000000000000000000 ) ) ;
#46 = DIRECTION ( 'NONE',  ( -0.000000000000000000, -1.000000000000000000, -0.000000000000000000 ) ) ;
#47 = AXIS2_PLACEMENT_3D ( 'NONE', #88, #141, #307 ) ;
#48 = DIMENSIONAL_EXPONENTS ( 1.000000000000000000, 0.000000000000000000, 0.000000000000000000, 0.000000000000000000, 0.000000000000000000, 0.000000000000000000, 0.000000000000000000 ) ;
#49 = ADVANCED_BREP_SHAPE_REPRESENTATION ( '48365', ( #208, #114, #178 ), #106 ) ;
#50 = PRESENTATION_STYLE_ASSIGNMENT (( #203 ) ) ;
#51 = CARTESIAN_POINT ( 'NONE',  ( 0.2500000000000000555, 3.000000000000000444, 0.000000000000000000 ) ) ;
#52 = CARTESIAN_POINT ( 'NONE',  ( 0.000000000000000000, 1.000000000000000000, 0.000000000000000000 ) ) ;
#53 = EDGE_CURVE ( 'NONE', #224, #66, #76, .T. ) ;
#54 = DIRECTION ( 'NONE',  ( -1.000000000000000000, -3.061616997868386099E-17, 0.000000000000000000 ) ) ;
#55 =( CONVERSION_BASED_UNIT ( 'INCH', #271 ) LENGTH_UNIT ( ) NAMED_UNIT ( #48 ) );
#56 = COLOUR_RGB ( '',1.000000000000000000, 0.000000000000000000, 0.000000000000000000 ) ;
#57 = AXIS2_PLACEMENT_3D ( 'NONE', #290, #75, #161 ) ;
#58 = ORIENTED_EDGE ( 'NONE', *, *, #104, .T. ) ;
#59 = PLANE ( 'NONE',  #116 ) ;
#60 = FILL_AREA_STYLE_COLOUR ( '', #292 ) ;
#61 = DIRECTION ( 'NONE',  ( -0.000000000000000000, -1.000000000000000000, -0.000000000000000000 ) ) ;
#62 = STYLED_ITEM ( 'NONE', ( #50 ), #63 ) ;
#63 = ADVANCED_FACE ( 'NONE', ( #204 ), #278, .T. ) ;
#64 = PLANE ( 'NONE',  #122 ) ;
#65 =( NAMED_UNIT ( * ) PLANE_ANGLE_UNIT ( ) SI_UNIT ( $, .RADIAN. ) );
#66 = VERTEX_POINT ( 'NONE', #301 ) ;
#67 = AXIS2_PLACEMENT_3D ( 'NONE', #175, #228, #112 ) ;
#68 =( NAMED_UNIT ( * ) SI_UNIT ( $, .STERADIAN. ) SOLID_ANGLE_UNIT ( ) );
#69 = EDGE_CURVE ( 'NONE', #174, #66, #133, .T. ) ;
#70 = AXIS2_PLACEMENT_3D ( 'NONE', #276, #61, #38 ) ;
#71 = MECHANICAL_DESIGN_GEOMETRIC_PRESENTATION_REPRESENTATION (  '', ( #91 ), #265 ) ;
#72 = EDGE_LOOP ( 'NONE', ( #160, #58, #115, #209 ) ) ;
#73 = PLANE ( 'NONE',  #218 ) ;
#74 = DIMENSIONAL_EXPONENTS ( 1.000000000000000000, 0.000000000000000000, 0.000000000000000000, 0.000000000000000000, 0.000000000000000000, 0.000000000000000000, 0.000000000000000000 ) ;
#75 = DIRECTION ( 'NONE',  ( -3.061616997868386099E-17, 1.000000000000000000, -0.000000000000000000 ) ) ;
#76 = CIRCLE ( 'NONE', #70, 0.2500000000000000000 ) ;
#77 = CARTESIAN_POINT ( 'NONE',  ( 0.000000000000000000, 1.000000000000000000, 0.000000000000000000 ) ) ;
#78 = LENGTH_MEASURE_WITH_UNIT ( LENGTH_MEASURE( 0.02539999999999999897 ), #249 );
#79 = APPLICATION_PROTOCOL_DEFINITION ( 'draft international standard', 'automotive_design', 1998, #180 ) ;
#80 = ORIENTED_EDGE ( 'NONE', *, *, #11, .F. ) ;
#81 = CARTESIAN_POINT ( 'NONE',  ( 1.171687330204578822E-34, 1.000000000000000000, 0.000000000000000000 ) ) ;
#82 =( CONVERSION_BASED_UNIT ( 'INCH', #78 ) LENGTH_UNIT ( ) NAMED_UNIT ( #96 ) );
#83 = VERTEX_POINT ( 'NONE', #148 ) ;
#84 = FILL_AREA_STYLE_COLOUR ( '', #128 ) ;
#85 = CARTESIAN_POINT ( 'NONE',  ( 3.061616997868383018E-17, 0.000000000000000000, 0.2500000000000000000 ) ) ;
#86 = DIRECTION ( 'NONE',  ( -3.061616997868386099E-17, 1.000000000000000000, -0.000000000000000000 ) ) ;
#87 = EDGE_CURVE ( 'NONE', #284, #297, #14, .T. ) ;
#88 = CARTESIAN_POINT ( 'NONE',  ( 7.582401355855259480E-33, 1.000000000000000000, 0.000000000000000000 ) ) ;
#89 = EDGE_CURVE ( 'NONE', #227, #83, #113, .T. ) ;
#90 = AXIS2_PLACEMENT_3D ( 'NONE', #129, #220, #102 ) ;
#91 = STYLED_ITEM ( 'NONE', ( #157 ), #263 ) ;
#92 =( NAMED_UNIT ( * ) SI_UNIT ( $, .STERADIAN. ) SOLID_ANGLE_UNIT ( ) );
#93 = SURFACE_STYLE_FILL_AREA ( #159 ) ;
#94 = EDGE_LOOP ( 'NONE', ( #108, #164, #119, #10 ) ) ;
#95 = VERTEX_POINT ( 'NONE', #223 ) ;
#96 = DIMENSIONAL_EXPONENTS ( 1.000000000000000000, 0.000000000000000000, 0.000000000000000000, 0.000000000000000000, 0.000000000000000000, 0.000000000000000000, 0.000000000000000000 ) ;
#97 = LINE ( 'NONE', #140, #260 ) ;
#98 = MECHANICAL_DESIGN_GEOMETRIC_PRESENTATION_REPRESENTATION (  '', ( #217 ), #156 ) ;
#99 = FILL_AREA_STYLE ('',( #126 ) ) ;
#100 = DIRECTION ( 'NONE',  ( 0.000000000000000000, 1.000000000000000000, 0.000000000000000000 ) ) ;
#101 = UNCERTAINTY_MEASURE_WITH_UNIT (LENGTH_MEASURE( 1.000000000000000082E-05 ), #277, 'distance_accuracy_value', 'NONE');
#102 = DIRECTION ( 'NONE',  ( 0.000000000000000000, 0.000000000000000000, -1.000000000000000000 ) ) ;
#103 =( NAMED_UNIT ( * ) SI_UNIT ( $, .STERADIAN. ) SOLID_ANGLE_UNIT ( ) );
#104 = EDGE_CURVE ( 'NONE', #174, #95, #239, .T. ) ;
#105 = PRESENTATION_LAYER_ASSIGNMENT (  '', '', ( #232 ) ) ;
#106 =( GEOMETRIC_REPRESENTATION_CONTEXT ( 3 ) GLOBAL_UNCERTAINTY_ASSIGNED_CONTEXT ( ( #243 ) ) GLOBAL_UNIT_ASSIGNED_CONTEXT ( ( #234, #12, #15 ) ) REPRESENTATION_CONTEXT ( 'NONE', 'WORKASPACE' ) );
#107 =( LENGTH_UNIT ( ) NAMED_UNIT ( * ) SI_UNIT ( $, .METRE. ) );
#108 = ORIENTED_EDGE ( 'NONE', *, *, #87, .F. ) ;
#109 = CARTESIAN_POINT ( 'NONE',  ( 0.2500000000000000000, 3.000000000000000444, 3.061616997868383634E-17 ) ) ;
#110 = DIRECTION ( 'NONE',  ( 0.000000000000000000, 0.000000000000000000, -1.000000000000000000 ) ) ;
#111 = DIRECTION ( 'NONE',  ( 0.000000000000000000, 0.000000000000000000, 1.000000000000000000 ) ) ;
#112 = DIRECTION ( 'NONE',  ( -1.000000000000000000, 0.000000000000000000, 0.000000000000000000 ) ) ;
#113 = LINE ( 'NONE', #152, #16 ) ;
#114 = MANIFOLD_SOLID_BREP ( 'Revolve - Tool Body (Straight Shanked)', #32 ) ;
#115 = ORIENTED_EDGE ( 'NONE', *, *, #11, .T. ) ;
#116 = AXIS2_PLACEMENT_3D ( 'NONE', #81, #197, #54 ) ;
#117 = EDGE_LOOP ( 'NONE', ( #308, #150 ) ) ;
#118 = LENGTH_MEASURE_WITH_UNIT ( LENGTH_MEASURE( 0.02539999999999999897 ), #305 );
#119 = ORIENTED_EDGE ( 'NONE', *, *, #89, .T. ) ;
#120 = UNCERTAINTY_MEASURE_WITH_UNIT (LENGTH_MEASURE( 1.000000000000000082E-05 ), #82, 'distance_accuracy_value', 'NONE');
#121 =( GEOMETRIC_REPRESENTATION_CONTEXT ( 3 ) GLOBAL_UNCERTAINTY_ASSIGNED_CONTEXT ( ( #120 ) ) GLOBAL_UNIT_ASSIGNED_CONTEXT ( ( #82, #153, #288 ) ) REPRESENTATION_CONTEXT ( 'NONE', 'WORKASPACE' ) );
#122 = AXIS2_PLACEMENT_3D ( 'NONE', #77, #100, #45 ) ;
#123 =( NAMED_UNIT ( * ) SI_UNIT ( $, .STERADIAN. ) SOLID_ANGLE_UNIT ( ) );
#124 = DIMENSIONAL_EXPONENTS ( 1.000000000000000000, 0.000000000000000000, 0.000000000000000000, 0.000000000000000000, 0.000000000000000000, 0.000000000000000000, 0.000000000000000000 ) ;
#125 =( NAMED_UNIT ( * ) PLANE_ANGLE_UNIT ( ) SI_UNIT ( $, .RADIAN. ) );
#126 = FILL_AREA_STYLE_COLOUR ( '', #56 ) ;
#127 = AXIS2_PLACEMENT_3D ( 'NONE', #195, #177, #138 ) ;
#128 = COLOUR_RGB ( '',0.7921568627450980005, 0.8196078431372548767, 0.9333333333333333481 ) ;
#129 = CARTESIAN_POINT ( 'NONE',  ( 0.000000000000000000, 0.000000000000000000, 0.000000000000000000 ) ) ;
#130 = APPLICATION_CONTEXT ( 'automotive_design' ) ;
#131 = ORIENTED_EDGE ( 'NONE', *, *, #132, .T. ) ;
#132 = EDGE_CURVE ( 'NONE', #227, #284, #248, .T. ) ;
#133 = LINE ( 'NONE', #85, #256 ) ;
#134 = DIRECTION ( 'NONE',  ( 1.000000000000000000, 0.000000000000000000, 0.000000000000000000 ) ) ;
#135 = EDGE_LOOP ( 'NONE', ( #273, #214 ) ) ;
#136 = FACE_OUTER_BOUND ( 'NONE', #306, .T. ) ;
#137 = SURFACE_STYLE_FILL_AREA ( #36 ) ;
#138 = DIRECTION ( 'NONE',  ( 0.000000000000000000, 0.000000000000000000, -1.000000000000000000 ) ) ;
#139 = AXIS2_PLACEMENT_3D ( 'NONE', #171, #299, #270 ) ;
#140 = CARTESIAN_POINT ( 'NONE',  ( 0.000000000000000000, 0.000000000000000000, -0.2500000000000000000 ) ) ;
#141 = DIRECTION ( 'NONE',  ( -3.061616997868386099E-17, 1.000000000000000000, -0.000000000000000000 ) ) ;
#142 = AXIS2_PLACEMENT_3D ( 'NONE', #192, #29, #8 ) ;
#143 = FACE_OUTER_BOUND ( 'NONE', #94, .T. ) ;
#144 = PRESENTATION_LAYER_ASSIGNMENT (  '', '', ( #62 ) ) ;
#145 = LENGTH_MEASURE_WITH_UNIT ( LENGTH_MEASURE( 0.02539999999999999897 ), #244 );
#146 = SURFACE_STYLE_FILL_AREA ( #155 ) ;
#147 = CYLINDRICAL_SURFACE ( 'NONE', #293, 0.2500000000000000555 ) ;
#148 = CARTESIAN_POINT ( 'NONE',  ( -0.2500000000000001665, 3.000000000000000444, 0.000000000000000000 ) ) ;
#149 = CARTESIAN_POINT ( 'NONE',  ( -0.2500000000000000555, 1.000000000000000000, 0.000000000000000000 ) ) ;
#150 = ORIENTED_EDGE ( 'NONE', *, *, #23, .F. ) ;
#151 = PRODUCT_RELATED_PRODUCT_CATEGORY ( 'part', '', ( #20 ) ) ;
#152 = CARTESIAN_POINT ( 'NONE',  ( -0.2500000000000001110, 3.000000000000000444, 0.000000000000000000 ) ) ;
#153 =( NAMED_UNIT ( * ) PLANE_ANGLE_UNIT ( ) SI_UNIT ( $, .RADIAN. ) );
#154 = SURFACE_STYLE_FILL_AREA ( #251 ) ;
#155 = FILL_AREA_STYLE ('',( #60 ) ) ;
#156 =( GEOMETRIC_REPRESENTATION_CONTEXT ( 3 ) GLOBAL_UNCERTAINTY_ASSIGNED_CONTEXT ( ( #282 ) ) GLOBAL_UNIT_ASSIGNED_CONTEXT ( ( #55, #65, #123 ) ) REPRESENTATION_CONTEXT ( 'NONE', 'WORKASPACE' ) );
#157 = PRESENTATION_STYLE_ASSIGNMENT (( #303 ) ) ;
#158 = ORIENTED_EDGE ( 'NONE', *, *, #69, .T. ) ;
#159 = FILL_AREA_STYLE ('',( #212 ) ) ;
#160 = ORIENTED_EDGE ( 'NONE', *, *, #69, .F. ) ;
#161 = DIRECTION ( 'NONE',  ( -1.000000000000000000, 0.000000000000000000, 0.000000000000000000 ) ) ;
#162 = UNCERTAINTY_MEASURE_WITH_UNIT (LENGTH_MEASURE( 1.000000000000000082E-05 ), #28, 'distance_accuracy_value', 'NONE');
#163 = MECHANICAL_DESIGN_GEOMETRIC_PRESENTATION_REPRESENTATION (  '', ( #62 ), #226 ) ;
#164 = ORIENTED_EDGE ( 'NONE', *, *, #23, .T. ) ;
#165 = ORIENTED_EDGE ( 'NONE', *, *, #53, .T. ) ;
#166 = CIRCLE ( 'NONE', #57, 0.2500000000000001110 ) ;
#167 = DIRECTION ( 'NONE',  ( -3.061616997868386099E-17, 1.000000000000000000, -0.000000000000000000 ) ) ;
#168 = PRODUCT_CONTEXT ( 'NONE', #180, 'mechanical' ) ;
#169 = ADVANCED_FACE ( 'NONE', ( #6 ), #230, .T. ) ;
#170 = DIRECTION ( 'NONE',  ( 1.000000000000000000, 3.061616997868386099E-17, 0.000000000000000000 ) ) ;
#171 = CARTESIAN_POINT ( 'NONE',  ( 0.000000000000000000, 0.000000000000000000, 0.000000000000000000 ) ) ;
#172 = COLOUR_RGB ( '',1.000000000000000000, 0.000000000000000000, 0.000000000000000000 ) ;
#173 = DIRECTION ( 'NONE',  ( -3.061616997868386099E-17, 1.000000000000000000, -0.000000000000000000 ) ) ;
#174 = VERTEX_POINT ( 'NONE', #41 ) ;
#175 = CARTESIAN_POINT ( 'NONE',  ( -6.123233995736772199E-17, 3.000000000000000444, 0.000000000000000000 ) ) ;
#176 = DIRECTION ( 'NONE',  ( -1.000000000000000000, 0.000000000000000000, 0.000000000000000000 ) ) ;
#177 = DIRECTION ( 'NONE',  ( -0.000000000000000000, -1.000000000000000000, -0.000000000000000000 ) ) ;
#178 = AXIS2_PLACEMENT_3D ( 'NONE', #254, #111, #134 ) ;
#179 = PRESENTATION_LAYER_ASSIGNMENT (  '', '', ( #217 ) ) ;
#180 = APPLICATION_CONTEXT ( 'automotive_design' ) ;
#181 = CARTESIAN_POINT ( 'NONE',  ( 0.000000000000000000, 0.000000000000000000, 0.000000000000000000 ) ) ;
#182 = ADVANCED_FACE ( 'NONE', ( #231 ), #59, .F. ) ;
#183 = PRODUCT_DEFINITION_SHAPE ( 'NONE', 'NONE',  #206 ) ;
#184 = STYLED_ITEM ( 'NONE', ( #296 ), #18 ) ;
#185 =( GEOMETRIC_REPRESENTATION_CONTEXT ( 3 ) GLOBAL_UNCERTAINTY_ASSIGNED_CONTEXT ( ( #162 ) ) GLOBAL_UNIT_ASSIGNED_CONTEXT ( ( #28, #295, #13 ) ) REPRESENTATION_CONTEXT ( 'NONE', 'WORKASPACE' ) );
#186 = ORIENTED_EDGE ( 'NONE', *, *, #53, .F. ) ;
#187 = CARTESIAN_POINT ( 'NONE',  ( 0.2500000000000000555, 3.000000000000000444, 3.061616997868384251E-17 ) ) ;
#188 = SURFACE_STYLE_FILL_AREA ( #99 ) ;
#189 = ADVANCED_FACE ( 'NONE', ( #222 ), #73, .F. ) ;
#190 = DIMENSIONAL_EXPONENTS ( 1.000000000000000000, 0.000000000000000000, 0.000000000000000000, 0.000000000000000000, 0.000000000000000000, 0.000000000000000000, 0.000000000000000000 ) ;
#191 = CARTESIAN_POINT ( 'NONE',  ( 0.2500000000000000555, 1.000000000000000000, 3.061616997868384251E-17 ) ) ;
#192 = CARTESIAN_POINT ( 'NONE',  ( 0.000000000000000000, 1.000000000000000000, 0.000000000000000000 ) ) ;
#193 = MECHANICAL_DESIGN_GEOMETRIC_PRESENTATION_REPRESENTATION (  '', ( #184 ), #121 ) ;
#194 = CARTESIAN_POINT ( 'NONE',  ( 0.000000000000000000, 0.000000000000000000, -0.2500000000000000000 ) ) ;
#195 = CARTESIAN_POINT ( 'NONE',  ( 0.000000000000000000, 0.000000000000000000, 0.000000000000000000 ) ) ;
#196 = ORIENTED_EDGE ( 'NONE', *, *, #289, .T. ) ;
#197 = DIRECTION ( 'NONE',  ( -3.061616997868386099E-17, 1.000000000000000000, 0.000000000000000000 ) ) ;
#198 = PRESENTATION_STYLE_ASSIGNMENT (( #241 ) ) ;
#199 =( NAMED_UNIT ( * ) PLANE_ANGLE_UNIT ( ) SI_UNIT ( $, .RADIAN. ) );
#200 = AXIS2_PLACEMENT_3D ( 'NONE', #258, #86, #176 ) ;
#201 = SURFACE_SIDE_STYLE ('',( #93 ) ) ;
#202 = AXIS2_PLACEMENT_3D ( 'NONE', #9, #274, #225 ) ;
#203 = SURFACE_STYLE_USAGE ( .BOTH. , #255 ) ;
#204 = FACE_OUTER_BOUND ( 'NONE', #275, .T. ) ;
#205 = CIRCLE ( 'NONE', #200, 0.2500000000000000555 ) ;
#206 = PRODUCT_DEFINITION ( 'UNKNOWN', '', #211, #5 ) ;
#207 = FACE_OUTER_BOUND ( 'NONE', #22, .T. ) ;
#208 = MANIFOLD_SOLID_BREP ( 'Revolve - Cutting Edge', #210 ) ;
#209 = ORIENTED_EDGE ( 'NONE', *, *, #246, .F. ) ;
#210 = CLOSED_SHELL ( 'NONE', ( #18, #263, #169, #63 ) ) ;
#211 = PRODUCT_DEFINITION_FORMATION_WITH_SPECIFIED_SOURCE ( 'ANY', '', #20, .NOT_KNOWN. ) ;
#212 = FILL_AREA_STYLE_COLOUR ( '', #37 ) ;
#213 = ADVANCED_FACE ( 'NONE', ( #136 ), #34, .T. ) ;
#214 = ORIENTED_EDGE ( 'NONE', *, *, #253, .T. ) ;
#215 = SURFACE_STYLE_FILL_AREA ( #238 ) ;
#216 = DIMENSIONAL_EXPONENTS ( 1.000000000000000000, 0.000000000000000000, 0.000000000000000000, 0.000000000000000000, 0.000000000000000000, 0.000000000000000000, 0.000000000000000000 ) ;
#217 = STYLED_ITEM ( 'NONE', ( #198 ), #114 ) ;
#218 = AXIS2_PLACEMENT_3D ( 'NONE', #51, #298, #170 ) ;
#219 = ORIENTED_EDGE ( 'NONE', *, *, #89, .F. ) ;
#220 = DIRECTION ( 'NONE',  ( -0.000000000000000000, -1.000000000000000000, -0.000000000000000000 ) ) ;
#221 = PRESENTATION_LAYER_ASSIGNMENT (  '', '', ( #27 ) ) ;
#222 = FACE_OUTER_BOUND ( 'NONE', #135, .T. ) ;
#223 = CARTESIAN_POINT ( 'NONE',  ( 0.000000000000000000, 1.000000000000000000, -0.2500000000000000555 ) ) ;
#224 = VERTEX_POINT ( 'NONE', #194 ) ;
#225 = DIRECTION ( 'NONE',  ( -1.000000000000000000, 0.000000000000000000, 0.000000000000000000 ) ) ;
#226 =( GEOMETRIC_REPRESENTATION_CONTEXT ( 3 ) GLOBAL_UNCERTAINTY_ASSIGNED_CONTEXT ( ( #31 ) ) GLOBAL_UNIT_ASSIGNED_CONTEXT ( ( #30, #199, #103 ) ) REPRESENTATION_CONTEXT ( 'NONE', 'WORKASPACE' ) );
#227 = VERTEX_POINT ( 'NONE', #149 ) ;
#228 = DIRECTION ( 'NONE',  ( -3.061616997868386099E-17, 1.000000000000000000, -0.000000000000000000 ) ) ;
#229 = SURFACE_SIDE_STYLE ('',( #188 ) ) ;
#230 = CYLINDRICAL_SURFACE ( 'NONE', #286, 0.2500000000000000000 ) ;
#231 = FACE_OUTER_BOUND ( 'NONE', #117, .T. ) ;
#232 = STYLED_ITEM ( 'NONE', ( #267 ), #169 ) ;
#233 = ORIENTED_EDGE ( 'NONE', *, *, #289, .F. ) ;
#234 =( CONVERSION_BASED_UNIT ( 'INCH', #44 ) LENGTH_UNIT ( ) NAMED_UNIT ( #74 ) );
#235 = EDGE_LOOP ( 'NONE', ( #196, #158, #186, #80 ) ) ;
#236 = DIRECTION ( 'NONE',  ( -1.000000000000000000, 0.000000000000000000, 0.000000000000000000 ) ) ;
#237 = FACE_OUTER_BOUND ( 'NONE', #235, .T. ) ;
#238 = FILL_AREA_STYLE ('',( #2 ) ) ;
#239 = CIRCLE ( 'NONE', #39, 0.2500000000000000555 ) ;
#240 = CIRCLE ( 'NONE', #90, 0.2500000000000000000 ) ;
#241 = SURFACE_STYLE_USAGE ( .BOTH. , #35 ) ;
#242 = DIRECTION ( 'NONE',  ( -3.061616997868386099E-17, 1.000000000000000000, -0.000000000000000000 ) ) ;
#243 = UNCERTAINTY_MEASURE_WITH_UNIT (LENGTH_MEASURE( 1.000000000000000082E-05 ), #234, 'distance_accuracy_value', 'NONE');
#244 =( LENGTH_UNIT ( ) NAMED_UNIT ( * ) SI_UNIT ( $, .METRE. ) );
#245 = DIRECTION ( 'NONE',  ( -0.000000000000000000, -1.000000000000000000, -0.000000000000000000 ) ) ;
#246 = EDGE_CURVE ( 'NONE', #66, #224, #240, .T. ) ;
#247 =( LENGTH_UNIT ( ) NAMED_UNIT ( * ) SI_UNIT ( $, .METRE. ) );
#248 = CIRCLE ( 'NONE', #47, 0.2500000000000000555 ) ;
#249 =( LENGTH_UNIT ( ) NAMED_UNIT ( * ) SI_UNIT ( $, .METRE. ) );
#250 = UNCERTAINTY_MEASURE_WITH_UNIT (LENGTH_MEASURE( 1.000000000000000082E-05 ), #25, 'distance_accuracy_value', 'NONE');
#251 = FILL_AREA_STYLE ('',( #84 ) ) ;
#252 = SURFACE_STYLE_USAGE ( .BOTH. , #269 ) ;
#253 = EDGE_CURVE ( 'NONE', #297, #83, #166, .T. ) ;
#254 = CARTESIAN_POINT ( 'NONE',  ( 0.000000000000000000, 0.000000000000000000, 0.000000000000000000 ) ) ;
#255 = SURFACE_SIDE_STYLE ('',( #137 ) ) ;
#256 = VECTOR ( 'NONE', #291, 39.37007874015748143 ) ;
#257 = PRESENTATION_LAYER_ASSIGNMENT (  '', '', ( #91 ) ) ;
#258 = CARTESIAN_POINT ( 'NONE',  ( 7.582401355855259480E-33, 1.000000000000000000, 0.000000000000000000 ) ) ;
#259 = EDGE_CURVE ( 'NONE', #83, #297, #19, .T. ) ;
#260 = VECTOR ( 'NONE', #46, 39.37007874015748143 ) ;
#261 = CIRCLE ( 'NONE', #142, 0.2500000000000000555 ) ;
#262 =( LENGTH_UNIT ( ) NAMED_UNIT ( * ) SI_UNIT ( $, .METRE. ) );
#263 = ADVANCED_FACE ( 'NONE', ( #207 ), #64, .T. ) ;
#264 = DIRECTION ( 'NONE',  ( 0.000000000000000000, 0.000000000000000000, -1.000000000000000000 ) ) ;
#265 =( GEOMETRIC_REPRESENTATION_CONTEXT ( 3 ) GLOBAL_UNCERTAINTY_ASSIGNED_CONTEXT ( ( #101 ) ) GLOBAL_UNIT_ASSIGNED_CONTEXT ( ( #277, #40, #68 ) ) REPRESENTATION_CONTEXT ( 'NONE', 'WORKASPACE' ) );
#266 = ORIENTED_EDGE ( 'NONE', *, *, #246, .T. ) ;
#267 = PRESENTATION_STYLE_ASSIGNMENT (( #287 ) ) ;
#268 = ORIENTED_EDGE ( 'NONE', *, *, #87, .T. ) ;
#269 = SURFACE_SIDE_STYLE ('',( #154 ) ) ;
#270 = DIRECTION ( 'NONE',  ( 0.000000000000000000, 0.000000000000000000, -1.000000000000000000 ) ) ;
#271 = LENGTH_MEASURE_WITH_UNIT ( LENGTH_MEASURE( 0.02539999999999999897 ), #107 );
#272 = SHAPE_DEFINITION_REPRESENTATION ( #183, #49 ) ;
#273 = ORIENTED_EDGE ( 'NONE', *, *, #259, .T. ) ;
#274 = DIRECTION ( 'NONE',  ( -3.061616997868386099E-17, 1.000000000000000000, -0.000000000000000000 ) ) ;
#275 = EDGE_LOOP ( 'NONE', ( #165, #266 ) ) ;
#276 = CARTESIAN_POINT ( 'NONE',  ( 0.000000000000000000, 0.000000000000000000, 0.000000000000000000 ) ) ;
#277 =( CONVERSION_BASED_UNIT ( 'INCH', #118 ) LENGTH_UNIT ( ) NAMED_UNIT ( #190 ) );
#278 = PLANE ( 'NONE',  #139 ) ;
#279 = MECHANICAL_DESIGN_GEOMETRIC_PRESENTATION_REPRESENTATION (  '', ( #232 ), #42 ) ;
#280 = PRESENTATION_LAYER_ASSIGNMENT (  '', '', ( #184 ) ) ;
#281 = DIRECTION ( 'NONE',  ( -0.000000000000000000, -1.000000000000000000, -0.000000000000000000 ) ) ;
#282 = UNCERTAINTY_MEASURE_WITH_UNIT (LENGTH_MEASURE( 1.000000000000000082E-05 ), #55, 'distance_accuracy_value', 'NONE');
#283 = ADVANCED_FACE ( 'NONE', ( #143 ), #147, .T. ) ;
#284 = VERTEX_POINT ( 'NONE', #191 ) ;
#285 = LENGTH_MEASURE_WITH_UNIT ( LENGTH_MEASURE( 0.02539999999999999897 ), #262 );
#286 = AXIS2_PLACEMENT_3D ( 'NONE', #181, #281, #264 ) ;
#287 = SURFACE_STYLE_USAGE ( .BOTH. , #309 ) ;
#288 =( NAMED_UNIT ( * ) SI_UNIT ( $, .STERADIAN. ) SOLID_ANGLE_UNIT ( ) );
#289 = EDGE_CURVE ( 'NONE', #95, #174, #261, .T. ) ;
#290 = CARTESIAN_POINT ( 'NONE',  ( -6.123233995736772199E-17, 3.000000000000000444, 0.000000000000000000 ) ) ;
#291 = DIRECTION ( 'NONE',  ( -0.000000000000000000, -1.000000000000000000, -0.000000000000000000 ) ) ;
#292 = COLOUR_RGB ( '',0.7921568627450980005, 0.8196078431372548767, 0.9333333333333333481 ) ;
#293 = AXIS2_PLACEMENT_3D ( 'NONE', #4, #242, #236 ) ;
#294 =( LENGTH_UNIT ( ) NAMED_UNIT ( * ) SI_UNIT ( $, .METRE. ) );
#295 =( NAMED_UNIT ( * ) PLANE_ANGLE_UNIT ( ) SI_UNIT ( $, .RADIAN. ) );
#296 = PRESENTATION_STYLE_ASSIGNMENT (( #300 ) ) ;
#297 = VERTEX_POINT ( 'NONE', #187 ) ;
#298 = DIRECTION ( 'NONE',  ( 3.061616997868386099E-17, -1.000000000000000000, 0.000000000000000000 ) ) ;
#299 = DIRECTION ( 'NONE',  ( 0.000000000000000000, -1.000000000000000000, -0.000000000000000000 ) ) ;
#300 = SURFACE_STYLE_USAGE ( .BOTH. , #229 ) ;
#301 = CARTESIAN_POINT ( 'NONE',  ( 3.061616997868383018E-17, 0.000000000000000000, 0.2500000000000000000 ) ) ;
#302 = APPLICATION_PROTOCOL_DEFINITION ( 'draft international standard', 'automotive_design', 1998, #130 ) ;
#303 = SURFACE_STYLE_USAGE ( .BOTH. , #201 ) ;
#304 = COLOUR_RGB ( '',1.000000000000000000, 0.000000000000000000, 0.000000000000000000 ) ;
#305 =( LENGTH_UNIT ( ) NAMED_UNIT ( * ) SI_UNIT ( $, .METRE. ) );
#306 = EDGE_LOOP ( 'NONE', ( #131, #268, #24, #219 ) ) ;
#307 = DIRECTION ( 'NONE',  ( -1.000000000000000000, 0.000000000000000000, 0.000000000000000000 ) ) ;
#308 = ORIENTED_EDGE ( 'NONE', *, *, #132, .F. ) ;
#309 = SURFACE_SIDE_STYLE ('',( #215 ) ) ;
ENDSEC;
END-ISO-10303-21;
