ISO-10303-21;
HEADER;
FILE_DESCRIPTION (( 'STEP AP214' ),
    '1' );
FILE_NAME ('Micro_RSCM-030-2X.STEP',
    '2021-09-03T17:55:47',
    ( '' ),
    ( '' ),
    'SwSTEP 2.0',
    'SolidWorks 2020',
    '' );
FILE_SCHEMA (( 'AUTOMOTIVE_DESIGN' ));
ENDSEC;

DATA;
#1 = CARTESIAN_POINT ( 'NONE',  ( -0.05905500000000000332, 0.0000000000000000000, 1.496062999999999921 ) ) ;
#2 = DIRECTION ( 'NONE',  ( 0.0000000000000000000, 0.0000000000000000000, -1.000000000000000000 ) ) ;
#3 = LENGTH_MEASURE_WITH_UNIT ( LENGTH_MEASURE( 0.02539999999999999897 ), #134 );
#4 = ORIENTED_EDGE ( 'NONE', *, *, #194, .T. ) ;
#5 = ORIENTED_EDGE ( 'NONE', *, *, #38, .F. ) ;
#6 = ORIENTED_EDGE ( 'NONE', *, *, #178, .F. ) ;
#7 = AXIS2_PLACEMENT_3D ( 'NONE', #200, #31, #82 ) ;
#8 = APPLICATION_PROTOCOL_DEFINITION ( 'draft international standard', 'automotive_design', 1998, #95 ) ;
#9 = EDGE_CURVE ( 'NONE', #63, #105, #219, .T. ) ;
#10 = VERTEX_POINT ( 'NONE', #68 ) ;
#11 = DIRECTION ( 'NONE',  ( -1.000000000000000000, 0.0000000000000000000, 0.0000000000000000000 ) ) ;
#12 = ORIENTED_EDGE ( 'NONE', *, *, #81, .F. ) ;
#13 = DIRECTION ( 'NONE',  ( 0.0000000000000000000, 0.0000000000000000000, -1.000000000000000000 ) ) ;
#14 = CONICAL_SURFACE ( 'NONE', #125, 0.003936999999999995191, 0.5235987755983005920 ) ;
#15 = PRESENTATION_LAYER_ASSIGNMENT (  '', '', ( #197 ) ) ;
#16 = FACE_OUTER_BOUND ( 'NONE', #120, .T. ) ;
#17 = ADVANCED_FACE ( 'NONE', ( #203 ), #236, .T. ) ;
#18 = CARTESIAN_POINT ( 'NONE',  ( 0.0000000000000000000, 0.0000000000000000000, 0.0000000000000000000 ) ) ;
#19 = DIMENSIONAL_EXPONENTS ( 1.000000000000000000, 0.0000000000000000000, 0.0000000000000000000, 0.0000000000000000000, 0.0000000000000000000, 0.0000000000000000000, 0.0000000000000000000 ) ;
#20 = CYLINDRICAL_SURFACE ( 'NONE', #241, 0.05905500000000000332 ) ;
#21 = CIRCLE ( 'NONE', #89, 0.003936999999999995191 ) ;
#22 = FACE_OUTER_BOUND ( 'NONE', #233, .T. ) ;
#23 = ADVANCED_FACE ( 'NONE', ( #221 ), #34, .F. ) ;
#24 = DIRECTION ( 'NONE',  ( -0.0000000000000000000, -0.0000000000000000000, -1.000000000000000000 ) ) ;
#25 =( NAMED_UNIT ( * ) SI_UNIT ( $, .STERADIAN. ) SOLID_ANGLE_UNIT ( ) );
#26 = AXIS2_PLACEMENT_3D ( 'NONE', #36, #13, #11 ) ;
#27 = CONICAL_SURFACE ( 'NONE', #159, 0.003936999999999995191, 0.5235987755983005920 ) ;
#28 = SURFACE_STYLE_USAGE ( .BOTH. , #156 ) ;
#29 = PRODUCT_CONTEXT ( 'NONE', #95, 'mechanical' ) ;
#30 = ORIENTED_EDGE ( 'NONE', *, *, #9, .F. ) ;
#31 = DIRECTION ( 'NONE',  ( -0.0000000000000000000, -0.0000000000000000000, -1.000000000000000000 ) ) ;
#32 = DIRECTION ( 'NONE',  ( -1.000000000000000000, 0.0000000000000000000, 0.0000000000000000000 ) ) ;
#33 = CIRCLE ( 'NONE', #234, 0.003936999999999995191 ) ;
#34 = PLANE ( 'NONE',  #110 ) ;
#35 = DIRECTION ( 'NONE',  ( 0.0000000000000000000, 0.0000000000000000000, 1.000000000000000000 ) ) ;
#36 = CARTESIAN_POINT ( 'NONE',  ( 0.0000000000000000000, 0.0000000000000000000, 1.400595823588418831 ) ) ;
#37 = AXIS2_PLACEMENT_3D ( 'NONE', #193, #93, #150 ) ;
#38 = EDGE_CURVE ( 'NONE', #48, #54, #139, .T. ) ;
#39 = EDGE_CURVE ( 'NONE', #99, #48, #33, .T. ) ;
#40 = SURFACE_STYLE_USAGE ( .BOTH. , #131 ) ;
#41 = DIRECTION ( 'NONE',  ( -0.0000000000000000000, -0.0000000000000000000, -1.000000000000000000 ) ) ;
#42 = FACE_OUTER_BOUND ( 'NONE', #182, .T. ) ;
#43 = CARTESIAN_POINT ( 'NONE',  ( 0.0000000000000000000, 0.0000000000000000000, 1.400595823588418831 ) ) ;
#44 = EDGE_CURVE ( 'NONE', #54, #201, #209, .T. ) ;
#45 = DIRECTION ( 'NONE',  ( 0.0000000000000000000, 0.0000000000000000000, 1.000000000000000000 ) ) ;
#46 = EDGE_CURVE ( 'NONE', #216, #10, #240, .T. ) ;
#47 = VECTOR ( 'NONE', #204, 39.37007874015748854 ) ;
#48 = VERTEX_POINT ( 'NONE', #237 ) ;
#49 = ORIENTED_EDGE ( 'NONE', *, *, #103, .T. ) ;
#50 = ORIENTED_EDGE ( 'NONE', *, *, #167, .T. ) ;
#51 = PRODUCT_DEFINITION_SHAPE ( 'NONE', 'NONE',  #88 ) ;
#52 = ORIENTED_EDGE ( 'NONE', *, *, #142, .F. ) ;
#53 = CARTESIAN_POINT ( 'NONE',  ( 0.05905500000000000332, 7.232151672364695422E-18, 1.400595823588418831 ) ) ;
#54 = VERTEX_POINT ( 'NONE', #53 ) ;
#55 = AXIS2_PLACEMENT_3D ( 'NONE', #43, #169, #73 ) ;
#56 = DIRECTION ( 'NONE',  ( -0.5000000000000013323, -6.123233995736782060E-17, -0.8660254037844377084 ) ) ;
#57 = CARTESIAN_POINT ( 'NONE',  ( -0.003936999999999995191, -4.821434448243123477E-19, 1.496062999999999921 ) ) ;
#58 = DIRECTION ( 'NONE',  ( -0.0000000000000000000, -0.0000000000000000000, -1.000000000000000000 ) ) ;
#59 =( LENGTH_UNIT ( ) NAMED_UNIT ( * ) SI_UNIT ( $, .METRE. ) );
#60 = ORIENTED_EDGE ( 'NONE', *, *, #239, .T. ) ;
#61 = LENGTH_MEASURE_WITH_UNIT ( LENGTH_MEASURE( 0.02539999999999999897 ), #179 );
#62 = AXIS2_PLACEMENT_3D ( 'NONE', #158, #137, #32 ) ;
#63 = VERTEX_POINT ( 'NONE', #127 ) ;
#64 =( GEOMETRIC_REPRESENTATION_CONTEXT ( 3 ) GLOBAL_UNCERTAINTY_ASSIGNED_CONTEXT ( ( #118 ) ) GLOBAL_UNIT_ASSIGNED_CONTEXT ( ( #98, #176, #213 ) ) REPRESENTATION_CONTEXT ( 'NONE', 'WORKASPACE' ) );
#65 = APPLICATION_PROTOCOL_DEFINITION ( 'draft international standard', 'automotive_design', 1998, #151 ) ;
#66 = DIRECTION ( 'NONE',  ( -0.0000000000000000000, -0.0000000000000000000, -1.000000000000000000 ) ) ;
#67 = ORIENTED_EDGE ( 'NONE', *, *, #132, .F. ) ;
#68 = CARTESIAN_POINT ( 'NONE',  ( -0.003936999999999995191, 3.857147558594504174E-18, 0.0000000000000000000 ) ) ;
#69 = DIRECTION ( 'NONE',  ( -1.000000000000000000, 0.0000000000000000000, 0.0000000000000000000 ) ) ;
#70 = CARTESIAN_POINT ( 'NONE',  ( 0.0000000000000000000, 0.0000000000000000000, 0.0000000000000000000 ) ) ;
#71 = PRESENTATION_STYLE_ASSIGNMENT (( #40 ) ) ;
#72 = CARTESIAN_POINT ( 'NONE',  ( 0.0000000000000000000, 0.0000000000000000000, 1.496062999999999921 ) ) ;
#73 = DIRECTION ( 'NONE',  ( -1.000000000000000000, 0.0000000000000000000, 0.0000000000000000000 ) ) ;
#74 = AXIS2_PLACEMENT_3D ( 'NONE', #187, #238, #102 ) ;
#75 = PRODUCT_DEFINITION_CONTEXT ( 'detailed design', #151, 'design' ) ;
#76 = ADVANCED_FACE ( 'NONE', ( #16 ), #229, .T. ) ;
#77 = EDGE_CURVE ( 'NONE', #105, #63, #163, .T. ) ;
#78 = UNCERTAINTY_MEASURE_WITH_UNIT (LENGTH_MEASURE( 1.000000000000000082E-05 ), #100, 'distance_accuracy_value', 'NONE');
#79 = CLOSED_SHELL ( 'NONE', ( #116, #247, #231, #173, #76, #23, #83, #17 ) ) ;
#80 = MECHANICAL_DESIGN_GEOMETRIC_PRESENTATION_REPRESENTATION (  '', ( #197 ), #64 ) ;
#81 = EDGE_CURVE ( 'NONE', #48, #99, #133, .T. ) ;
#82 = DIRECTION ( 'NONE',  ( -1.000000000000000000, 0.0000000000000000000, 0.0000000000000000000 ) ) ;
#83 = ADVANCED_FACE ( 'NONE', ( #217 ), #14, .T. ) ;
#84 = STYLED_ITEM ( 'NONE', ( #71 ), #148 ) ;
#85 = CARTESIAN_POINT ( 'NONE',  ( 0.0000000000000000000, 0.0000000000000000000, 1.496062999999999921 ) ) ;
#86 = CARTESIAN_POINT ( 'NONE',  ( 0.0000000000000000000, 0.0000000000000000000, 1.496062999999999921 ) ) ;
#87 = ORIENTED_EDGE ( 'NONE', *, *, #194, .F. ) ;
#88 = PRODUCT_DEFINITION ( 'UNKNOWN', '', #206, #75 ) ;
#89 = AXIS2_PLACEMENT_3D ( 'NONE', #18, #130, #91 ) ;
#90 = CARTESIAN_POINT ( 'NONE',  ( 0.0000000000000000000, 0.0000000000000000000, 0.0000000000000000000 ) ) ;
#91 = DIRECTION ( 'NONE',  ( -1.000000000000000000, 0.0000000000000000000, 0.0000000000000000000 ) ) ;
#92 =( NAMED_UNIT ( * ) PLANE_ANGLE_UNIT ( ) SI_UNIT ( $, .RADIAN. ) );
#93 = DIRECTION ( 'NONE',  ( -0.0000000000000000000, -0.0000000000000000000, -1.000000000000000000 ) ) ;
#94 = FACE_OUTER_BOUND ( 'NONE', #202, .T. ) ;
#95 = APPLICATION_CONTEXT ( 'automotive_design' ) ;
#96 = FILL_AREA_STYLE_COLOUR ( '', #168 ) ;
#97 = ORIENTED_EDGE ( 'NONE', *, *, #81, .T. ) ;
#98 =( CONVERSION_BASED_UNIT ( 'INCH', #61 ) LENGTH_UNIT ( ) NAMED_UNIT ( #19 ) );
#99 = VERTEX_POINT ( 'NONE', #249 ) ;
#100 =( CONVERSION_BASED_UNIT ( 'INCH', #3 ) LENGTH_UNIT ( ) NAMED_UNIT ( #192 ) );
#101 = ORIENTED_EDGE ( 'NONE', *, *, #132, .T. ) ;
#102 = DIRECTION ( 'NONE',  ( -1.000000000000000000, 0.0000000000000000000, 0.0000000000000000000 ) ) ;
#103 = EDGE_CURVE ( 'NONE', #99, #201, #145, .T. ) ;
#104 = ORIENTED_EDGE ( 'NONE', *, *, #9, .T. ) ;
#105 = VERTEX_POINT ( 'NONE', #109 ) ;
#106 = CARTESIAN_POINT ( 'NONE',  ( 0.003936999999999995191, 0.0000000000000000000, 1.496062999999999921 ) ) ;
#107 = CARTESIAN_POINT ( 'NONE',  ( 0.0000000000000000000, 0.0000000000000000000, 1.496062999999999921 ) ) ;
#108 = AXIS2_PLACEMENT_3D ( 'NONE', #245, #2, #170 ) ;
#109 = CARTESIAN_POINT ( 'NONE',  ( -0.05905500000000000332, 0.0000000000000000000, 0.09546717641158104783 ) ) ;
#110 = AXIS2_PLACEMENT_3D ( 'NONE', #70, #242, #161 ) ;
#111 = CYLINDRICAL_SURFACE ( 'NONE', #37, 0.05905500000000000332 ) ;
#112 = LINE ( 'NONE', #195, #177 ) ;
#113 = CARTESIAN_POINT ( 'NONE',  ( 0.0000000000000000000, 0.0000000000000000000, 0.0000000000000000000 ) ) ;
#114 = PRESENTATION_LAYER_ASSIGNMENT (  '', '', ( #84 ) ) ;
#115 =( NAMED_UNIT ( * ) PLANE_ANGLE_UNIT ( ) SI_UNIT ( $, .RADIAN. ) );
#116 = ADVANCED_FACE ( 'NONE', ( #22 ), #215, .T. ) ;
#117 = PRESENTATION_STYLE_ASSIGNMENT (( #28 ) ) ;
#118 = UNCERTAINTY_MEASURE_WITH_UNIT (LENGTH_MEASURE( 1.000000000000000082E-05 ), #98, 'distance_accuracy_value', 'NONE');
#119 = ORIENTED_EDGE ( 'NONE', *, *, #38, .T. ) ;
#120 = EDGE_LOOP ( 'NONE', ( #199, #185, #184, #104 ) ) ;
#121 = VECTOR ( 'NONE', #224, 39.37007874015748854 ) ;
#122 = ORIENTED_EDGE ( 'NONE', *, *, #77, .F. ) ;
#123 = DIRECTION ( 'NONE',  ( 1.000000000000000000, 0.0000000000000000000, -0.0000000000000000000 ) ) ;
#124 = EDGE_LOOP ( 'NONE', ( #220, #126, #119, #52 ) ) ;
#125 = AXIS2_PLACEMENT_3D ( 'NONE', #85, #160, #171 ) ;
#126 = ORIENTED_EDGE ( 'NONE', *, *, #39, .T. ) ;
#127 = CARTESIAN_POINT ( 'NONE',  ( 0.05905500000000000332, 7.232151672364695422E-18, 0.09546717641158104783 ) ) ;
#128 = FILL_AREA_STYLE ('',( #210 ) ) ;
#129 = LINE ( 'NONE', #1, #188 ) ;
#130 = DIRECTION ( 'NONE',  ( -0.0000000000000000000, -0.0000000000000000000, -1.000000000000000000 ) ) ;
#131 = SURFACE_SIDE_STYLE ('',( #146 ) ) ;
#132 = EDGE_CURVE ( 'NONE', #201, #105, #129, .T. ) ;
#133 = CIRCLE ( 'NONE', #62, 0.003936999999999995191 ) ;
#134 =( LENGTH_UNIT ( ) NAMED_UNIT ( * ) SI_UNIT ( $, .METRE. ) );
#135 = SHAPE_DEFINITION_REPRESENTATION ( #51, #226 ) ;
#136 = VECTOR ( 'NONE', #205, 39.37007874015748854 ) ;
#137 = DIRECTION ( 'NONE',  ( 0.0000000000000000000, 0.0000000000000000000, -1.000000000000000000 ) ) ;
#138 = ORIENTED_EDGE ( 'NONE', *, *, #44, .T. ) ;
#139 = LINE ( 'NONE', #106, #47 ) ;
#140 = VECTOR ( 'NONE', #56, 39.37007874015748854 ) ;
#141 = MECHANICAL_DESIGN_GEOMETRIC_PRESENTATION_REPRESENTATION (  '', ( #84 ), #189 ) ;
#142 = EDGE_CURVE ( 'NONE', #201, #54, #172, .T. ) ;
#143 = ORIENTED_EDGE ( 'NONE', *, *, #46, .T. ) ;
#144 = DIRECTION ( 'NONE',  ( 1.000000000000000000, 0.0000000000000000000, 0.0000000000000000000 ) ) ;
#145 = LINE ( 'NONE', #57, #140 ) ;
#146 = SURFACE_STYLE_FILL_AREA ( #128 ) ;
#147 = DIMENSIONAL_EXPONENTS ( 1.000000000000000000, 0.0000000000000000000, 0.0000000000000000000, 0.0000000000000000000, 0.0000000000000000000, 0.0000000000000000000, 0.0000000000000000000 ) ;
#148 = MANIFOLD_SOLID_BREP ( 'Mirror1', #79 ) ;
#149 = DIRECTION ( 'NONE',  ( -1.000000000000000000, 0.0000000000000000000, 0.0000000000000000000 ) ) ;
#150 = DIRECTION ( 'NONE',  ( -1.000000000000000000, 0.0000000000000000000, 0.0000000000000000000 ) ) ;
#151 = APPLICATION_CONTEXT ( 'automotive_design' ) ;
#152 =( NAMED_UNIT ( * ) SI_UNIT ( $, .STERADIAN. ) SOLID_ANGLE_UNIT ( ) );
#153 = ORIENTED_EDGE ( 'NONE', *, *, #239, .F. ) ;
#154 = ORIENTED_EDGE ( 'NONE', *, *, #142, .T. ) ;
#155 = DIRECTION ( 'NONE',  ( 1.000000000000000000, 0.0000000000000000000, 0.0000000000000000000 ) ) ;
#156 = SURFACE_SIDE_STYLE ('',( #174 ) ) ;
#157 = AXIS2_PLACEMENT_3D ( 'NONE', #90, #165, #144 ) ;
#158 = CARTESIAN_POINT ( 'NONE',  ( 0.0000000000000000000, 0.0000000000000000000, 1.496062999999999921 ) ) ;
#159 = AXIS2_PLACEMENT_3D ( 'NONE', #198, #45, #230 ) ;
#160 = DIRECTION ( 'NONE',  ( 0.0000000000000000000, 0.0000000000000000000, -1.000000000000000000 ) ) ;
#161 = DIRECTION ( 'NONE',  ( 1.000000000000000000, 0.0000000000000000000, -0.0000000000000000000 ) ) ;
#162 = CARTESIAN_POINT ( 'NONE',  ( 0.0000000000000000000, 0.0000000000000000000, 0.0000000000000000000 ) ) ;
#163 = CIRCLE ( 'NONE', #7, 0.05905500000000000332 ) ;
#164 =( GEOMETRIC_REPRESENTATION_CONTEXT ( 3 ) GLOBAL_UNCERTAINTY_ASSIGNED_CONTEXT ( ( #78 ) ) GLOBAL_UNIT_ASSIGNED_CONTEXT ( ( #100, #115, #25 ) ) REPRESENTATION_CONTEXT ( 'NONE', 'WORKASPACE' ) );
#165 = DIRECTION ( 'NONE',  ( 0.0000000000000000000, 0.0000000000000000000, 1.000000000000000000 ) ) ;
#166 = CARTESIAN_POINT ( 'NONE',  ( -0.05905500000000000332, 0.0000000000000000000, 1.400595823588418831 ) ) ;
#167 = EDGE_CURVE ( 'NONE', #10, #105, #207, .T. ) ;
#168 = COLOUR_RGB ( '',0.7921568627450980005, 0.8196078431372548767, 0.9333333333333333481 ) ;
#169 = DIRECTION ( 'NONE',  ( 0.0000000000000000000, 0.0000000000000000000, -1.000000000000000000 ) ) ;
#170 = DIRECTION ( 'NONE',  ( 1.000000000000000000, 0.0000000000000000000, 0.0000000000000000000 ) ) ;
#171 = DIRECTION ( 'NONE',  ( 1.000000000000000000, 0.0000000000000000000, 0.0000000000000000000 ) ) ;
#172 = CIRCLE ( 'NONE', #55, 0.05905500000000000332 ) ;
#173 = ADVANCED_FACE ( 'NONE', ( #191 ), #20, .T. ) ;
#174 = SURFACE_STYLE_FILL_AREA ( #214 ) ;
#175 = ORIENTED_EDGE ( 'NONE', *, *, #39, .F. ) ;
#176 =( NAMED_UNIT ( * ) PLANE_ANGLE_UNIT ( ) SI_UNIT ( $, .RADIAN. ) );
#177 = VECTOR ( 'NONE', #24, 39.37007874015748143 ) ;
#178 = EDGE_CURVE ( 'NONE', #216, #63, #227, .T. ) ;
#179 =( LENGTH_UNIT ( ) NAMED_UNIT ( * ) SI_UNIT ( $, .METRE. ) );
#180 = EDGE_LOOP ( 'NONE', ( #12, #175 ) ) ;
#181 = PRODUCT ( 'Micro_RSCM-030-2X', 'Micro_RSCM-030-2X', '', ( #29 ) ) ;
#182 = EDGE_LOOP ( 'NONE', ( #154, #60, #122, #67 ) ) ;
#183 = AXIS2_PLACEMENT_3D ( 'NONE', #86, #35, #123 ) ;
#184 = ORIENTED_EDGE ( 'NONE', *, *, #178, .T. ) ;
#185 = ORIENTED_EDGE ( 'NONE', *, *, #46, .F. ) ;
#186 = DIRECTION ( 'NONE',  ( 0.0000000000000000000, 0.0000000000000000000, -1.000000000000000000 ) ) ;
#187 = CARTESIAN_POINT ( 'NONE',  ( 0.0000000000000000000, 0.0000000000000000000, 0.09546717641158104783 ) ) ;
#188 = VECTOR ( 'NONE', #41, 39.37007874015748143 ) ;
#189 =( GEOMETRIC_REPRESENTATION_CONTEXT ( 3 ) GLOBAL_UNCERTAINTY_ASSIGNED_CONTEXT ( ( #211 ) ) GLOBAL_UNIT_ASSIGNED_CONTEXT ( ( #244, #92, #152 ) ) REPRESENTATION_CONTEXT ( 'NONE', 'WORKASPACE' ) );
#190 = CARTESIAN_POINT ( 'NONE',  ( -0.003936999999999995191, 4.821434448243123477E-19, 0.0000000000000000000 ) ) ;
#191 = FACE_OUTER_BOUND ( 'NONE', #212, .T. ) ;
#192 = DIMENSIONAL_EXPONENTS ( 1.000000000000000000, 0.0000000000000000000, 0.0000000000000000000, 0.0000000000000000000, 0.0000000000000000000, 0.0000000000000000000, 0.0000000000000000000 ) ;
#193 = CARTESIAN_POINT ( 'NONE',  ( 0.0000000000000000000, 0.0000000000000000000, 1.496062999999999921 ) ) ;
#194 = EDGE_CURVE ( 'NONE', #10, #216, #21, .T. ) ;
#195 = CARTESIAN_POINT ( 'NONE',  ( 0.05905500000000000332, 7.232151672364695422E-18, 1.496062999999999921 ) ) ;
#196 = COLOUR_RGB ( '',0.7921568627450980005, 0.8196078431372548767, 0.9333333333333333481 ) ;
#197 = STYLED_ITEM ( 'NONE', ( #117 ), #226 ) ;
#198 = CARTESIAN_POINT ( 'NONE',  ( 0.0000000000000000000, 0.0000000000000000000, 0.0000000000000000000 ) ) ;
#199 = ORIENTED_EDGE ( 'NONE', *, *, #167, .F. ) ;
#200 = CARTESIAN_POINT ( 'NONE',  ( 0.0000000000000000000, 0.0000000000000000000, 0.09546717641158104783 ) ) ;
#201 = VERTEX_POINT ( 'NONE', #166 ) ;
#202 = EDGE_LOOP ( 'NONE', ( #87, #50, #228, #6 ) ) ;
#203 = FACE_OUTER_BOUND ( 'NONE', #180, .T. ) ;
#204 = DIRECTION ( 'NONE',  ( 0.5000000000000013323, 0.0000000000000000000, -0.8660254037844377084 ) ) ;
#205 = DIRECTION ( 'NONE',  ( 0.5000000000000013323, 0.0000000000000000000, 0.8660254037844377084 ) ) ;
#206 = PRODUCT_DEFINITION_FORMATION_WITH_SPECIFIED_SOURCE ( 'ANY', '', #181, .NOT_KNOWN. ) ;
#207 = LINE ( 'NONE', #190, #121 ) ;
#208 = CARTESIAN_POINT ( 'NONE',  ( 0.003936999999999995191, 0.0000000000000000000, 0.0000000000000000000 ) ) ;
#209 = CIRCLE ( 'NONE', #26, 0.05905500000000000332 ) ;
#210 = FILL_AREA_STYLE_COLOUR ( '', #196 ) ;
#211 = UNCERTAINTY_MEASURE_WITH_UNIT (LENGTH_MEASURE( 1.000000000000000082E-05 ), #244, 'distance_accuracy_value', 'NONE');
#212 = EDGE_LOOP ( 'NONE', ( #153, #138, #101, #30 ) ) ;
#213 =( NAMED_UNIT ( * ) SI_UNIT ( $, .STERADIAN. ) SOLID_ANGLE_UNIT ( ) );
#214 = FILL_AREA_STYLE ('',( #96 ) ) ;
#215 = CONICAL_SURFACE ( 'NONE', #108, 0.003936999999999995191, 0.5235987755983005920 ) ;
#216 = VERTEX_POINT ( 'NONE', #208 ) ;
#217 = FACE_OUTER_BOUND ( 'NONE', #124, .T. ) ;
#218 = ORIENTED_EDGE ( 'NONE', *, *, #44, .F. ) ;
#219 = CIRCLE ( 'NONE', #74, 0.05905500000000000332 ) ;
#220 = ORIENTED_EDGE ( 'NONE', *, *, #103, .F. ) ;
#221 = FACE_OUTER_BOUND ( 'NONE', #243, .T. ) ;
#222 = DIRECTION ( 'NONE',  ( -1.000000000000000000, 0.0000000000000000000, 0.0000000000000000000 ) ) ;
#223 = LENGTH_MEASURE_WITH_UNIT ( LENGTH_MEASURE( 0.02539999999999999897 ), #59 );
#224 = DIRECTION ( 'NONE',  ( -0.5000000000000013323, 6.123233995736782060E-17, 0.8660254037844377084 ) ) ;
#225 = CARTESIAN_POINT ( 'NONE',  ( 0.003936999999999995191, 0.0000000000000000000, 0.0000000000000000000 ) ) ;
#226 = ADVANCED_BREP_SHAPE_REPRESENTATION ( 'Micro_RSCM-030-2X', ( #148, #248 ), #164 ) ;
#227 = LINE ( 'NONE', #225, #136 ) ;
#228 = ORIENTED_EDGE ( 'NONE', *, *, #77, .T. ) ;
#229 = CONICAL_SURFACE ( 'NONE', #157, 0.003936999999999995191, 0.5235987755983005920 ) ;
#230 = DIRECTION ( 'NONE',  ( 1.000000000000000000, 0.0000000000000000000, 0.0000000000000000000 ) ) ;
#231 = ADVANCED_FACE ( 'NONE', ( #42 ), #111, .T. ) ;
#232 = DIRECTION ( 'NONE',  ( 0.0000000000000000000, 0.0000000000000000000, 1.000000000000000000 ) ) ;
#233 = EDGE_LOOP ( 'NONE', ( #97, #49, #218, #5 ) ) ;
#234 = AXIS2_PLACEMENT_3D ( 'NONE', #107, #186, #69 ) ;
#235 = PRODUCT_RELATED_PRODUCT_CATEGORY ( 'part', '', ( #181 ) ) ;
#236 = PLANE ( 'NONE',  #183 ) ;
#237 = CARTESIAN_POINT ( 'NONE',  ( 0.003936999999999995191, 0.0000000000000000000, 1.496062999999999921 ) ) ;
#238 = DIRECTION ( 'NONE',  ( -0.0000000000000000000, -0.0000000000000000000, -1.000000000000000000 ) ) ;
#239 = EDGE_CURVE ( 'NONE', #54, #63, #112, .T. ) ;
#240 = CIRCLE ( 'NONE', #246, 0.003936999999999995191 ) ;
#241 = AXIS2_PLACEMENT_3D ( 'NONE', #72, #58, #149 ) ;
#242 = DIRECTION ( 'NONE',  ( 0.0000000000000000000, 0.0000000000000000000, 1.000000000000000000 ) ) ;
#243 = EDGE_LOOP ( 'NONE', ( #143, #4 ) ) ;
#244 =( CONVERSION_BASED_UNIT ( 'INCH', #223 ) LENGTH_UNIT ( ) NAMED_UNIT ( #147 ) );
#245 = CARTESIAN_POINT ( 'NONE',  ( 0.0000000000000000000, 0.0000000000000000000, 1.496062999999999921 ) ) ;
#246 = AXIS2_PLACEMENT_3D ( 'NONE', #162, #66, #222 ) ;
#247 = ADVANCED_FACE ( 'NONE', ( #94 ), #27, .T. ) ;
#248 = AXIS2_PLACEMENT_3D ( 'NONE', #113, #232, #155 ) ;
#249 = CARTESIAN_POINT ( 'NONE',  ( -0.003936999999999995191, -3.857147558594502633E-18, 1.496062999999999921 ) ) ;
ENDSEC;
END-ISO-10303-21;
