ISO-10303-21;
HEADER;
FILE_DESCRIPTION (( 'STEP AP214' ),
    '1' );
FILE_NAME ('59674.STEP',
    '2023-07-24T15:22:25',
    ( '' ),
    ( '' ),
    'SwSTEP 2.0',
    'SolidWorks 2023',
    '' );
FILE_SCHEMA (( 'AUTOMOTIVE_DESIGN' ));
ENDSEC;

DATA;
#1 = CIRCLE ( 'NONE', #255, 5.999999999999993783 ) ;
#2 = CARTESIAN_POINT ( 'NONE',  ( 6.123233995736762930E-15, 75.00000000000000000, 0.000000000000000000 ) ) ;
#3 = TOROIDAL_SURFACE ( 'NONE', #87, 5.500000000000000000, 0.5000000000000002220 ) ;
#4 =( GEOMETRIC_REPRESENTATION_CONTEXT ( 3 ) GLOBAL_UNCERTAINTY_ASSIGNED_CONTEXT ( ( #50 ) ) GLOBAL_UNIT_ASSIGNED_CONTEXT ( ( #19, #13, #123 ) ) REPRESENTATION_CONTEXT ( 'NONE', 'WORKASPACE' ) );
#5 =( NAMED_UNIT ( * ) SI_UNIT ( $, .STERADIAN. ) SOLID_ANGLE_UNIT ( ) );
#6 = ORIENTED_EDGE ( 'NONE', *, *, #265, .T. ) ;
#7 = EDGE_LOOP ( 'NONE', ( #115, #147, #331, #8 ) ) ;
#8 = ORIENTED_EDGE ( 'NONE', *, *, #154, .F. ) ;
#9 = DIRECTION ( 'NONE',  ( -0.000000000000000000, -1.000000000000000000, -0.000000000000000000 ) ) ;
#10 = AXIS2_PLACEMENT_3D ( 'NONE', #73, #276, #329 ) ;
#11 = AXIS2_PLACEMENT_3D ( 'NONE', #250, #334, #295 ) ;
#12 = SURFACE_STYLE_FILL_AREA ( #70 ) ;
#13 =( NAMED_UNIT ( * ) PLANE_ANGLE_UNIT ( ) SI_UNIT ( $, .RADIAN. ) );
#14 = VERTEX_POINT ( 'NONE', #327 ) ;
#15 = LINE ( 'NONE', #148, #237 ) ;
#16 = ORIENTED_EDGE ( 'NONE', *, *, #26, .F. ) ;
#17 = PRESENTATION_LAYER_ASSIGNMENT (  '', '', ( #360 ) ) ;
#18 = UNCERTAINTY_MEASURE_WITH_UNIT (LENGTH_MEASURE( 1.000000000000000082E-05 ), #308, 'distance_accuracy_value', 'NONE');
#19 =( LENGTH_UNIT ( ) NAMED_UNIT ( * ) SI_UNIT ( .MILLI., .METRE. ) );
#20 = CARTESIAN_POINT ( 'NONE',  ( 5.421010862427522170E-15, 30.00000000000000000, 0.000000000000000000 ) ) ;
#21 = CARTESIAN_POINT ( 'NONE',  ( 0.000000000000000000, 0.000000000000000000, 0.000000000000000000 ) ) ;
#22 = EDGE_CURVE ( 'NONE', #32, #60, #343, .T. ) ;
#23 =( GEOMETRIC_REPRESENTATION_CONTEXT ( 3 ) GLOBAL_UNCERTAINTY_ASSIGNED_CONTEXT ( ( #284 ) ) GLOBAL_UNIT_ASSIGNED_CONTEXT ( ( #344, #78, #195 ) ) REPRESENTATION_CONTEXT ( 'NONE', 'WORKASPACE' ) );
#24 = DIRECTION ( 'NONE',  ( 0.000000000000000000, 0.000000000000000000, -1.000000000000000000 ) ) ;
#25 = FILL_AREA_STYLE ('',( #220 ) ) ;
#26 = EDGE_CURVE ( 'NONE', #60, #32, #165, .T. ) ;
#27 = COLOUR_RGB ( '',0.7921568627450980005, 0.8196078431372548767, 0.9333333333333333481 ) ;
#28 =( NAMED_UNIT ( * ) PLANE_ANGLE_UNIT ( ) SI_UNIT ( $, .RADIAN. ) );
#29 = FILL_AREA_STYLE_COLOUR ( '', #204 ) ;
#30 = COLOUR_RGB ( '',1.000000000000000000, 0.000000000000000000, 0.000000000000000000 ) ;
#31 = DIRECTION ( 'NONE',  ( -1.000000000000000000, 0.000000000000000000, 0.000000000000000000 ) ) ;
#32 = VERTEX_POINT ( 'NONE', #266 ) ;
#33 = AXIS2_PLACEMENT_3D ( 'NONE', #286, #126, #253 ) ;
#34 = VERTEX_POINT ( 'NONE', #37 ) ;
#35 = PRESENTATION_STYLE_ASSIGNMENT (( #264 ) ) ;
#36 = PLANE ( 'NONE',  #33 ) ;
#37 = CARTESIAN_POINT ( 'NONE',  ( 0.000000000000000000, 30.00000000000000000, -6.000000000000000000 ) ) ;
#38 = SURFACE_STYLE_FILL_AREA ( #328 ) ;
#39 = ORIENTED_EDGE ( 'NONE', *, *, #340, .F. ) ;
#40 = DIRECTION ( 'NONE',  ( -0.000000000000000000, -1.000000000000000000, -0.000000000000000000 ) ) ;
#41 = STYLED_ITEM ( 'NONE', ( #230 ), #83 ) ;
#42 = ORIENTED_EDGE ( 'NONE', *, *, #160, .T. ) ;
#43 = DIRECTION ( 'NONE',  ( -1.224646799147353454E-16, 0.000000000000000000, -1.000000000000000000 ) ) ;
#44 = ADVANCED_FACE ( 'NONE', ( #143 ), #171, .T. ) ;
#45 = ORIENTED_EDGE ( 'NONE', *, *, #105, .F. ) ;
#46 = MECHANICAL_DESIGN_GEOMETRIC_PRESENTATION_REPRESENTATION (  '', ( #303 ), #4 ) ;
#47 =( NAMED_UNIT ( * ) PLANE_ANGLE_UNIT ( ) SI_UNIT ( $, .RADIAN. ) );
#48 = CARTESIAN_POINT ( 'NONE',  ( -5.999999999999987566, 75.00000000000000000, 0.000000000000000000 ) ) ;
#49 =( GEOMETRIC_REPRESENTATION_CONTEXT ( 3 ) GLOBAL_UNCERTAINTY_ASSIGNED_CONTEXT ( ( #151 ) ) GLOBAL_UNIT_ASSIGNED_CONTEXT ( ( #172, #318, #163 ) ) REPRESENTATION_CONTEXT ( 'NONE', 'WORKASPACE' ) );
#50 = UNCERTAINTY_MEASURE_WITH_UNIT (LENGTH_MEASURE( 1.000000000000000082E-05 ), #19, 'distance_accuracy_value', 'NONE');
#51 = CYLINDRICAL_SURFACE ( 'NONE', #188, 6.000000000000000000 ) ;
#52 = SURFACE_STYLE_USAGE ( .BOTH. , #131 ) ;
#53 = FACE_OUTER_BOUND ( 'NONE', #354, .T. ) ;
#54 = ADVANCED_FACE ( 'NONE', ( #141 ), #124, .F. ) ;
#55 = SURFACE_SIDE_STYLE ('',( #229 ) ) ;
#56 = SURFACE_SIDE_STYLE ('',( #234 ) ) ;
#57 = ADVANCED_FACE ( 'NONE', ( #153 ), #337, .T. ) ;
#58 = STYLED_ITEM ( 'NONE', ( #214 ), #44 ) ;
#59 = FACE_OUTER_BOUND ( 'NONE', #235, .T. ) ;
#60 = VERTEX_POINT ( 'NONE', #76 ) ;
#61 = SURFACE_STYLE_USAGE ( .BOTH. , #112 ) ;
#62 = VERTEX_POINT ( 'NONE', #102 ) ;
#63 = COLOUR_RGB ( '',1.000000000000000000, 0.000000000000000000, 0.000000000000000000 ) ;
#64 = FILL_AREA_STYLE ('',( #29 ) ) ;
#65 = DIRECTION ( 'NONE',  ( 0.000000000000000000, -1.000000000000000000, -0.000000000000000000 ) ) ;
#66 = ADVANCED_FACE ( 'NONE', ( #189 ), #36, .T. ) ;
#67 = ORIENTED_EDGE ( 'NONE', *, *, #281, .F. ) ;
#68 = DIRECTION ( 'NONE',  ( -0.000000000000000000, -1.000000000000000000, -0.000000000000000000 ) ) ;
#69 = PRODUCT_DEFINITION_SHAPE ( 'NONE', 'NONE',  #162 ) ;
#70 = FILL_AREA_STYLE ('',( #274 ) ) ;
#71 = CARTESIAN_POINT ( 'NONE',  ( 0.000000000000000000, 30.00000000000000000, 0.000000000000000000 ) ) ;
#72 = AXIS2_PLACEMENT_3D ( 'NONE', #71, #330, #179 ) ;
#73 = CARTESIAN_POINT ( 'NONE',  ( 5.421010862427522170E-15, 30.00000000000000000, 0.000000000000000000 ) ) ;
#74 = EDGE_LOOP ( 'NONE', ( #298, #210, #238, #183 ) ) ;
#75 = CARTESIAN_POINT ( 'NONE',  ( 0.000000000000000000, 0.000000000000000000, -5.500000000000000000 ) ) ;
#76 = CARTESIAN_POINT ( 'NONE',  ( 6.000000000000000000, 30.00000000000000000, 7.347880794884112834E-16 ) ) ;
#77 = CIRCLE ( 'NONE', #290, 6.000000000000000000 ) ;
#78 =( NAMED_UNIT ( * ) PLANE_ANGLE_UNIT ( ) SI_UNIT ( $, .RADIAN. ) );
#79 = SURFACE_STYLE_FILL_AREA ( #222 ) ;
#80 = MECHANICAL_DESIGN_GEOMETRIC_PRESENTATION_REPRESENTATION (  '', ( #41 ), #49 ) ;
#81 = CARTESIAN_POINT ( 'NONE',  ( 0.000000000000000000, 0.000000000000000000, 0.000000000000000000 ) ) ;
#82 = CARTESIAN_POINT ( 'NONE',  ( 0.000000000000000000, 30.00000000000000000, 0.000000000000000000 ) ) ;
#83 = ADVANCED_FACE ( 'NONE', ( #228 ), #342, .T. ) ;
#84 =( NAMED_UNIT ( * ) SI_UNIT ( $, .STERADIAN. ) SOLID_ANGLE_UNIT ( ) );
#85 = MECHANICAL_DESIGN_GEOMETRIC_PRESENTATION_REPRESENTATION (  '', ( #199 ), #209 ) ;
#86 = ADVANCED_FACE ( 'NONE', ( #59 ), #293, .T. ) ;
#87 = AXIS2_PLACEMENT_3D ( 'NONE', #128, #289, #24 ) ;
#88 = ORIENTED_EDGE ( 'NONE', *, *, #288, .F. ) ;
#89 = CARTESIAN_POINT ( 'NONE',  ( 0.000000000000000000, 0.5000000000000000000, 0.000000000000000000 ) ) ;
#90 = CIRCLE ( 'NONE', #72, 6.000000000000000000 ) ;
#91 =( LENGTH_UNIT ( ) NAMED_UNIT ( * ) SI_UNIT ( .MILLI., .METRE. ) );
#92 = ORIENTED_EDGE ( 'NONE', *, *, #185, .T. ) ;
#93 = DIRECTION ( 'NONE',  ( -1.000000000000000000, 0.000000000000000000, 0.000000000000000000 ) ) ;
#94 = ORIENTED_EDGE ( 'NONE', *, *, #185, .F. ) ;
#95 = SURFACE_STYLE_USAGE ( .BOTH. , #118 ) ;
#96 = CLOSED_SHELL ( 'NONE', ( #57, #54, #136, #291 ) ) ;
#97 = ORIENTED_EDGE ( 'NONE', *, *, #281, .T. ) ;
#98 = SURFACE_STYLE_FILL_AREA ( #362 ) ;
#99 = EDGE_CURVE ( 'NONE', #149, #62, #137, .T. ) ;
#100 = DIRECTION ( 'NONE',  ( 1.560495851798313744E-17, 1.000000000000000000, -0.000000000000000000 ) ) ;
#101 = PLANE ( 'NONE',  #268 ) ;
#102 = CARTESIAN_POINT ( 'NONE',  ( 7.347880794884119736E-16, 0.5000000000000000000, 6.000000000000000000 ) ) ;
#103 = LINE ( 'NONE', #197, #196 ) ;
#104 = MECHANICAL_DESIGN_GEOMETRIC_PRESENTATION_REPRESENTATION (  '', ( #58 ), #312 ) ;
#105 = EDGE_CURVE ( 'NONE', #167, #114, #1, .T. ) ;
#106 = DIRECTION ( 'NONE',  ( 1.000000000000000000, -1.560495851798313744E-17, 0.000000000000000000 ) ) ;
#107 = DIRECTION ( 'NONE',  ( 0.000000000000000000, 0.000000000000000000, 1.000000000000000000 ) ) ;
#108 = SURFACE_STYLE_USAGE ( .BOTH. , #370 ) ;
#109 = APPLICATION_CONTEXT ( 'automotive_design' ) ;
#110 = MANIFOLD_SOLID_BREP ( 'Revolve - Cutting Edge', #181 ) ;
#111 = ORIENTED_EDGE ( 'NONE', *, *, #259, .F. ) ;
#112 = SURFACE_SIDE_STYLE ('',( #139 ) ) ;
#113 = PRODUCT ( '59674', '59674', '', ( #316 ) ) ;
#114 = VERTEX_POINT ( 'NONE', #205 ) ;
#115 = ORIENTED_EDGE ( 'NONE', *, *, #340, .T. ) ;
#116 = SURFACE_STYLE_USAGE ( .BOTH. , #359 ) ;
#117 = AXIS2_PLACEMENT_3D ( 'NONE', #133, #65, #166 ) ;
#118 = SURFACE_SIDE_STYLE ('',( #12 ) ) ;
#119 = DIRECTION ( 'NONE',  ( 1.560495851798313744E-17, 1.000000000000000000, -0.000000000000000000 ) ) ;
#120 = FILL_AREA_STYLE_COLOUR ( '', #63 ) ;
#121 = VERTEX_POINT ( 'NONE', #75 ) ;
#122 = SURFACE_STYLE_USAGE ( .BOTH. , #145 ) ;
#123 =( NAMED_UNIT ( * ) SI_UNIT ( $, .STERADIAN. ) SOLID_ANGLE_UNIT ( ) );
#124 = PLANE ( 'NONE',  #263 ) ;
#125 = DIRECTION ( 'NONE',  ( -0.000000000000000000, -1.000000000000000000, -0.000000000000000000 ) ) ;
#126 = DIRECTION ( 'NONE',  ( 0.000000000000000000, 1.000000000000000000, 0.000000000000000000 ) ) ;
#127 =( NAMED_UNIT ( * ) PLANE_ANGLE_UNIT ( ) SI_UNIT ( $, .RADIAN. ) );
#128 = CARTESIAN_POINT ( 'NONE',  ( 0.000000000000000000, 0.5000000000000000000, 0.000000000000000000 ) ) ;
#129 = SURFACE_STYLE_USAGE ( .BOTH. , #55 ) ;
#130 = SURFACE_STYLE_FILL_AREA ( #158 ) ;
#131 = SURFACE_SIDE_STYLE ('',( #79 ) ) ;
#132 = MECHANICAL_DESIGN_GEOMETRIC_PRESENTATION_REPRESENTATION (  '', ( #225 ), #258 ) ;
#133 = CARTESIAN_POINT ( 'NONE',  ( 0.000000000000000000, 0.000000000000000000, 0.000000000000000000 ) ) ;
#134 = APPLICATION_PROTOCOL_DEFINITION ( 'draft international standard', 'automotive_design', 1998, #109 ) ;
#135 = AXIS2_PLACEMENT_3D ( 'NONE', #297, #363, #226 ) ;
#136 = ADVANCED_FACE ( 'NONE', ( #249 ), #351, .T. ) ;
#137 = CIRCLE ( 'NONE', #365, 6.000000000000000000 ) ;
#138 = ORIENTED_EDGE ( 'NONE', *, *, #160, .F. ) ;
#139 = SURFACE_STYLE_FILL_AREA ( #64 ) ;
#140 = DIRECTION ( 'NONE',  ( -0.000000000000000000, -1.000000000000000000, -0.000000000000000000 ) ) ;
#141 = FACE_OUTER_BOUND ( 'NONE', #322, .T. ) ;
#142 = CARTESIAN_POINT ( 'NONE',  ( 6.123233995736762930E-15, 75.00000000000000000, 0.000000000000000000 ) ) ;
#143 = FACE_OUTER_BOUND ( 'NONE', #301, .T. ) ;
#144 = PRODUCT_RELATED_PRODUCT_CATEGORY ( 'part', '', ( #113 ) ) ;
#145 = SURFACE_SIDE_STYLE ('',( #98 ) ) ;
#146 = COLOUR_RGB ( '',1.000000000000000000, 0.000000000000000000, 0.000000000000000000 ) ;
#147 = ORIENTED_EDGE ( 'NONE', *, *, #194, .T. ) ;
#148 = CARTESIAN_POINT ( 'NONE',  ( -5.999999999999988454, 75.00000000000000000, 0.000000000000000000 ) ) ;
#149 = VERTEX_POINT ( 'NONE', #302 ) ;
#150 = CIRCLE ( 'NONE', #358, 0.5000000000000004441 ) ;
#151 = UNCERTAINTY_MEASURE_WITH_UNIT (LENGTH_MEASURE( 1.000000000000000082E-05 ), #172, 'distance_accuracy_value', 'NONE');
#152 = LINE ( 'NONE', #300, #307 ) ;
#153 = FACE_OUTER_BOUND ( 'NONE', #186, .T. ) ;
#154 = EDGE_CURVE ( 'NONE', #34, #149, #152, .T. ) ;
#155 = CIRCLE ( 'NONE', #287, 5.999999999999993783 ) ;
#156 = SHAPE_DEFINITION_REPRESENTATION ( #69, #200 ) ;
#157 = FACE_OUTER_BOUND ( 'NONE', #7, .T. ) ;
#158 = FILL_AREA_STYLE ('',( #198 ) ) ;
#159 = DIRECTION ( 'NONE',  ( 0.000000000000000000, 0.000000000000000000, 1.000000000000000000 ) ) ;
#160 = EDGE_CURVE ( 'NONE', #356, #34, #90, .T. ) ;
#161 = PRESENTATION_STYLE_ASSIGNMENT (( #129 ) ) ;
#162 = PRODUCT_DEFINITION ( 'UNKNOWN', '', #223, #174 ) ;
#163 =( NAMED_UNIT ( * ) SI_UNIT ( $, .STERADIAN. ) SOLID_ANGLE_UNIT ( ) );
#164 = APPLICATION_PROTOCOL_DEFINITION ( 'draft international standard', 'automotive_design', 1998, #190 ) ;
#165 = CIRCLE ( 'NONE', #10, 5.999999999999994671 ) ;
#166 = DIRECTION ( 'NONE',  ( 0.000000000000000000, 0.000000000000000000, -1.000000000000000000 ) ) ;
#167 = VERTEX_POINT ( 'NONE', #48 ) ;
#168 = PRESENTATION_STYLE_ASSIGNMENT (( #61 ) ) ;
#169 = ORIENTED_EDGE ( 'NONE', *, *, #154, .T. ) ;
#170 = AXIS2_PLACEMENT_3D ( 'NONE', #216, #296, #361 ) ;
#171 = TOROIDAL_SURFACE ( 'NONE', #239, 5.500000000000000000, 0.5000000000000002220 ) ;
#172 =( LENGTH_UNIT ( ) NAMED_UNIT ( * ) SI_UNIT ( .MILLI., .METRE. ) );
#173 = DIRECTION ( 'NONE',  ( 0.000000000000000000, 0.000000000000000000, -1.000000000000000000 ) ) ;
#174 = PRODUCT_DEFINITION_CONTEXT ( 'detailed design', #190, 'design' ) ;
#175 = ORIENTED_EDGE ( 'NONE', *, *, #202, .T. ) ;
#176 = DIRECTION ( 'NONE',  ( 0.000000000000000000, 0.000000000000000000, -1.000000000000000000 ) ) ;
#177 = ORIENTED_EDGE ( 'NONE', *, *, #259, .T. ) ;
#178 = MECHANICAL_DESIGN_GEOMETRIC_PRESENTATION_REPRESENTATION (  '', ( #207 ), #23 ) ;
#179 = DIRECTION ( 'NONE',  ( 0.000000000000000000, 0.000000000000000000, -1.000000000000000000 ) ) ;
#180 = ORIENTED_EDGE ( 'NONE', *, *, #208, .F. ) ;
#181 = CLOSED_SHELL ( 'NONE', ( #348, #275, #86, #44, #83, #66 ) ) ;
#182 = DIRECTION ( 'NONE',  ( -0.000000000000000000, -1.000000000000000000, -0.000000000000000000 ) ) ;
#183 = ORIENTED_EDGE ( 'NONE', *, *, #202, .F. ) ;
#184 =( LENGTH_UNIT ( ) NAMED_UNIT ( * ) SI_UNIT ( .MILLI., .METRE. ) );
#185 = EDGE_CURVE ( 'NONE', #62, #14, #309, .T. ) ;
#186 = EDGE_LOOP ( 'NONE', ( #219, #349, #45, #180 ) ) ;
#187 = CARTESIAN_POINT ( 'NONE',  ( 6.735557395310442023E-16, 0.5000000000000000000, 5.500000000000000000 ) ) ;
#188 = AXIS2_PLACEMENT_3D ( 'NONE', #21, #125, #252 ) ;
#189 = FACE_OUTER_BOUND ( 'NONE', #269, .T. ) ;
#190 = APPLICATION_CONTEXT ( 'automotive_design' ) ;
#191 = UNCERTAINTY_MEASURE_WITH_UNIT (LENGTH_MEASURE( 1.000000000000000082E-05 ), #91, 'distance_accuracy_value', 'NONE');
#192 =( NAMED_UNIT ( * ) PLANE_ANGLE_UNIT ( ) SI_UNIT ( $, .RADIAN. ) );
#193 =( GEOMETRIC_REPRESENTATION_CONTEXT ( 3 ) GLOBAL_UNCERTAINTY_ASSIGNED_CONTEXT ( ( #251 ) ) GLOBAL_UNIT_ASSIGNED_CONTEXT ( ( #267, #28, #206 ) ) REPRESENTATION_CONTEXT ( 'NONE', 'WORKASPACE' ) );
#194 = EDGE_CURVE ( 'NONE', #356, #62, #357, .T. ) ;
#195 =( NAMED_UNIT ( * ) SI_UNIT ( $, .STERADIAN. ) SOLID_ANGLE_UNIT ( ) );
#196 = VECTOR ( 'NONE', #341, 1000.000000000000000 ) ;
#197 = CARTESIAN_POINT ( 'NONE',  ( 6.000000000000000888, 75.00000000000000000, 7.347880794884112834E-16 ) ) ;
#198 = FILL_AREA_STYLE_COLOUR ( '', #321 ) ;
#199 = STYLED_ITEM ( 'NONE', ( #35 ), #110 ) ;
#200 = ADVANCED_BREP_SHAPE_REPRESENTATION ( '59674', ( #110, #233, #271 ), #232 ) ;
#201 = DIRECTION ( 'NONE',  ( -1.560495851798313744E-17, -1.000000000000000000, 0.000000000000000000 ) ) ;
#202 = EDGE_CURVE ( 'NONE', #114, #167, #155, .T. ) ;
#203 = MECHANICAL_DESIGN_GEOMETRIC_PRESENTATION_REPRESENTATION (  '', ( #215 ), #320 ) ;
#204 = COLOUR_RGB ( '',1.000000000000000000, 0.000000000000000000, 0.000000000000000000 ) ;
#205 = CARTESIAN_POINT ( 'NONE',  ( 6.000000000000000000, 75.00000000000000000, 7.347880794884112834E-16 ) ) ;
#206 =( NAMED_UNIT ( * ) SI_UNIT ( $, .STERADIAN. ) SOLID_ANGLE_UNIT ( ) );
#207 = STYLED_ITEM ( 'NONE', ( #161 ), #348 ) ;
#208 = EDGE_CURVE ( 'NONE', #32, #167, #15, .T. ) ;
#209 =( GEOMETRIC_REPRESENTATION_CONTEXT ( 3 ) GLOBAL_UNCERTAINTY_ASSIGNED_CONTEXT ( ( #191 ) ) GLOBAL_UNIT_ASSIGNED_CONTEXT ( ( #91, #260, #5 ) ) REPRESENTATION_CONTEXT ( 'NONE', 'WORKASPACE' ) );
#210 = ORIENTED_EDGE ( 'NONE', *, *, #26, .T. ) ;
#211 = FILL_AREA_STYLE_COLOUR ( '', #27 ) ;
#212 = EDGE_LOOP ( 'NONE', ( #261, #92, #67, #88 ) ) ;
#213 = PRESENTATION_LAYER_ASSIGNMENT (  '', '', ( #215 ) ) ;
#214 = PRESENTATION_STYLE_ASSIGNMENT (( #95 ) ) ;
#215 = STYLED_ITEM ( 'NONE', ( #355 ), #275 ) ;
#216 = CARTESIAN_POINT ( 'NONE',  ( 5.421010862427522170E-15, 30.00000000000000000, 0.000000000000000000 ) ) ;
#217 = DIRECTION ( 'NONE',  ( 1.000000000000000000, 0.000000000000000000, -1.224646799147353207E-16 ) ) ;
#218 = UNCERTAINTY_MEASURE_WITH_UNIT (LENGTH_MEASURE( 1.000000000000000082E-05 ), #184, 'distance_accuracy_value', 'NONE');
#219 = ORIENTED_EDGE ( 'NONE', *, *, #22, .T. ) ;
#220 = FILL_AREA_STYLE_COLOUR ( '', #30 ) ;
#221 = CIRCLE ( 'NONE', #135, 5.500000000000000000 ) ;
#222 = FILL_AREA_STYLE ('',( #306 ) ) ;
#223 = PRODUCT_DEFINITION_FORMATION_WITH_SPECIFIED_SOURCE ( 'ANY', '', #113, .NOT_KNOWN. ) ;
#224 = COLOUR_RGB ( '',1.000000000000000000, 0.000000000000000000, 0.000000000000000000 ) ;
#225 = STYLED_ITEM ( 'NONE', ( #257 ), #66 ) ;
#226 = DIRECTION ( 'NONE',  ( 0.000000000000000000, 0.000000000000000000, -1.000000000000000000 ) ) ;
#227 = AXIS2_PLACEMENT_3D ( 'NONE', #270, #9, #323 ) ;
#228 = FACE_OUTER_BOUND ( 'NONE', #324, .T. ) ;
#229 = SURFACE_STYLE_FILL_AREA ( #25 ) ;
#230 = PRESENTATION_STYLE_ASSIGNMENT (( #108 ) ) ;
#231 = PRESENTATION_LAYER_ASSIGNMENT (  '', '', ( #225 ) ) ;
#232 =( GEOMETRIC_REPRESENTATION_CONTEXT ( 3 ) GLOBAL_UNCERTAINTY_ASSIGNED_CONTEXT ( ( #326 ) ) GLOBAL_UNIT_ASSIGNED_CONTEXT ( ( #366, #127, #254 ) ) REPRESENTATION_CONTEXT ( 'NONE', 'WORKASPACE' ) );
#233 = MANIFOLD_SOLID_BREP ( 'Revolve - Tool Body (Straight Shanked)', #96 ) ;
#234 = SURFACE_STYLE_FILL_AREA ( #294 ) ;
#235 = EDGE_LOOP ( 'NONE', ( #97, #177 ) ) ;
#236 = DIRECTION ( 'NONE',  ( -0.000000000000000000, -1.000000000000000000, -0.000000000000000000 ) ) ;
#237 = VECTOR ( 'NONE', #332, 1000.000000000000000 ) ;
#238 = ORIENTED_EDGE ( 'NONE', *, *, #208, .T. ) ;
#239 = AXIS2_PLACEMENT_3D ( 'NONE', #364, #140, #173 ) ;
#240 = ORIENTED_EDGE ( 'NONE', *, *, #105, .T. ) ;
#241 = CARTESIAN_POINT ( 'NONE',  ( 7.347880794884119736E-16, 0.000000000000000000, 6.000000000000000000 ) ) ;
#242 = ORIENTED_EDGE ( 'NONE', *, *, #265, .F. ) ;
#243 = DIRECTION ( 'NONE',  ( 1.560495851798313744E-17, 1.000000000000000000, -0.000000000000000000 ) ) ;
#244 = CIRCLE ( 'NONE', #227, 5.500000000000000000 ) ;
#245 =( LENGTH_UNIT ( ) NAMED_UNIT ( * ) SI_UNIT ( .MILLI., .METRE. ) );
#246 = FACE_OUTER_BOUND ( 'NONE', #212, .T. ) ;
#247 = ORIENTED_EDGE ( 'NONE', *, *, #194, .F. ) ;
#248 = PRESENTATION_LAYER_ASSIGNMENT (  '', '', ( #199 ) ) ;
#249 = FACE_OUTER_BOUND ( 'NONE', #74, .T. ) ;
#250 = CARTESIAN_POINT ( 'NONE',  ( 6.123233995736762930E-15, 75.00000000000000000, 0.000000000000000000 ) ) ;
#251 = UNCERTAINTY_MEASURE_WITH_UNIT (LENGTH_MEASURE( 1.000000000000000082E-05 ), #267, 'distance_accuracy_value', 'NONE');
#252 = DIRECTION ( 'NONE',  ( 0.000000000000000000, 0.000000000000000000, -1.000000000000000000 ) ) ;
#253 = DIRECTION ( 'NONE',  ( 0.000000000000000000, -0.000000000000000000, 1.000000000000000000 ) ) ;
#254 =( NAMED_UNIT ( * ) SI_UNIT ( $, .STERADIAN. ) SOLID_ANGLE_UNIT ( ) );
#255 = AXIS2_PLACEMENT_3D ( 'NONE', #2, #314, #31 ) ;
#256 = PRESENTATION_LAYER_ASSIGNMENT (  '', '', ( #207 ) ) ;
#257 = PRESENTATION_STYLE_ASSIGNMENT (( #52 ) ) ;
#258 =( GEOMETRIC_REPRESENTATION_CONTEXT ( 3 ) GLOBAL_UNCERTAINTY_ASSIGNED_CONTEXT ( ( #18 ) ) GLOBAL_UNIT_ASSIGNED_CONTEXT ( ( #308, #192, #84 ) ) REPRESENTATION_CONTEXT ( 'NONE', 'WORKASPACE' ) );
#259 = EDGE_CURVE ( 'NONE', #14, #121, #244, .T. ) ;
#260 =( NAMED_UNIT ( * ) PLANE_ANGLE_UNIT ( ) SI_UNIT ( $, .RADIAN. ) );
#261 = ORIENTED_EDGE ( 'NONE', *, *, #99, .T. ) ;
#262 = FILL_AREA_STYLE_COLOUR ( '', #338 ) ;
#263 = AXIS2_PLACEMENT_3D ( 'NONE', #20, #100, #280 ) ;
#264 = SURFACE_STYLE_USAGE ( .BOTH. , #56 ) ;
#265 = EDGE_CURVE ( 'NONE', #62, #149, #77, .T. ) ;
#266 = CARTESIAN_POINT ( 'NONE',  ( -5.999999999999989342, 30.00000000000000000, 0.000000000000000000 ) ) ;
#267 =( LENGTH_UNIT ( ) NAMED_UNIT ( * ) SI_UNIT ( .MILLI., .METRE. ) );
#268 = AXIS2_PLACEMENT_3D ( 'NONE', #336, #201, #106 ) ;
#269 = EDGE_LOOP ( 'NONE', ( #39, #138 ) ) ;
#270 = CARTESIAN_POINT ( 'NONE',  ( 0.000000000000000000, 0.000000000000000000, 0.000000000000000000 ) ) ;
#271 = AXIS2_PLACEMENT_3D ( 'NONE', #81, #159, #346 ) ;
#272 = PRESENTATION_LAYER_ASSIGNMENT (  '', '', ( #58 ) ) ;
#273 = MECHANICAL_DESIGN_GEOMETRIC_PRESENTATION_REPRESENTATION (  '', ( #360 ), #193 ) ;
#274 = FILL_AREA_STYLE_COLOUR ( '', #224 ) ;
#275 = ADVANCED_FACE ( 'NONE', ( #246 ), #3, .T. ) ;
#276 = DIRECTION ( 'NONE',  ( 1.560495851798313744E-17, 1.000000000000000000, -0.000000000000000000 ) ) ;
#277 = DIRECTION ( 'NONE',  ( -1.000000000000000000, 0.000000000000000000, 0.000000000000000000 ) ) ;
#278 = ORIENTED_EDGE ( 'NONE', *, *, #288, .T. ) ;
#279 =( NAMED_UNIT ( * ) PLANE_ANGLE_UNIT ( ) SI_UNIT ( $, .RADIAN. ) );
#280 = DIRECTION ( 'NONE',  ( -1.000000000000000000, 1.560495851798313744E-17, 0.000000000000000000 ) ) ;
#281 = EDGE_CURVE ( 'NONE', #121, #14, #221, .T. ) ;
#282 =( NAMED_UNIT ( * ) SI_UNIT ( $, .STERADIAN. ) SOLID_ANGLE_UNIT ( ) );
#283 = CARTESIAN_POINT ( 'NONE',  ( 6.123233995736762930E-15, 75.00000000000000000, 0.000000000000000000 ) ) ;
#284 = UNCERTAINTY_MEASURE_WITH_UNIT (LENGTH_MEASURE( 1.000000000000000082E-05 ), #344, 'distance_accuracy_value', 'NONE');
#285 = DIRECTION ( 'NONE',  ( 0.000000000000000000, 0.000000000000000000, -1.000000000000000000 ) ) ;
#286 = CARTESIAN_POINT ( 'NONE',  ( 0.000000000000000000, 30.00000000000000000, 0.000000000000000000 ) ) ;
#287 = AXIS2_PLACEMENT_3D ( 'NONE', #283, #119, #277 ) ;
#288 = EDGE_CURVE ( 'NONE', #149, #121, #150, .T. ) ;
#289 = DIRECTION ( 'NONE',  ( -0.000000000000000000, -1.000000000000000000, -0.000000000000000000 ) ) ;
#290 = AXIS2_PLACEMENT_3D ( 'NONE', #305, #68, #176 ) ;
#291 = ADVANCED_FACE ( 'NONE', ( #53 ), #101, .F. ) ;
#292 = DIRECTION ( 'NONE',  ( -0.000000000000000000, -1.000000000000000000, -0.000000000000000000 ) ) ;
#293 = PLANE ( 'NONE',  #117 ) ;
#294 = FILL_AREA_STYLE ('',( #262 ) ) ;
#295 = DIRECTION ( 'NONE',  ( -1.000000000000000000, 0.000000000000000000, 0.000000000000000000 ) ) ;
#296 = DIRECTION ( 'NONE',  ( 1.560495851798313744E-17, 1.000000000000000000, -0.000000000000000000 ) ) ;
#297 = CARTESIAN_POINT ( 'NONE',  ( 0.000000000000000000, 0.000000000000000000, 0.000000000000000000 ) ) ;
#298 = ORIENTED_EDGE ( 'NONE', *, *, #333, .F. ) ;
#299 = PRESENTATION_STYLE_ASSIGNMENT (( #122 ) ) ;
#300 = CARTESIAN_POINT ( 'NONE',  ( 0.000000000000000000, 0.000000000000000000, -6.000000000000000000 ) ) ;
#301 = EDGE_LOOP ( 'NONE', ( #94, #6, #278, #111 ) ) ;
#302 = CARTESIAN_POINT ( 'NONE',  ( 0.000000000000000000, 0.5000000000000000000, -6.000000000000000000 ) ) ;
#303 = STYLED_ITEM ( 'NONE', ( #299 ), #233 ) ;
#304 = UNCERTAINTY_MEASURE_WITH_UNIT (LENGTH_MEASURE( 1.000000000000000082E-05 ), #245, 'distance_accuracy_value', 'NONE');
#305 = CARTESIAN_POINT ( 'NONE',  ( 0.000000000000000000, 0.5000000000000000000, 0.000000000000000000 ) ) ;
#306 = FILL_AREA_STYLE_COLOUR ( '', #146 ) ;
#307 = VECTOR ( 'NONE', #182, 1000.000000000000000 ) ;
#308 =( LENGTH_UNIT ( ) NAMED_UNIT ( * ) SI_UNIT ( .MILLI., .METRE. ) );
#309 = CIRCLE ( 'NONE', #347, 0.5000000000000004441 ) ;
#310 = CARTESIAN_POINT ( 'NONE',  ( 7.347880794884119736E-16, 30.00000000000000000, 6.000000000000000000 ) ) ;
#311 = DIRECTION ( 'NONE',  ( -0.000000000000000000, -1.000000000000000000, -0.000000000000000000 ) ) ;
#312 =( GEOMETRIC_REPRESENTATION_CONTEXT ( 3 ) GLOBAL_UNCERTAINTY_ASSIGNED_CONTEXT ( ( #304 ) ) GLOBAL_UNIT_ASSIGNED_CONTEXT ( ( #245, #47, #282 ) ) REPRESENTATION_CONTEXT ( 'NONE', 'WORKASPACE' ) );
#313 = AXIS2_PLACEMENT_3D ( 'NONE', #82, #311, #285 ) ;
#314 = DIRECTION ( 'NONE',  ( 1.560495851798313744E-17, 1.000000000000000000, -0.000000000000000000 ) ) ;
#315 = CARTESIAN_POINT ( 'NONE',  ( 0.000000000000000000, 0.000000000000000000, 0.000000000000000000 ) ) ;
#316 = PRODUCT_CONTEXT ( 'NONE', #109, 'mechanical' ) ;
#317 = PRESENTATION_LAYER_ASSIGNMENT (  '', '', ( #41 ) ) ;
#318 =( NAMED_UNIT ( * ) PLANE_ANGLE_UNIT ( ) SI_UNIT ( $, .RADIAN. ) );
#319 = DIRECTION ( 'NONE',  ( 0.000000000000000000, 0.000000000000000000, -1.000000000000000000 ) ) ;
#320 =( GEOMETRIC_REPRESENTATION_CONTEXT ( 3 ) GLOBAL_UNCERTAINTY_ASSIGNED_CONTEXT ( ( #218 ) ) GLOBAL_UNIT_ASSIGNED_CONTEXT ( ( #184, #279, #369 ) ) REPRESENTATION_CONTEXT ( 'NONE', 'WORKASPACE' ) );
#321 = COLOUR_RGB ( '',1.000000000000000000, 0.000000000000000000, 0.000000000000000000 ) ;
#322 = EDGE_LOOP ( 'NONE', ( #352, #16 ) ) ;
#323 = DIRECTION ( 'NONE',  ( 0.000000000000000000, 0.000000000000000000, -1.000000000000000000 ) ) ;
#324 = EDGE_LOOP ( 'NONE', ( #247, #42, #169, #242 ) ) ;
#325 = VECTOR ( 'NONE', #40, 1000.000000000000000 ) ;
#326 = UNCERTAINTY_MEASURE_WITH_UNIT (LENGTH_MEASURE( 1.000000000000000082E-05 ), #366, 'distance_accuracy_value', 'NONE');
#327 = CARTESIAN_POINT ( 'NONE',  ( 7.041719095097280880E-16, 0.000000000000000000, 5.500000000000000000 ) ) ;
#328 = FILL_AREA_STYLE ('',( #120 ) ) ;
#329 = DIRECTION ( 'NONE',  ( -1.000000000000000000, 0.000000000000000000, 0.000000000000000000 ) ) ;
#330 = DIRECTION ( 'NONE',  ( -0.000000000000000000, -1.000000000000000000, -0.000000000000000000 ) ) ;
#331 = ORIENTED_EDGE ( 'NONE', *, *, #99, .F. ) ;
#332 = DIRECTION ( 'NONE',  ( 1.560495851798313744E-17, 1.000000000000000000, -0.000000000000000000 ) ) ;
#333 = EDGE_CURVE ( 'NONE', #60, #114, #103, .T. ) ;
#334 = DIRECTION ( 'NONE',  ( 1.560495851798313744E-17, 1.000000000000000000, -0.000000000000000000 ) ) ;
#335 = PRESENTATION_LAYER_ASSIGNMENT (  '', '', ( #303 ) ) ;
#336 = CARTESIAN_POINT ( 'NONE',  ( 6.000000000000000000, 75.00000000000000000, 0.000000000000000000 ) ) ;
#337 = CYLINDRICAL_SURFACE ( 'NONE', #11, 5.999999999999994671 ) ;
#338 = COLOUR_RGB ( '',0.7921568627450980005, 0.8196078431372548767, 0.9333333333333333481 ) ;
#339 = CARTESIAN_POINT ( 'NONE',  ( 0.000000000000000000, 0.5000000000000000000, -5.500000000000000000 ) ) ;
#340 = EDGE_CURVE ( 'NONE', #34, #356, #368, .T. ) ;
#341 = DIRECTION ( 'NONE',  ( 1.560495851798313744E-17, 1.000000000000000000, -0.000000000000000000 ) ) ;
#342 = CYLINDRICAL_SURFACE ( 'NONE', #345, 6.000000000000000000 ) ;
#343 = CIRCLE ( 'NONE', #170, 5.999999999999994671 ) ;
#344 =( LENGTH_UNIT ( ) NAMED_UNIT ( * ) SI_UNIT ( .MILLI., .METRE. ) );
#345 = AXIS2_PLACEMENT_3D ( 'NONE', #315, #292, #350 ) ;
#346 = DIRECTION ( 'NONE',  ( 1.000000000000000000, 0.000000000000000000, 0.000000000000000000 ) ) ;
#347 = AXIS2_PLACEMENT_3D ( 'NONE', #187, #217, #43 ) ;
#348 = ADVANCED_FACE ( 'NONE', ( #157 ), #51, .T. ) ;
#349 = ORIENTED_EDGE ( 'NONE', *, *, #333, .T. ) ;
#350 = DIRECTION ( 'NONE',  ( 0.000000000000000000, 0.000000000000000000, -1.000000000000000000 ) ) ;
#351 = CYLINDRICAL_SURFACE ( 'NONE', #353, 5.999999999999994671 ) ;
#352 = ORIENTED_EDGE ( 'NONE', *, *, #22, .F. ) ;
#353 = AXIS2_PLACEMENT_3D ( 'NONE', #142, #243, #93 ) ;
#354 = EDGE_LOOP ( 'NONE', ( #240, #175 ) ) ;
#355 = PRESENTATION_STYLE_ASSIGNMENT (( #116 ) ) ;
#356 = VERTEX_POINT ( 'NONE', #310 ) ;
#357 = LINE ( 'NONE', #241, #325 ) ;
#358 = AXIS2_PLACEMENT_3D ( 'NONE', #339, #367, #107 ) ;
#359 = SURFACE_SIDE_STYLE ('',( #38 ) ) ;
#360 = STYLED_ITEM ( 'NONE', ( #168 ), #86 ) ;
#361 = DIRECTION ( 'NONE',  ( -1.000000000000000000, 0.000000000000000000, 0.000000000000000000 ) ) ;
#362 = FILL_AREA_STYLE ('',( #211 ) ) ;
#363 = DIRECTION ( 'NONE',  ( -0.000000000000000000, -1.000000000000000000, -0.000000000000000000 ) ) ;
#364 = CARTESIAN_POINT ( 'NONE',  ( 0.000000000000000000, 0.5000000000000000000, 0.000000000000000000 ) ) ;
#365 = AXIS2_PLACEMENT_3D ( 'NONE', #89, #236, #319 ) ;
#366 =( LENGTH_UNIT ( ) NAMED_UNIT ( * ) SI_UNIT ( .MILLI., .METRE. ) );
#367 = DIRECTION ( 'NONE',  ( -1.000000000000000000, 0.000000000000000000, 0.000000000000000000 ) ) ;
#368 = CIRCLE ( 'NONE', #313, 6.000000000000000000 ) ;
#369 =( NAMED_UNIT ( * ) SI_UNIT ( $, .STERADIAN. ) SOLID_ANGLE_UNIT ( ) );
#370 = SURFACE_SIDE_STYLE ('',( #130 ) ) ;
ENDSEC;
END-ISO-10303-21;
