ISO-10303-21;
HEADER;
FILE_DESCRIPTION (( 'STEP AP214' ),
    '1' );
FILE_NAME ('59549.STEP',
    '2023-07-24T15:48:50',
    ( '' ),
    ( '' ),
    'SwSTEP 2.0',
    'SolidWorks 2023',
    '' );
FILE_SCHEMA (( 'AUTOMOTIVE_DESIGN' ));
ENDSEC;

DATA;
#1 = EDGE_LOOP ( 'NONE', ( #215, #27 ) ) ;
#2 = EDGE_CURVE ( 'NONE', #182, #22, #135, .T. ) ;
#3 = AXIS2_PLACEMENT_3D ( 'NONE', #38, #131, #89 ) ;
#4 = SURFACE_STYLE_USAGE ( .BOTH. , #75 ) ;
#5 = EDGE_CURVE ( 'NONE', #285, #24, #224, .T. ) ;
#6 = SURFACE_STYLE_FILL_AREA ( #249 ) ;
#7 = ORIENTED_EDGE ( 'NONE', *, *, #5, .F. ) ;
#8 = DIRECTION ( 'NONE',  ( -0.000000000000000000, -1.000000000000000000, -0.000000000000000000 ) ) ;
#9 = CARTESIAN_POINT ( 'NONE',  ( 1.224646799147353256E-15, 0.000000000000000000, 10.00000000000000000 ) ) ;
#10 =( NAMED_UNIT ( * ) PLANE_ANGLE_UNIT ( ) SI_UNIT ( $, .RADIAN. ) );
#11 = COLOUR_RGB ( '',1.000000000000000000, 0.000000000000000000, 0.000000000000000000 ) ;
#12 = DIRECTION ( 'NONE',  ( -0.000000000000000000, -1.000000000000000000, -0.000000000000000000 ) ) ;
#13 = DIRECTION ( 'NONE',  ( 1.000000000000000000, 2.245185798436817151E-17, 0.000000000000000000 ) ) ;
#14 = LINE ( 'NONE', #57, #279 ) ;
#15 = MECHANICAL_DESIGN_GEOMETRIC_PRESENTATION_REPRESENTATION (  '', ( #61 ), #48 ) ;
#16 = CARTESIAN_POINT ( 'NONE',  ( 1.925929944387235853E-31, 40.00000000000000000, 0.000000000000000000 ) ) ;
#17 = CARTESIAN_POINT ( 'NONE',  ( 10.00000000000000178, 100.0000000000000000, 1.224646799147353454E-15 ) ) ;
#18 = ORIENTED_EDGE ( 'NONE', *, *, #165, .F. ) ;
#19 =( LENGTH_UNIT ( ) NAMED_UNIT ( * ) SI_UNIT ( .MILLI., .METRE. ) );
#20 = ADVANCED_FACE ( 'NONE', ( #221 ), #71, .T. ) ;
#21 = ADVANCED_FACE ( 'NONE', ( #95 ), #201, .T. ) ;
#22 = VERTEX_POINT ( 'NONE', #17 ) ;
#23 = VERTEX_POINT ( 'NONE', #287 ) ;
#24 = VERTEX_POINT ( 'NONE', #273 ) ;
#25 = CIRCLE ( 'NONE', #70, 10.00000000000000000 ) ;
#26 = SURFACE_SIDE_STYLE ('',( #6 ) ) ;
#27 = ORIENTED_EDGE ( 'NONE', *, *, #42, .T. ) ;
#28 = UNCERTAINTY_MEASURE_WITH_UNIT (LENGTH_MEASURE( 1.000000000000000082E-05 ), #60, 'distance_accuracy_value', 'NONE');
#29 = DIRECTION ( 'NONE',  ( -2.245185798436817151E-17, 1.000000000000000000, -0.000000000000000000 ) ) ;
#30 = CARTESIAN_POINT ( 'NONE',  ( -1.347111479062090180E-15, 100.0000000000000000, 0.000000000000000000 ) ) ;
#31 = SURFACE_STYLE_FILL_AREA ( #169 ) ;
#32 = AXIS2_PLACEMENT_3D ( 'NONE', #154, #12, #85 ) ;
#33 = AXIS2_PLACEMENT_3D ( 'NONE', #262, #65, #155 ) ;
#34 = UNCERTAINTY_MEASURE_WITH_UNIT (LENGTH_MEASURE( 1.000000000000000082E-05 ), #190, 'distance_accuracy_value', 'NONE');
#35 = FILL_AREA_STYLE_COLOUR ( '', #126 ) ;
#36 = DIRECTION ( 'NONE',  ( 2.245185798436817151E-17, -1.000000000000000000, 0.000000000000000000 ) ) ;
#37 =( NAMED_UNIT ( * ) SI_UNIT ( $, .STERADIAN. ) SOLID_ANGLE_UNIT ( ) );
#38 = CARTESIAN_POINT ( 'NONE',  ( -1.347111479062090180E-15, 100.0000000000000000, 0.000000000000000000 ) ) ;
#39 = ORIENTED_EDGE ( 'NONE', *, *, #270, .T. ) ;
#40 =( NAMED_UNIT ( * ) PLANE_ANGLE_UNIT ( ) SI_UNIT ( $, .RADIAN. ) );
#41 = PRESENTATION_LAYER_ASSIGNMENT (  '', '', ( #128 ) ) ;
#42 = EDGE_CURVE ( 'NONE', #22, #182, #142, .T. ) ;
#43 = AXIS2_PLACEMENT_3D ( 'NONE', #51, #29, #116 ) ;
#44 = EDGE_LOOP ( 'NONE', ( #220, #226, #132, #166 ) ) ;
#45 = ORIENTED_EDGE ( 'NONE', *, *, #181, .F. ) ;
#46 = DIRECTION ( 'NONE',  ( 0.000000000000000000, 0.000000000000000000, -1.000000000000000000 ) ) ;
#47 = FILL_AREA_STYLE ('',( #203 ) ) ;
#48 =( GEOMETRIC_REPRESENTATION_CONTEXT ( 3 ) GLOBAL_UNCERTAINTY_ASSIGNED_CONTEXT ( ( #34 ) ) GLOBAL_UNIT_ASSIGNED_CONTEXT ( ( #190, #54, #185 ) ) REPRESENTATION_CONTEXT ( 'NONE', 'WORKASPACE' ) );
#49 = PRESENTATION_STYLE_ASSIGNMENT (( #102 ) ) ;
#50 = ORIENTED_EDGE ( 'NONE', *, *, #145, .T. ) ;
#51 = CARTESIAN_POINT ( 'NONE',  ( -1.347111479062090180E-15, 100.0000000000000000, 0.000000000000000000 ) ) ;
#52 =( LENGTH_UNIT ( ) NAMED_UNIT ( * ) SI_UNIT ( .MILLI., .METRE. ) );
#53 = FILL_AREA_STYLE_COLOUR ( '', #112 ) ;
#54 =( NAMED_UNIT ( * ) PLANE_ANGLE_UNIT ( ) SI_UNIT ( $, .RADIAN. ) );
#55 = MECHANICAL_DESIGN_GEOMETRIC_PRESENTATION_REPRESENTATION (  '', ( #230 ), #171 ) ;
#56 = SURFACE_SIDE_STYLE ('',( #175 ) ) ;
#57 = CARTESIAN_POINT ( 'NONE',  ( -10.00000000000000355, 100.0000000000000000, 0.000000000000000000 ) ) ;
#58 = EDGE_CURVE ( 'NONE', #111, #22, #229, .T. ) ;
#59 =( NAMED_UNIT ( * ) SI_UNIT ( $, .STERADIAN. ) SOLID_ANGLE_UNIT ( ) );
#60 =( LENGTH_UNIT ( ) NAMED_UNIT ( * ) SI_UNIT ( .MILLI., .METRE. ) );
#61 = STYLED_ITEM ( 'NONE', ( #256 ), #92 ) ;
#62 = PRODUCT_DEFINITION_FORMATION_WITH_SPECIFIED_SOURCE ( 'ANY', '', #282, .NOT_KNOWN. ) ;
#63 = DIRECTION ( 'NONE',  ( 0.000000000000000000, 0.000000000000000000, -1.000000000000000000 ) ) ;
#64 = FILL_AREA_STYLE_COLOUR ( '', #168 ) ;
#65 = DIRECTION ( 'NONE',  ( -0.000000000000000000, -1.000000000000000000, -0.000000000000000000 ) ) ;
#66 = MECHANICAL_DESIGN_GEOMETRIC_PRESENTATION_REPRESENTATION (  '', ( #115 ), #263 ) ;
#67 = CIRCLE ( 'NONE', #266, 10.00000000000000000 ) ;
#68 = VECTOR ( 'NONE', #140, 1000.000000000000000 ) ;
#69 = ORIENTED_EDGE ( 'NONE', *, *, #165, .T. ) ;
#70 = AXIS2_PLACEMENT_3D ( 'NONE', #101, #254, #46 ) ;
#71 = CYLINDRICAL_SURFACE ( 'NONE', #238, 10.00000000000000178 ) ;
#72 = DIRECTION ( 'NONE',  ( 0.000000000000000000, -0.000000000000000000, 1.000000000000000000 ) ) ;
#73 = ORIENTED_EDGE ( 'NONE', *, *, #181, .T. ) ;
#74 = AXIS2_PLACEMENT_3D ( 'NONE', #30, #139, #144 ) ;
#75 = SURFACE_SIDE_STYLE ('',( #271 ) ) ;
#76 = CIRCLE ( 'NONE', #245, 10.00000000000000000 ) ;
#77 = EDGE_CURVE ( 'NONE', #269, #114, #205, .T. ) ;
#78 = UNCERTAINTY_MEASURE_WITH_UNIT (LENGTH_MEASURE( 1.000000000000000082E-05 ), #52, 'distance_accuracy_value', 'NONE');
#79 = CARTESIAN_POINT ( 'NONE',  ( 1.224646799147353256E-15, 0.000000000000000000, 10.00000000000000000 ) ) ;
#80 = VECTOR ( 'NONE', #186, 1000.000000000000000 ) ;
#81 = DIRECTION ( 'NONE',  ( -1.000000000000000000, 0.000000000000000000, 0.000000000000000000 ) ) ;
#82 =( LENGTH_UNIT ( ) NAMED_UNIT ( * ) SI_UNIT ( .MILLI., .METRE. ) );
#83 = CARTESIAN_POINT ( 'NONE',  ( 0.000000000000000000, 0.000000000000000000, 0.000000000000000000 ) ) ;
#84 = DIRECTION ( 'NONE',  ( -1.000000000000000000, 0.000000000000000000, 0.000000000000000000 ) ) ;
#85 = DIRECTION ( 'NONE',  ( 0.000000000000000000, 0.000000000000000000, -1.000000000000000000 ) ) ;
#86 =( GEOMETRIC_REPRESENTATION_CONTEXT ( 3 ) GLOBAL_UNCERTAINTY_ASSIGNED_CONTEXT ( ( #28 ) ) GLOBAL_UNIT_ASSIGNED_CONTEXT ( ( #60, #276, #231 ) ) REPRESENTATION_CONTEXT ( 'NONE', 'WORKASPACE' ) );
#87 = FACE_OUTER_BOUND ( 'NONE', #138, .T. ) ;
#88 = SURFACE_STYLE_USAGE ( .BOTH. , #241 ) ;
#89 = DIRECTION ( 'NONE',  ( -1.000000000000000000, 0.000000000000000000, 0.000000000000000000 ) ) ;
#90 = CARTESIAN_POINT ( 'NONE',  ( 0.000000000000000000, 0.000000000000000000, 0.000000000000000000 ) ) ;
#91 = CLOSED_SHELL ( 'NONE', ( #21, #92, #130, #243 ) ) ;
#92 = ADVANCED_FACE ( 'NONE', ( #274 ), #225, .T. ) ;
#93 = ORIENTED_EDGE ( 'NONE', *, *, #218, .T. ) ;
#94 = EDGE_LOOP ( 'NONE', ( #50, #99, #244, #7 ) ) ;
#95 = FACE_OUTER_BOUND ( 'NONE', #94, .T. ) ;
#96 = UNCERTAINTY_MEASURE_WITH_UNIT (LENGTH_MEASURE( 1.000000000000000082E-05 ), #19, 'distance_accuracy_value', 'NONE');
#97 = SURFACE_SIDE_STYLE ('',( #31 ) ) ;
#98 = SURFACE_SIDE_STYLE ('',( #146 ) ) ;
#99 = ORIENTED_EDGE ( 'NONE', *, *, #77, .T. ) ;
#100 = AXIS2_PLACEMENT_3D ( 'NONE', #280, #36, #13 ) ;
#101 = CARTESIAN_POINT ( 'NONE',  ( 0.000000000000000000, 40.00000000000000000, 0.000000000000000000 ) ) ;
#102 = SURFACE_STYLE_USAGE ( .BOTH. , #26 ) ;
#103 = MANIFOLD_SOLID_BREP ( 'Revolve - Tool Body (Straight Shanked)', #200 ) ;
#104 = DIRECTION ( 'NONE',  ( -0.000000000000000000, -1.000000000000000000, -0.000000000000000000 ) ) ;
#105 = VECTOR ( 'NONE', #8, 1000.000000000000000 ) ;
#106 = APPLICATION_CONTEXT ( 'automotive_design' ) ;
#107 = PLANE ( 'NONE',  #183 ) ;
#108 = CARTESIAN_POINT ( 'NONE',  ( 0.000000000000000000, 0.000000000000000000, 0.000000000000000000 ) ) ;
#109 = PRESENTATION_LAYER_ASSIGNMENT (  '', '', ( #230 ) ) ;
#110 =( NAMED_UNIT ( * ) SI_UNIT ( $, .STERADIAN. ) SOLID_ANGLE_UNIT ( ) );
#111 = VERTEX_POINT ( 'NONE', #252 ) ;
#112 = COLOUR_RGB ( '',1.000000000000000000, 0.000000000000000000, 0.000000000000000000 ) ;
#113 = EDGE_LOOP ( 'NONE', ( #184, #69, #93, #246 ) ) ;
#114 = VERTEX_POINT ( 'NONE', #9 ) ;
#115 = STYLED_ITEM ( 'NONE', ( #141 ), #21 ) ;
#116 = DIRECTION ( 'NONE',  ( -1.000000000000000000, 0.000000000000000000, 0.000000000000000000 ) ) ;
#117 = ORIENTED_EDGE ( 'NONE', *, *, #218, .F. ) ;
#118 = DIRECTION ( 'NONE',  ( -2.245185798436817151E-17, 1.000000000000000000, -0.000000000000000000 ) ) ;
#119 = CARTESIAN_POINT ( 'NONE',  ( 10.00000000000000000, 100.0000000000000000, 1.224646799147353454E-15 ) ) ;
#120 = COLOUR_RGB ( '',1.000000000000000000, 0.000000000000000000, 0.000000000000000000 ) ;
#121 =( NAMED_UNIT ( * ) SI_UNIT ( $, .STERADIAN. ) SOLID_ANGLE_UNIT ( ) );
#122 =( GEOMETRIC_REPRESENTATION_CONTEXT ( 3 ) GLOBAL_UNCERTAINTY_ASSIGNED_CONTEXT ( ( #255 ) ) GLOBAL_UNIT_ASSIGNED_CONTEXT ( ( #234, #10, #37 ) ) REPRESENTATION_CONTEXT ( 'NONE', 'WORKASPACE' ) );
#123 = DIRECTION ( 'NONE',  ( -2.245185798436817151E-17, 1.000000000000000000, -0.000000000000000000 ) ) ;
#124 = EDGE_CURVE ( 'NONE', #269, #285, #25, .T. ) ;
#125 = DIRECTION ( 'NONE',  ( -0.000000000000000000, -1.000000000000000000, -0.000000000000000000 ) ) ;
#126 = COLOUR_RGB ( '',0.7921568627450980005, 0.8196078431372548767, 0.9333333333333333481 ) ;
#127 =( NAMED_UNIT ( * ) PLANE_ANGLE_UNIT ( ) SI_UNIT ( $, .RADIAN. ) );
#128 = STYLED_ITEM ( 'NONE', ( #222 ), #130 ) ;
#129 = FILL_AREA_STYLE ('',( #174 ) ) ;
#130 = ADVANCED_FACE ( 'NONE', ( #247 ), #227, .T. ) ;
#131 = DIRECTION ( 'NONE',  ( -2.245185798436817151E-17, 1.000000000000000000, -0.000000000000000000 ) ) ;
#132 = ORIENTED_EDGE ( 'NONE', *, *, #5, .T. ) ;
#133 = SHAPE_DEFINITION_REPRESENTATION ( #214, #136 ) ;
#134 = PRESENTATION_STYLE_ASSIGNMENT (( #88 ) ) ;
#135 = CIRCLE ( 'NONE', #74, 10.00000000000000355 ) ;
#136 = ADVANCED_BREP_SHAPE_REPRESENTATION ( '59549', ( #283, #103, #189 ), #240 ) ;
#137 = CIRCLE ( 'NONE', #210, 10.00000000000000000 ) ;
#138 = EDGE_LOOP ( 'NONE', ( #73, #202, #162, #117 ) ) ;
#139 = DIRECTION ( 'NONE',  ( -2.245185798436817151E-17, 1.000000000000000000, -0.000000000000000000 ) ) ;
#140 = DIRECTION ( 'NONE',  ( -2.245185798436817151E-17, 1.000000000000000000, -0.000000000000000000 ) ) ;
#141 = PRESENTATION_STYLE_ASSIGNMENT (( #4 ) ) ;
#142 = CIRCLE ( 'NONE', #43, 10.00000000000000355 ) ;
#143 =( GEOMETRIC_REPRESENTATION_CONTEXT ( 3 ) GLOBAL_UNCERTAINTY_ASSIGNED_CONTEXT ( ( #159 ) ) GLOBAL_UNIT_ASSIGNED_CONTEXT ( ( #223, #188, #121 ) ) REPRESENTATION_CONTEXT ( 'NONE', 'WORKASPACE' ) );
#144 = DIRECTION ( 'NONE',  ( -1.000000000000000000, 0.000000000000000000, 0.000000000000000000 ) ) ;
#145 = EDGE_CURVE ( 'NONE', #285, #269, #137, .T. ) ;
#146 = SURFACE_STYLE_FILL_AREA ( #148 ) ;
#147 = UNCERTAINTY_MEASURE_WITH_UNIT (LENGTH_MEASURE( 1.000000000000000082E-05 ), #82, 'distance_accuracy_value', 'NONE');
#148 = FILL_AREA_STYLE ('',( #53 ) ) ;
#149 = AXIS2_PLACEMENT_3D ( 'NONE', #152, #281, #172 ) ;
#150 = PRESENTATION_STYLE_ASSIGNMENT (( #277 ) ) ;
#151 = PRODUCT_CONTEXT ( 'NONE', #180, 'mechanical' ) ;
#152 = CARTESIAN_POINT ( 'NONE',  ( 0.000000000000000000, 0.000000000000000000, 0.000000000000000000 ) ) ;
#153 = CYLINDRICAL_SURFACE ( 'NONE', #3, 10.00000000000000178 ) ;
#154 = CARTESIAN_POINT ( 'NONE',  ( 0.000000000000000000, 0.000000000000000000, 0.000000000000000000 ) ) ;
#155 = DIRECTION ( 'NONE',  ( 0.000000000000000000, 0.000000000000000000, -1.000000000000000000 ) ) ;
#156 = PRESENTATION_LAYER_ASSIGNMENT (  '', '', ( #115 ) ) ;
#157 = MECHANICAL_DESIGN_GEOMETRIC_PRESENTATION_REPRESENTATION (  '', ( #272 ), #122 ) ;
#158 = EDGE_LOOP ( 'NONE', ( #45, #18 ) ) ;
#159 = UNCERTAINTY_MEASURE_WITH_UNIT (LENGTH_MEASURE( 1.000000000000000082E-05 ), #223, 'distance_accuracy_value', 'NONE');
#160 = AXIS2_PLACEMENT_3D ( 'NONE', #108, #104, #213 ) ;
#161 = ORIENTED_EDGE ( 'NONE', *, *, #145, .F. ) ;
#162 = ORIENTED_EDGE ( 'NONE', *, *, #2, .F. ) ;
#163 = PRODUCT_DEFINITION_CONTEXT ( 'detailed design', #106, 'design' ) ;
#164 = FILL_AREA_STYLE_COLOUR ( '', #187 ) ;
#165 = EDGE_CURVE ( 'NONE', #111, #23, #67, .T. ) ;
#166 = ORIENTED_EDGE ( 'NONE', *, *, #270, .F. ) ;
#167 = SURFACE_STYLE_USAGE ( .BOTH. , #98 ) ;
#168 = COLOUR_RGB ( '',0.7921568627450980005, 0.8196078431372548767, 0.9333333333333333481 ) ;
#169 = FILL_AREA_STYLE ('',( #164 ) ) ;
#170 = FACE_OUTER_BOUND ( 'NONE', #158, .T. ) ;
#171 =( GEOMETRIC_REPRESENTATION_CONTEXT ( 3 ) GLOBAL_UNCERTAINTY_ASSIGNED_CONTEXT ( ( #96 ) ) GLOBAL_UNIT_ASSIGNED_CONTEXT ( ( #19, #127, #110 ) ) REPRESENTATION_CONTEXT ( 'NONE', 'WORKASPACE' ) );
#172 = DIRECTION ( 'NONE',  ( 0.000000000000000000, 0.000000000000000000, -1.000000000000000000 ) ) ;
#173 = DIRECTION ( 'NONE',  ( 0.000000000000000000, -1.000000000000000000, -0.000000000000000000 ) ) ;
#174 = FILL_AREA_STYLE_COLOUR ( '', #11 ) ;
#175 = SURFACE_STYLE_FILL_AREA ( #129 ) ;
#176 = DIRECTION ( 'NONE',  ( 1.000000000000000000, 0.000000000000000000, 0.000000000000000000 ) ) ;
#177 = CARTESIAN_POINT ( 'NONE',  ( 1.224646799147353256E-15, 40.00000000000000000, 10.00000000000000000 ) ) ;
#178 = APPLICATION_PROTOCOL_DEFINITION ( 'draft international standard', 'automotive_design', 1998, #180 ) ;
#179 = PRESENTATION_LAYER_ASSIGNMENT (  '', '', ( #272 ) ) ;
#180 = APPLICATION_CONTEXT ( 'automotive_design' ) ;
#181 = EDGE_CURVE ( 'NONE', #23, #111, #76, .T. ) ;
#182 = VERTEX_POINT ( 'NONE', #192 ) ;
#183 = AXIS2_PLACEMENT_3D ( 'NONE', #83, #173, #63 ) ;
#184 = ORIENTED_EDGE ( 'NONE', *, *, #58, .F. ) ;
#185 =( NAMED_UNIT ( * ) SI_UNIT ( $, .STERADIAN. ) SOLID_ANGLE_UNIT ( ) );
#186 = DIRECTION ( 'NONE',  ( -0.000000000000000000, -1.000000000000000000, -0.000000000000000000 ) ) ;
#187 = COLOUR_RGB ( '',1.000000000000000000, 0.000000000000000000, 0.000000000000000000 ) ;
#188 =( NAMED_UNIT ( * ) PLANE_ANGLE_UNIT ( ) SI_UNIT ( $, .RADIAN. ) );
#189 = AXIS2_PLACEMENT_3D ( 'NONE', #90, #196, #176 ) ;
#190 =( LENGTH_UNIT ( ) NAMED_UNIT ( * ) SI_UNIT ( .MILLI., .METRE. ) );
#191 = SURFACE_STYLE_USAGE ( .BOTH. , #97 ) ;
#192 = CARTESIAN_POINT ( 'NONE',  ( -10.00000000000000533, 100.0000000000000000, 0.000000000000000000 ) ) ;
#193 = PRODUCT_DEFINITION ( 'UNKNOWN', '', #62, #163 ) ;
#194 = CARTESIAN_POINT ( 'NONE',  ( 1.925929944387235853E-31, 40.00000000000000000, 0.000000000000000000 ) ) ;
#195 = APPLICATION_PROTOCOL_DEFINITION ( 'draft international standard', 'automotive_design', 1998, #106 ) ;
#196 = DIRECTION ( 'NONE',  ( 0.000000000000000000, 0.000000000000000000, 1.000000000000000000 ) ) ;
#197 = DIRECTION ( 'NONE',  ( -2.245185798436817151E-17, 1.000000000000000000, -0.000000000000000000 ) ) ;
#198 = CIRCLE ( 'NONE', #33, 10.00000000000000000 ) ;
#199 = DIRECTION ( 'NONE',  ( 0.000000000000000000, 0.000000000000000000, -1.000000000000000000 ) ) ;
#200 = CLOSED_SHELL ( 'NONE', ( #259, #209, #20, #275 ) ) ;
#201 = CYLINDRICAL_SURFACE ( 'NONE', #32, 10.00000000000000000 ) ;
#202 = ORIENTED_EDGE ( 'NONE', *, *, #58, .T. ) ;
#203 = FILL_AREA_STYLE_COLOUR ( '', #120 ) ;
#204 = EDGE_CURVE ( 'NONE', #24, #114, #216, .T. ) ;
#205 = LINE ( 'NONE', #79, #105 ) ;
#206 = DIRECTION ( 'NONE',  ( -1.000000000000000000, 0.000000000000000000, 0.000000000000000000 ) ) ;
#207 = CARTESIAN_POINT ( 'NONE',  ( 0.000000000000000000, 40.00000000000000000, 0.000000000000000000 ) ) ;
#208 = DIRECTION ( 'NONE',  ( -2.245185798436817151E-17, 1.000000000000000000, 0.000000000000000000 ) ) ;
#209 = ADVANCED_FACE ( 'NONE', ( #170 ), #236, .F. ) ;
#210 = AXIS2_PLACEMENT_3D ( 'NONE', #278, #125, #199 ) ;
#211 = CARTESIAN_POINT ( 'NONE',  ( 0.000000000000000000, 40.00000000000000000, -10.00000000000000000 ) ) ;
#212 = FACE_OUTER_BOUND ( 'NONE', #265, .T. ) ;
#213 = DIRECTION ( 'NONE',  ( 0.000000000000000000, 0.000000000000000000, -1.000000000000000000 ) ) ;
#214 = PRODUCT_DEFINITION_SHAPE ( 'NONE', 'NONE',  #193 ) ;
#215 = ORIENTED_EDGE ( 'NONE', *, *, #2, .T. ) ;
#216 = CIRCLE ( 'NONE', #149, 10.00000000000000000 ) ;
#217 = PLANE ( 'NONE',  #100 ) ;
#218 = EDGE_CURVE ( 'NONE', #23, #182, #14, .T. ) ;
#219 = PRESENTATION_LAYER_ASSIGNMENT (  '', '', ( #284 ) ) ;
#220 = ORIENTED_EDGE ( 'NONE', *, *, #77, .F. ) ;
#221 = FACE_OUTER_BOUND ( 'NONE', #113, .T. ) ;
#222 = PRESENTATION_STYLE_ASSIGNMENT (( #167 ) ) ;
#223 =( LENGTH_UNIT ( ) NAMED_UNIT ( * ) SI_UNIT ( .MILLI., .METRE. ) );
#224 = LINE ( 'NONE', #250, #80 ) ;
#225 = PLANE ( 'NONE',  #251 ) ;
#226 = ORIENTED_EDGE ( 'NONE', *, *, #124, .T. ) ;
#227 = CYLINDRICAL_SURFACE ( 'NONE', #160, 10.00000000000000000 ) ;
#228 = PRESENTATION_LAYER_ASSIGNMENT (  '', '', ( #61 ) ) ;
#229 = LINE ( 'NONE', #119, #68 ) ;
#230 = STYLED_ITEM ( 'NONE', ( #134 ), #283 ) ;
#231 =( NAMED_UNIT ( * ) SI_UNIT ( $, .STERADIAN. ) SOLID_ANGLE_UNIT ( ) );
#232 = DIRECTION ( 'NONE',  ( -1.000000000000000000, -2.245185798436817151E-17, 0.000000000000000000 ) ) ;
#233 = FILL_AREA_STYLE ('',( #64 ) ) ;
#234 =( LENGTH_UNIT ( ) NAMED_UNIT ( * ) SI_UNIT ( .MILLI., .METRE. ) );
#235 = AXIS2_PLACEMENT_3D ( 'NONE', #258, #208, #232 ) ;
#236 = PLANE ( 'NONE',  #235 ) ;
#237 = SURFACE_STYLE_FILL_AREA ( #233 ) ;
#238 = AXIS2_PLACEMENT_3D ( 'NONE', #248, #118, #206 ) ;
#239 = FACE_OUTER_BOUND ( 'NONE', #1, .T. ) ;
#240 =( GEOMETRIC_REPRESENTATION_CONTEXT ( 3 ) GLOBAL_UNCERTAINTY_ASSIGNED_CONTEXT ( ( #147 ) ) GLOBAL_UNIT_ASSIGNED_CONTEXT ( ( #82, #40, #59 ) ) REPRESENTATION_CONTEXT ( 'NONE', 'WORKASPACE' ) );
#241 = SURFACE_SIDE_STYLE ('',( #237 ) ) ;
#242 = ORIENTED_EDGE ( 'NONE', *, *, #124, .F. ) ;
#243 = ADVANCED_FACE ( 'NONE', ( #212 ), #107, .T. ) ;
#244 = ORIENTED_EDGE ( 'NONE', *, *, #204, .F. ) ;
#245 = AXIS2_PLACEMENT_3D ( 'NONE', #16, #123, #81 ) ;
#246 = ORIENTED_EDGE ( 'NONE', *, *, #42, .F. ) ;
#247 = FACE_OUTER_BOUND ( 'NONE', #44, .T. ) ;
#248 = CARTESIAN_POINT ( 'NONE',  ( -1.347111479062090180E-15, 100.0000000000000000, 0.000000000000000000 ) ) ;
#249 = FILL_AREA_STYLE ('',( #35 ) ) ;
#250 = CARTESIAN_POINT ( 'NONE',  ( 0.000000000000000000, 0.000000000000000000, -10.00000000000000000 ) ) ;
#251 = AXIS2_PLACEMENT_3D ( 'NONE', #207, #268, #72 ) ;
#252 = CARTESIAN_POINT ( 'NONE',  ( 10.00000000000000000, 40.00000000000000000, 1.224646799147353454E-15 ) ) ;
#253 =( NAMED_UNIT ( * ) PLANE_ANGLE_UNIT ( ) SI_UNIT ( $, .RADIAN. ) );
#254 = DIRECTION ( 'NONE',  ( -0.000000000000000000, -1.000000000000000000, -0.000000000000000000 ) ) ;
#255 = UNCERTAINTY_MEASURE_WITH_UNIT (LENGTH_MEASURE( 1.000000000000000082E-05 ), #234, 'distance_accuracy_value', 'NONE');
#256 = PRESENTATION_STYLE_ASSIGNMENT (( #191 ) ) ;
#257 = DIRECTION ( 'NONE',  ( -2.245185798436817151E-17, 1.000000000000000000, -0.000000000000000000 ) ) ;
#258 = CARTESIAN_POINT ( 'NONE',  ( 2.520429634751184325E-33, 40.00000000000000000, 0.000000000000000000 ) ) ;
#259 = ADVANCED_FACE ( 'NONE', ( #87 ), #153, .T. ) ;
#260 = MECHANICAL_DESIGN_GEOMETRIC_PRESENTATION_REPRESENTATION (  '', ( #284 ), #143 ) ;
#261 = PRODUCT_RELATED_PRODUCT_CATEGORY ( 'part', '', ( #282 ) ) ;
#262 = CARTESIAN_POINT ( 'NONE',  ( 0.000000000000000000, 0.000000000000000000, 0.000000000000000000 ) ) ;
#263 =( GEOMETRIC_REPRESENTATION_CONTEXT ( 3 ) GLOBAL_UNCERTAINTY_ASSIGNED_CONTEXT ( ( #78 ) ) GLOBAL_UNIT_ASSIGNED_CONTEXT ( ( #52, #253, #288 ) ) REPRESENTATION_CONTEXT ( 'NONE', 'WORKASPACE' ) );
#264 = ORIENTED_EDGE ( 'NONE', *, *, #204, .T. ) ;
#265 = EDGE_LOOP ( 'NONE', ( #264, #39 ) ) ;
#266 = AXIS2_PLACEMENT_3D ( 'NONE', #194, #197, #84 ) ;
#267 = EDGE_LOOP ( 'NONE', ( #161, #242 ) ) ;
#268 = DIRECTION ( 'NONE',  ( 0.000000000000000000, 1.000000000000000000, 0.000000000000000000 ) ) ;
#269 = VERTEX_POINT ( 'NONE', #177 ) ;
#270 = EDGE_CURVE ( 'NONE', #114, #24, #198, .T. ) ;
#271 = SURFACE_STYLE_FILL_AREA ( #47 ) ;
#272 = STYLED_ITEM ( 'NONE', ( #150 ), #243 ) ;
#273 = CARTESIAN_POINT ( 'NONE',  ( 0.000000000000000000, 0.000000000000000000, -10.00000000000000000 ) ) ;
#274 = FACE_OUTER_BOUND ( 'NONE', #267, .T. ) ;
#275 = ADVANCED_FACE ( 'NONE', ( #239 ), #217, .F. ) ;
#276 =( NAMED_UNIT ( * ) PLANE_ANGLE_UNIT ( ) SI_UNIT ( $, .RADIAN. ) );
#277 = SURFACE_STYLE_USAGE ( .BOTH. , #56 ) ;
#278 = CARTESIAN_POINT ( 'NONE',  ( 0.000000000000000000, 40.00000000000000000, 0.000000000000000000 ) ) ;
#279 = VECTOR ( 'NONE', #257, 1000.000000000000000 ) ;
#280 = CARTESIAN_POINT ( 'NONE',  ( 10.00000000000000178, 100.0000000000000000, 0.000000000000000000 ) ) ;
#281 = DIRECTION ( 'NONE',  ( -0.000000000000000000, -1.000000000000000000, -0.000000000000000000 ) ) ;
#282 = PRODUCT ( '59549', '59549', '', ( #151 ) ) ;
#283 = MANIFOLD_SOLID_BREP ( 'Revolve - Cutting Edge', #91 ) ;
#284 = STYLED_ITEM ( 'NONE', ( #49 ), #103 ) ;
#285 = VERTEX_POINT ( 'NONE', #211 ) ;
#286 = MECHANICAL_DESIGN_GEOMETRIC_PRESENTATION_REPRESENTATION (  '', ( #128 ), #86 ) ;
#287 = CARTESIAN_POINT ( 'NONE',  ( -10.00000000000000000, 40.00000000000000000, 0.000000000000000000 ) ) ;
#288 =( NAMED_UNIT ( * ) SI_UNIT ( $, .STERADIAN. ) SOLID_ANGLE_UNIT ( ) );
ENDSEC;
END-ISO-10303-21;
