ISO-10303-21;
HEADER;
FILE_DESCRIPTION (( 'STEP AP214' ),
    '1' );
FILE_NAME ('Micro_RME-019-2X.STEP',
    '2021-09-01T22:43:48',
    ( '' ),
    ( '' ),
    'SwSTEP 2.0',
    'SolidWorks 2020',
    '' );
FILE_SCHEMA (( 'AUTOMOTIVE_DESIGN' ));
ENDSEC;

DATA;
#1 = EDGE_CURVE ( 'NONE', #87, #2, #139, .T. ) ;
#2 = VERTEX_POINT ( 'NONE', #94 ) ;
#3 = CARTESIAN_POINT ( 'NONE',  ( 0.04750000000000064587, 5.817072295950006528E-18, 1.500000000000000222 ) ) ;
#4 = DIRECTION ( 'NONE',  ( 0.0000000000000000000, 0.0000000000000000000, 1.000000000000000000 ) ) ;
#5 = APPLICATION_CONTEXT ( 'automotive_design' ) ;
#6 = ORIENTED_EDGE ( 'NONE', *, *, #119, .T. ) ;
#7 = ADVANCED_BREP_SHAPE_REPRESENTATION ( 'Micro_RME-019-2X', ( #289, #114 ), #255 ) ;
#8 = LINE ( 'NONE', #32, #68 ) ;
#9 = DIRECTION ( 'NONE',  ( -1.224646799147353454E-16, -0.0000000000000000000, -1.000000000000000000 ) ) ;
#10 = VECTOR ( 'NONE', #259, 39.37007874015748854 ) ;
#11 = DIRECTION ( 'NONE',  ( -0.7071067811865462405, 0.0000000000000000000, -0.7071067811865486830 ) ) ;
#12 = PRODUCT_DEFINITION_SHAPE ( 'NONE', 'NONE',  #175 ) ;
#13 = DIRECTION ( 'NONE',  ( 0.0000000000000000000, 0.0000000000000000000, -1.000000000000000000 ) ) ;
#14 = SHAPE_DEFINITION_REPRESENTATION ( #12, #7 ) ;
#15 = DIRECTION ( 'NONE',  ( -1.224646799147353454E-16, -0.0000000000000000000, -1.000000000000000000 ) ) ;
#16 = DIMENSIONAL_EXPONENTS ( 1.000000000000000000, 0.0000000000000000000, 0.0000000000000000000, 0.0000000000000000000, 0.0000000000000000000, 0.0000000000000000000, 0.0000000000000000000 ) ;
#17 =( NAMED_UNIT ( * ) SI_UNIT ( $, .STERADIAN. ) SOLID_ANGLE_UNIT ( ) );
#18 = FACE_OUTER_BOUND ( 'NONE', #181, .T. ) ;
#19 = ORIENTED_EDGE ( 'NONE', *, *, #40, .F. ) ;
#20 = FILL_AREA_STYLE_COLOUR ( '', #165 ) ;
#21 = ADVANCED_FACE ( 'NONE', ( #163 ), #276, .T. ) ;
#22 = AXIS2_PLACEMENT_3D ( 'NONE', #203, #271, #45 ) ;
#23 = UNCERTAINTY_MEASURE_WITH_UNIT (LENGTH_MEASURE( 1.000000000000000082E-05 ), #149, 'distance_accuracy_value', 'NONE');
#24 = ORIENTED_EDGE ( 'NONE', *, *, #253, .F. ) ;
#25 = AXIS2_PLACEMENT_3D ( 'NONE', #212, #4, #56 ) ;
#26 = DIRECTION ( 'NONE',  ( 1.000000000000000000, 0.0000000000000000000, 0.0000000000000000000 ) ) ;
#27 = ORIENTED_EDGE ( 'NONE', *, *, #151, .T. ) ;
#28 = EDGE_CURVE ( 'NONE', #2, #87, #44, .T. ) ;
#29 = ORIENTED_EDGE ( 'NONE', *, *, #50, .T. ) ;
#30 = LINE ( 'NONE', #121, #227 ) ;
#31 = CARTESIAN_POINT ( 'NONE',  ( 0.0000000000000000000, 0.0000000000000000000, 1.500000000000000222 ) ) ;
#32 = CARTESIAN_POINT ( 'NONE',  ( -0.04750000000000064587, 0.0000000000000000000, 1.500000000000000222 ) ) ;
#33 = PRESENTATION_STYLE_ASSIGNMENT (( #37 ) ) ;
#34 = CARTESIAN_POINT ( 'NONE',  ( 0.0000000000000000000, 0.0000000000000000000, 1.500000000000000222 ) ) ;
#35 = AXIS2_PLACEMENT_3D ( 'NONE', #86, #105, #83 ) ;
#36 = VECTOR ( 'NONE', #269, 39.37007874015748143 ) ;
#37 = SURFACE_STYLE_USAGE ( .BOTH. , #200 ) ;
#38 = CYLINDRICAL_SURFACE ( 'NONE', #126, 0.009490500000000000672 ) ;
#39 = PRODUCT_CONTEXT ( 'NONE', #5, 'mechanical' ) ;
#40 = EDGE_CURVE ( 'NONE', #70, #138, #30, .T. ) ;
#41 = DIRECTION ( 'NONE',  ( -1.000000000000000000, 0.0000000000000000000, 0.0000000000000000000 ) ) ;
#42 = STYLED_ITEM ( 'NONE', ( #33 ), #7 ) ;
#43 = AXIS2_PLACEMENT_3D ( 'NONE', #130, #109, #296 ) ;
#44 = CIRCLE ( 'NONE', #100, 0.04750000000000064587 ) ;
#45 = DIRECTION ( 'NONE',  ( -1.000000000000000000, 0.0000000000000000000, 1.224646799147353207E-16 ) ) ;
#46 = DIRECTION ( 'NONE',  ( -1.224646799147353454E-16, -0.0000000000000000000, -1.000000000000000000 ) ) ;
#47 = EDGE_CURVE ( 'NONE', #117, #70, #93, .T. ) ;
#48 = ORIENTED_EDGE ( 'NONE', *, *, #66, .F. ) ;
#49 = AXIS2_PLACEMENT_3D ( 'NONE', #241, #191, #168 ) ;
#50 = EDGE_CURVE ( 'NONE', #2, #117, #254, .T. ) ;
#51 = ORIENTED_EDGE ( 'NONE', *, *, #288, .F. ) ;
#52 = DIRECTION ( 'NONE',  ( 1.000000000000000000, 0.0000000000000000000, 0.0000000000000000000 ) ) ;
#53 = AXIS2_PLACEMENT_3D ( 'NONE', #98, #264, #61 ) ;
#54 = ORIENTED_EDGE ( 'NONE', *, *, #47, .F. ) ;
#55 = EDGE_LOOP ( 'NONE', ( #233, #29, #92, #275 ) ) ;
#56 = DIRECTION ( 'NONE',  ( 1.000000000000000000, 0.0000000000000000000, 0.0000000000000000000 ) ) ;
#57 = CARTESIAN_POINT ( 'NONE',  ( 0.06250000000000002776, 7.654042494670959086E-18, 1.485000000000000764 ) ) ;
#58 = DIRECTION ( 'NONE',  ( -1.224646799147353454E-16, -0.0000000000000000000, -1.000000000000000000 ) ) ;
#59 = CARTESIAN_POINT ( 'NONE',  ( 6.980486755139914772E-18, 0.0000000000000000000, 0.05700000000000000205 ) ) ;
#60 = DIRECTION ( 'NONE',  ( 1.000000000000000000, 0.0000000000000000000, 0.0000000000000000000 ) ) ;
#61 = DIRECTION ( 'NONE',  ( -1.000000000000000000, 0.0000000000000000000, 0.0000000000000000000 ) ) ;
#62 =( LENGTH_UNIT ( ) NAMED_UNIT ( * ) SI_UNIT ( $, .METRE. ) );
#63 = DIRECTION ( 'NONE',  ( 1.000000000000000000, 0.0000000000000000000, 0.0000000000000000000 ) ) ;
#64 = FILL_AREA_STYLE ('',( #193 ) ) ;
#65 =( NAMED_UNIT ( * ) PLANE_ANGLE_UNIT ( ) SI_UNIT ( $, .RADIAN. ) );
#66 = EDGE_CURVE ( 'NONE', #167, #142, #218, .T. ) ;
#67 = SURFACE_SIDE_STYLE ('',( #177 ) ) ;
#68 = VECTOR ( 'NONE', #11, 39.37007874015748854 ) ;
#69 = EDGE_LOOP ( 'NONE', ( #279, #71, #27, #54 ) ) ;
#70 = VERTEX_POINT ( 'NONE', #221 ) ;
#71 = ORIENTED_EDGE ( 'NONE', *, *, #1, .F. ) ;
#72 = ORIENTED_EDGE ( 'NONE', *, *, #116, .F. ) ;
#73 = LINE ( 'NONE', #122, #205 ) ;
#74 = DIRECTION ( 'NONE',  ( -0.1736481776669311916, 2.126576849575783316E-17, 0.9848077530122080203 ) ) ;
#75 = AXIS2_PLACEMENT_3D ( 'NONE', #160, #277, #52 ) ;
#76 =( NAMED_UNIT ( * ) PLANE_ANGLE_UNIT ( ) SI_UNIT ( $, .RADIAN. ) );
#77 = PLANE ( 'NONE',  #183 ) ;
#78 = CARTESIAN_POINT ( 'NONE',  ( 0.009490500000000007610, 0.0000000000000000000, 0.05700000000000000205 ) ) ;
#79 =( NAMED_UNIT ( * ) SI_UNIT ( $, .STERADIAN. ) SOLID_ANGLE_UNIT ( ) );
#80 = CYLINDRICAL_SURFACE ( 'NONE', #49, 0.009490500000000000672 ) ;
#81 = CARTESIAN_POINT ( 'NONE',  ( 6.980486755139914772E-18, 0.0000000000000000000, 0.05700000000000000205 ) ) ;
#82 =( CONVERSION_BASED_UNIT ( 'INCH', #242 ) LENGTH_UNIT ( ) NAMED_UNIT ( #16 ) );
#83 = DIRECTION ( 'NONE',  ( 1.000000000000000000, 0.0000000000000000000, 0.0000000000000000000 ) ) ;
#84 = ADVANCED_FACE ( 'NONE', ( #199 ), #80, .T. ) ;
#85 = CARTESIAN_POINT ( 'NONE',  ( 0.06250000000000002776, 7.654042494670959086E-18, 1.500000000000000222 ) ) ;
#86 = CARTESIAN_POINT ( 'NONE',  ( 6.980486755139914772E-18, 0.0000000000000000000, 0.05700000000000000205 ) ) ;
#87 = VERTEX_POINT ( 'NONE', #291 ) ;
#88 = STYLED_ITEM ( 'NONE', ( #157 ), #289 ) ;
#89 = VECTOR ( 'NONE', #74, 39.37007874015747433 ) ;
#90 = ORIENTED_EDGE ( 'NONE', *, *, #40, .T. ) ;
#91 = ORIENTED_EDGE ( 'NONE', *, *, #228, .F. ) ;
#92 = ORIENTED_EDGE ( 'NONE', *, *, #119, .F. ) ;
#93 = CIRCLE ( 'NONE', #75, 0.06250000000000002776 ) ;
#94 = CARTESIAN_POINT ( 'NONE',  ( 0.04750000000000064587, 6.735557395310483192E-18, 1.500000000000000222 ) ) ;
#95 = APPLICATION_CONTEXT ( 'automotive_design' ) ;
#96 = DIRECTION ( 'NONE',  ( -0.0000000000000000000, -0.0000000000000000000, -1.000000000000000000 ) ) ;
#97 = ADVANCED_FACE ( 'NONE', ( #150 ), #77, .T. ) ;
#98 = CARTESIAN_POINT ( 'NONE',  ( 0.0000000000000000000, 0.0000000000000000000, 1.500000000000000222 ) ) ;
#99 = DIRECTION ( 'NONE',  ( -1.000000000000000000, 0.0000000000000000000, 1.224646799147353454E-16 ) ) ;
#100 = AXIS2_PLACEMENT_3D ( 'NONE', #234, #232, #26 ) ;
#101 = CARTESIAN_POINT ( 'NONE',  ( 0.0000000000000000000, 0.0000000000000000000, 1.500000000000000222 ) ) ;
#102 = DIMENSIONAL_EXPONENTS ( 1.000000000000000000, 0.0000000000000000000, 0.0000000000000000000, 0.0000000000000000000, 0.0000000000000000000, 0.0000000000000000000, 0.0000000000000000000 ) ;
#103 = CYLINDRICAL_SURFACE ( 'NONE', #236, 0.06250000000000002776 ) ;
#104 = CYLINDRICAL_SURFACE ( 'NONE', #272, 0.06250000000000002776 ) ;
#105 = DIRECTION ( 'NONE',  ( 1.224646799147353454E-16, 0.0000000000000000000, 1.000000000000000000 ) ) ;
#106 = ORIENTED_EDGE ( 'NONE', *, *, #116, .T. ) ;
#107 = ADVANCED_FACE ( 'NONE', ( #261 ), #104, .T. ) ;
#108 = SURFACE_STYLE_USAGE ( .BOTH. , #67 ) ;
#109 = DIRECTION ( 'NONE',  ( -1.224646799147353454E-16, -0.0000000000000000000, -1.000000000000000000 ) ) ;
#110 = ORIENTED_EDGE ( 'NONE', *, *, #246, .T. ) ;
#111 = UNCERTAINTY_MEASURE_WITH_UNIT (LENGTH_MEASURE( 1.000000000000000082E-05 ), #132, 'distance_accuracy_value', 'NONE');
#112 = EDGE_LOOP ( 'NONE', ( #51, #184, #110, #24 ) ) ;
#113 = CONICAL_SURFACE ( 'NONE', #285, 0.04750000000000064587, 0.7853981633974466137 ) ;
#114 = AXIS2_PLACEMENT_3D ( 'NONE', #171, #262, #60 ) ;
#115 = VERTEX_POINT ( 'NONE', #146 ) ;
#116 = EDGE_CURVE ( 'NONE', #115, #138, #120, .T. ) ;
#117 = VERTEX_POINT ( 'NONE', #57 ) ;
#118 = ORIENTED_EDGE ( 'NONE', *, *, #250, .T. ) ;
#119 = EDGE_CURVE ( 'NONE', #70, #117, #179, .T. ) ;
#120 = CIRCLE ( 'NONE', #292, 0.06250000000000002776 ) ;
#121 = CARTESIAN_POINT ( 'NONE',  ( -0.06250000000000002776, 0.0000000000000000000, 1.500000000000000222 ) ) ;
#122 = CARTESIAN_POINT ( 'NONE',  ( 0.009490500000000007610, 0.0000000000000000000, 0.05700000000000000205 ) ) ;
#123 = FACE_OUTER_BOUND ( 'NONE', #69, .T. ) ;
#124 = COLOUR_RGB ( '',0.7921568627450980005, 0.8196078431372548767, 0.9333333333333333481 ) ;
#125 = DIRECTION ( 'NONE',  ( -0.0000000000000000000, -0.0000000000000000000, -1.000000000000000000 ) ) ;
#126 = AXIS2_PLACEMENT_3D ( 'NONE', #216, #9, #99 ) ;
#127 = ADVANCED_FACE ( 'NONE', ( #195 ), #103, .T. ) ;
#128 = PRODUCT ( 'Micro_RME-019-2X', 'Micro_RME-019-2X', '', ( #39 ) ) ;
#129 = FACE_OUTER_BOUND ( 'NONE', #55, .T. ) ;
#130 = CARTESIAN_POINT ( 'NONE',  ( 4.379726558193507593E-17, 0.0000000000000000000, 0.3576318136170235085 ) ) ;
#131 = APPLICATION_PROTOCOL_DEFINITION ( 'draft international standard', 'automotive_design', 1998, #5 ) ;
#132 =( CONVERSION_BASED_UNIT ( 'INCH', #134 ) LENGTH_UNIT ( ) NAMED_UNIT ( #102 ) );
#133 = AXIS2_PLACEMENT_3D ( 'NONE', #174, #267, #63 ) ;
#134 = LENGTH_MEASURE_WITH_UNIT ( LENGTH_MEASURE( 0.02539999999999999897 ), #202 );
#135 = EDGE_CURVE ( 'NONE', #142, #115, #73, .T. ) ;
#136 = LINE ( 'NONE', #297, #36 ) ;
#137 = ORIENTED_EDGE ( 'NONE', *, *, #159, .T. ) ;
#138 = VERTEX_POINT ( 'NONE', #215 ) ;
#139 = CIRCLE ( 'NONE', #25, 0.04750000000000064587 ) ;
#140 = AXIS2_PLACEMENT_3D ( 'NONE', #263, #219, #244 ) ;
#141 = VERTEX_POINT ( 'NONE', #290 ) ;
#142 = VERTEX_POINT ( 'NONE', #78 ) ;
#143 = PRODUCT_RELATED_PRODUCT_CATEGORY ( 'part', '', ( #128 ) ) ;
#144 = CARTESIAN_POINT ( 'NONE',  ( 6.980486755139914772E-18, 0.0000000000000000000, 0.05700000000000000205 ) ) ;
#145 = MECHANICAL_DESIGN_GEOMETRIC_PRESENTATION_REPRESENTATION (  '', ( #88 ), #209 ) ;
#146 = CARTESIAN_POINT ( 'NONE',  ( 0.06250000000000006939, 7.654042494670963708E-18, 0.3576318136170235085 ) ) ;
#147 =( LENGTH_UNIT ( ) NAMED_UNIT ( * ) SI_UNIT ( $, .METRE. ) );
#148 = DIRECTION ( 'NONE',  ( -1.000000000000000000, 0.0000000000000000000, 0.0000000000000000000 ) ) ;
#149 =( CONVERSION_BASED_UNIT ( 'INCH', #176 ) LENGTH_UNIT ( ) NAMED_UNIT ( #245 ) );
#150 = FACE_OUTER_BOUND ( 'NONE', #186, .T. ) ;
#151 = EDGE_CURVE ( 'NONE', #87, #70, #8, .T. ) ;
#152 = VECTOR ( 'NONE', #46, 39.37007874015748143 ) ;
#153 = CARTESIAN_POINT ( 'NONE',  ( -0.009490499999999993733, 1.162251044730795519E-18, 0.05700000000000000205 ) ) ;
#154 = DIRECTION ( 'NONE',  ( 0.0000000000000000000, 0.0000000000000000000, 1.000000000000000000 ) ) ;
#155 = DIRECTION ( 'NONE',  ( -1.224646799147353454E-16, -0.0000000000000000000, -1.000000000000000000 ) ) ;
#156 = CIRCLE ( 'NONE', #298, 0.009490500000000000672 ) ;
#157 = PRESENTATION_STYLE_ASSIGNMENT (( #108 ) ) ;
#158 =( NAMED_UNIT ( * ) SI_UNIT ( $, .STERADIAN. ) SOLID_ANGLE_UNIT ( ) );
#159 = EDGE_CURVE ( 'NONE', #141, #281, #210, .T. ) ;
#160 = CARTESIAN_POINT ( 'NONE',  ( 0.0000000000000000000, 0.0000000000000000000, 1.485000000000000764 ) ) ;
#161 = ADVANCED_FACE ( 'NONE', ( #123 ), #223, .T. ) ;
#162 = PRODUCT_DEFINITION_CONTEXT ( 'detailed design', #95, 'design' ) ;
#163 = FACE_OUTER_BOUND ( 'NONE', #189, .T. ) ;
#164 = ORIENTED_EDGE ( 'NONE', *, *, #28, .T. ) ;
#165 = COLOUR_RGB ( '',0.7921568627450980005, 0.8196078431372548767, 0.9333333333333333481 ) ;
#166 = ORIENTED_EDGE ( 'NONE', *, *, #182, .F. ) ;
#167 = VERTEX_POINT ( 'NONE', #220 ) ;
#168 = DIRECTION ( 'NONE',  ( -1.000000000000000000, 0.0000000000000000000, 1.224646799147353454E-16 ) ) ;
#169 = CIRCLE ( 'NONE', #43, 0.06250000000000002776 ) ;
#170 = DIRECTION ( 'NONE',  ( -0.0000000000000000000, -0.0000000000000000000, -1.000000000000000000 ) ) ;
#171 = CARTESIAN_POINT ( 'NONE',  ( 0.0000000000000000000, 0.0000000000000000000, 0.0000000000000000000 ) ) ;
#172 = CARTESIAN_POINT ( 'NONE',  ( 4.379726558193507593E-17, 0.0000000000000000000, 0.3576318136170235085 ) ) ;
#173 = DIRECTION ( 'NONE',  ( 1.000000000000000000, 0.0000000000000000000, -0.0000000000000000000 ) ) ;
#174 = CARTESIAN_POINT ( 'NONE',  ( 0.0000000000000000000, 0.0000000000000000000, 1.485000000000000764 ) ) ;
#175 = PRODUCT_DEFINITION ( 'UNKNOWN', '', #274, #162 ) ;
#176 = LENGTH_MEASURE_WITH_UNIT ( LENGTH_MEASURE( 0.02539999999999999897 ), #62 );
#177 = SURFACE_STYLE_FILL_AREA ( #222 ) ;
#178 = DIRECTION ( 'NONE',  ( -0.0000000000000000000, -0.0000000000000000000, -1.000000000000000000 ) ) ;
#179 = CIRCLE ( 'NONE', #133, 0.06250000000000002776 ) ;
#180 = CARTESIAN_POINT ( 'NONE',  ( 0.009490499999999998937, 1.162251044730795519E-18, 0.0000000000000000000 ) ) ;
#181 = EDGE_LOOP ( 'NONE', ( #137, #214 ) ) ;
#182 = EDGE_CURVE ( 'NONE', #167, #138, #283, .T. ) ;
#183 = AXIS2_PLACEMENT_3D ( 'NONE', #34, #154, #173 ) ;
#184 = ORIENTED_EDGE ( 'NONE', *, *, #237, .T. ) ;
#185 = EDGE_LOOP ( 'NONE', ( #6, #118, #91, #19 ) ) ;
#186 = EDGE_LOOP ( 'NONE', ( #299, #164 ) ) ;
#187 = CONICAL_SURFACE ( 'NONE', #35, 0.009490500000000000672, 0.1745329251994338915 ) ;
#188 = UNCERTAINTY_MEASURE_WITH_UNIT (LENGTH_MEASURE( 1.000000000000000082E-05 ), #82, 'distance_accuracy_value', 'NONE');
#189 = EDGE_LOOP ( 'NONE', ( #48, #190, #229, #282 ) ) ;
#190 = ORIENTED_EDGE ( 'NONE', *, *, #182, .T. ) ;
#191 = DIRECTION ( 'NONE',  ( -1.224646799147353454E-16, -0.0000000000000000000, -1.000000000000000000 ) ) ;
#192 = ADVANCED_FACE ( 'NONE', ( #243 ), #38, .T. ) ;
#193 = FILL_AREA_STYLE_COLOUR ( '', #124 ) ;
#194 = CARTESIAN_POINT ( 'NONE',  ( 0.0000000000000000000, 0.0000000000000000000, 1.500000000000000222 ) ) ;
#195 = FACE_OUTER_BOUND ( 'NONE', #185, .T. ) ;
#196 = DIRECTION ( 'NONE',  ( 1.000000000000000000, 0.0000000000000000000, -0.0000000000000000000 ) ) ;
#197 = ADVANCED_FACE ( 'NONE', ( #129 ), #113, .T. ) ;
#198 = DIRECTION ( 'NONE',  ( -1.000000000000000000, 0.0000000000000000000, 0.0000000000000000000 ) ) ;
#199 = FACE_OUTER_BOUND ( 'NONE', #112, .T. ) ;
#200 = SURFACE_SIDE_STYLE ('',( #286 ) ) ;
#201 = CARTESIAN_POINT ( 'NONE',  ( 0.0000000000000000000, 0.0000000000000000000, 0.0000000000000000000 ) ) ;
#202 =( LENGTH_UNIT ( ) NAMED_UNIT ( * ) SI_UNIT ( $, .METRE. ) );
#203 = CARTESIAN_POINT ( 'NONE',  ( 1.423347021735236349E-34, 0.0000000000000000000, 1.162251044730795519E-18 ) ) ;
#204 =( GEOMETRIC_REPRESENTATION_CONTEXT ( 3 ) GLOBAL_UNCERTAINTY_ASSIGNED_CONTEXT ( ( #23 ) ) GLOBAL_UNIT_ASSIGNED_CONTEXT ( ( #149, #76, #17 ) ) REPRESENTATION_CONTEXT ( 'NONE', 'WORKASPACE' ) );
#205 = VECTOR ( 'NONE', #240, 39.37007874015748143 ) ;
#206 = EDGE_LOOP ( 'NONE', ( #213, #257, #90, #72 ) ) ;
#207 = EDGE_LOOP ( 'NONE', ( #251, #230, #226, #211 ) ) ;
#208 = ORIENTED_EDGE ( 'NONE', *, *, #135, .T. ) ;
#209 =( GEOMETRIC_REPRESENTATION_CONTEXT ( 3 ) GLOBAL_UNCERTAINTY_ASSIGNED_CONTEXT ( ( #111 ) ) GLOBAL_UNIT_ASSIGNED_CONTEXT ( ( #132, #65, #158 ) ) REPRESENTATION_CONTEXT ( 'NONE', 'WORKASPACE' ) );
#210 = CIRCLE ( 'NONE', #140, 0.009490499999999998937 ) ;
#211 = ORIENTED_EDGE ( 'NONE', *, *, #246, .F. ) ;
#212 = CARTESIAN_POINT ( 'NONE',  ( 0.0000000000000000000, 0.0000000000000000000, 1.500000000000000222 ) ) ;
#213 = ORIENTED_EDGE ( 'NONE', *, *, #250, .F. ) ;
#214 = ORIENTED_EDGE ( 'NONE', *, *, #253, .T. ) ;
#215 = CARTESIAN_POINT ( 'NONE',  ( -0.06249999999999997918, 0.0000000000000000000, 0.3576318136170235085 ) ) ;
#216 = CARTESIAN_POINT ( 'NONE',  ( 0.0000000000000000000, 0.0000000000000000000, 0.0000000000000000000 ) ) ;
#217 = PRESENTATION_LAYER_ASSIGNMENT (  '', '', ( #88 ) ) ;
#218 = CIRCLE ( 'NONE', #266, 0.009490500000000000672 ) ;
#219 = DIRECTION ( 'NONE',  ( -1.224646799147353454E-16, -0.0000000000000000000, -1.000000000000000000 ) ) ;
#220 = CARTESIAN_POINT ( 'NONE',  ( -0.009490499999999993733, 4.408146769700877784E-18, 0.05700000000000000205 ) ) ;
#221 = CARTESIAN_POINT ( 'NONE',  ( -0.06250000000000002776, 0.0000000000000000000, 1.485000000000000764 ) ) ;
#222 = FILL_AREA_STYLE ('',( #20 ) ) ;
#223 = CONICAL_SURFACE ( 'NONE', #53, 0.04750000000000064587, 0.7853981633974466137 ) ;
#224 = EDGE_LOOP ( 'NONE', ( #166, #258, #208, #106 ) ) ;
#225 = FACE_OUTER_BOUND ( 'NONE', #224, .T. ) ;
#226 = ORIENTED_EDGE ( 'NONE', *, *, #159, .F. ) ;
#227 = VECTOR ( 'NONE', #96, 39.37007874015748143 ) ;
#228 = EDGE_CURVE ( 'NONE', #138, #115, #169, .T. ) ;
#229 = ORIENTED_EDGE ( 'NONE', *, *, #228, .T. ) ;
#230 = ORIENTED_EDGE ( 'NONE', *, *, #288, .T. ) ;
#231 = CIRCLE ( 'NONE', #22, 0.009490499999999998937 ) ;
#232 = DIRECTION ( 'NONE',  ( 0.0000000000000000000, 0.0000000000000000000, 1.000000000000000000 ) ) ;
#233 = ORIENTED_EDGE ( 'NONE', *, *, #28, .F. ) ;
#234 = CARTESIAN_POINT ( 'NONE',  ( 0.0000000000000000000, 0.0000000000000000000, 1.500000000000000222 ) ) ;
#235 = VECTOR ( 'NONE', #178, 39.37007874015748143 ) ;
#236 = AXIS2_PLACEMENT_3D ( 'NONE', #31, #170, #287 ) ;
#237 = EDGE_CURVE ( 'NONE', #142, #167, #156, .T. ) ;
#238 = DIRECTION ( 'NONE',  ( 1.000000000000000000, 0.0000000000000000000, 0.0000000000000000000 ) ) ;
#239 = APPLICATION_PROTOCOL_DEFINITION ( 'draft international standard', 'automotive_design', 1998, #95 ) ;
#240 = DIRECTION ( 'NONE',  ( 0.1736481776669313859, 0.0000000000000000000, 0.9848077530122077983 ) ) ;
#241 = CARTESIAN_POINT ( 'NONE',  ( 0.0000000000000000000, 0.0000000000000000000, 0.0000000000000000000 ) ) ;
#242 = LENGTH_MEASURE_WITH_UNIT ( LENGTH_MEASURE( 0.02539999999999999897 ), #147 );
#243 = FACE_OUTER_BOUND ( 'NONE', #207, .T. ) ;
#244 = DIRECTION ( 'NONE',  ( -1.000000000000000000, 0.0000000000000000000, 1.224646799147353207E-16 ) ) ;
#245 = DIMENSIONAL_EXPONENTS ( 1.000000000000000000, 0.0000000000000000000, 0.0000000000000000000, 0.0000000000000000000, 0.0000000000000000000, 0.0000000000000000000, 0.0000000000000000000 ) ;
#246 = EDGE_CURVE ( 'NONE', #167, #141, #136, .T. ) ;
#247 = LINE ( 'NONE', #85, #235 ) ;
#248 = AXIS2_PLACEMENT_3D ( 'NONE', #201, #295, #196 ) ;
#249 = DIRECTION ( 'NONE',  ( -1.000000000000000000, 0.0000000000000000000, 0.0000000000000000000 ) ) ;
#250 = EDGE_CURVE ( 'NONE', #117, #115, #247, .T. ) ;
#251 = ORIENTED_EDGE ( 'NONE', *, *, #66, .T. ) ;
#252 = DIRECTION ( 'NONE',  ( 1.224646799147353454E-16, 0.0000000000000000000, 1.000000000000000000 ) ) ;
#253 = EDGE_CURVE ( 'NONE', #281, #141, #231, .T. ) ;
#254 = LINE ( 'NONE', #3, #10 ) ;
#255 =( GEOMETRIC_REPRESENTATION_CONTEXT ( 3 ) GLOBAL_UNCERTAINTY_ASSIGNED_CONTEXT ( ( #188 ) ) GLOBAL_UNIT_ASSIGNED_CONTEXT ( ( #82, #260, #79 ) ) REPRESENTATION_CONTEXT ( 'NONE', 'WORKASPACE' ) );
#256 = AXIS2_PLACEMENT_3D ( 'NONE', #144, #252, #278 ) ;
#257 = ORIENTED_EDGE ( 'NONE', *, *, #47, .T. ) ;
#258 = ORIENTED_EDGE ( 'NONE', *, *, #237, .F. ) ;
#259 = DIRECTION ( 'NONE',  ( 0.7071067811865462405, 8.659560562354916834E-17, -0.7071067811865486830 ) ) ;
#260 =( NAMED_UNIT ( * ) PLANE_ANGLE_UNIT ( ) SI_UNIT ( $, .RADIAN. ) );
#261 = FACE_OUTER_BOUND ( 'NONE', #206, .T. ) ;
#262 = DIRECTION ( 'NONE',  ( 0.0000000000000000000, 0.0000000000000000000, 1.000000000000000000 ) ) ;
#263 = CARTESIAN_POINT ( 'NONE',  ( 1.423347021735236349E-34, 0.0000000000000000000, 1.162251044730795519E-18 ) ) ;
#264 = DIRECTION ( 'NONE',  ( 0.0000000000000000000, 0.0000000000000000000, -1.000000000000000000 ) ) ;
#265 = ADVANCED_FACE ( 'NONE', ( #225 ), #187, .T. ) ;
#266 = AXIS2_PLACEMENT_3D ( 'NONE', #59, #58, #198 ) ;
#267 = DIRECTION ( 'NONE',  ( 0.0000000000000000000, 0.0000000000000000000, -1.000000000000000000 ) ) ;
#268 = PLANE ( 'NONE',  #248 ) ;
#269 = DIRECTION ( 'NONE',  ( -1.224646799147353454E-16, -0.0000000000000000000, -1.000000000000000000 ) ) ;
#270 = CLOSED_SHELL ( 'NONE', ( #192, #21, #197, #127, #107, #97, #161, #265, #84, #294 ) ) ;
#271 = DIRECTION ( 'NONE',  ( -1.224646799147353454E-16, -0.0000000000000000000, -1.000000000000000000 ) ) ;
#272 = AXIS2_PLACEMENT_3D ( 'NONE', #101, #125, #148 ) ;
#273 = LINE ( 'NONE', #293, #152 ) ;
#274 = PRODUCT_DEFINITION_FORMATION_WITH_SPECIFIED_SOURCE ( 'ANY', '', #128, .NOT_KNOWN. ) ;
#275 = ORIENTED_EDGE ( 'NONE', *, *, #151, .F. ) ;
#276 = CONICAL_SURFACE ( 'NONE', #256, 0.009490500000000000672, 0.1745329251994338915 ) ;
#277 = DIRECTION ( 'NONE',  ( 0.0000000000000000000, 0.0000000000000000000, -1.000000000000000000 ) ) ;
#278 = DIRECTION ( 'NONE',  ( 1.000000000000000000, 0.0000000000000000000, 0.0000000000000000000 ) ) ;
#279 = ORIENTED_EDGE ( 'NONE', *, *, #50, .F. ) ;
#280 = PRESENTATION_LAYER_ASSIGNMENT (  '', '', ( #42 ) ) ;
#281 = VERTEX_POINT ( 'NONE', #180 ) ;
#282 = ORIENTED_EDGE ( 'NONE', *, *, #135, .F. ) ;
#283 = LINE ( 'NONE', #153, #89 ) ;
#284 = MECHANICAL_DESIGN_GEOMETRIC_PRESENTATION_REPRESENTATION (  '', ( #42 ), #204 ) ;
#285 = AXIS2_PLACEMENT_3D ( 'NONE', #194, #13, #41 ) ;
#286 = SURFACE_STYLE_FILL_AREA ( #64 ) ;
#287 = DIRECTION ( 'NONE',  ( -1.000000000000000000, 0.0000000000000000000, 0.0000000000000000000 ) ) ;
#288 = EDGE_CURVE ( 'NONE', #142, #281, #273, .T. ) ;
#289 = MANIFOLD_SOLID_BREP ( 'Cut-Revolve1', #270 ) ;
#290 = CARTESIAN_POINT ( 'NONE',  ( -0.009490499999999998937, 0.0000000000000000000, 2.324502089461591038E-18 ) ) ;
#291 = CARTESIAN_POINT ( 'NONE',  ( -0.04750000000000064587, 0.0000000000000000000, 1.500000000000000222 ) ) ;
#292 = AXIS2_PLACEMENT_3D ( 'NONE', #172, #15, #238 ) ;
#293 = CARTESIAN_POINT ( 'NONE',  ( 0.009490500000000000672, 1.162251044730795519E-18, -1.162251044730795904E-18 ) ) ;
#294 = ADVANCED_FACE ( 'NONE', ( #18 ), #268, .F. ) ;
#295 = DIRECTION ( 'NONE',  ( 0.0000000000000000000, 0.0000000000000000000, 1.000000000000000000 ) ) ;
#296 = DIRECTION ( 'NONE',  ( 1.000000000000000000, 0.0000000000000000000, 0.0000000000000000000 ) ) ;
#297 = CARTESIAN_POINT ( 'NONE',  ( -0.009490500000000000672, 0.0000000000000000000, 1.162251044730795904E-18 ) ) ;
#298 = AXIS2_PLACEMENT_3D ( 'NONE', #81, #155, #249 ) ;
#299 = ORIENTED_EDGE ( 'NONE', *, *, #1, .T. ) ;
ENDSEC;
END-ISO-10303-21;
