ISO-10303-21;
HEADER;
FILE_DESCRIPTION (( 'STEP AP214' ),
    '1' );
FILE_NAME ('49316.STEP',
    '2023-06-30T22:00:49',
    ( '' ),
    ( '' ),
    'SwSTEP 2.0',
    'SolidWorks 2023',
    '' );
FILE_SCHEMA (( 'AUTOMOTIVE_DESIGN' ));
ENDSEC;

DATA;
#1 = PLANE ( 'NONE',  #167 ) ;
#2 = ORIENTED_EDGE ( 'NONE', *, *, #150, .F. ) ;
#3 = DIRECTION ( 'NONE',  ( -0.000000000000000000, -1.000000000000000000, -0.000000000000000000 ) ) ;
#4 = CIRCLE ( 'NONE', #186, 0.2499999999999999722 ) ;
#5 =( GEOMETRIC_REPRESENTATION_CONTEXT ( 3 ) GLOBAL_UNCERTAINTY_ASSIGNED_CONTEXT ( ( #175 ) ) GLOBAL_UNIT_ASSIGNED_CONTEXT ( ( #357, #223, #78 ) ) REPRESENTATION_CONTEXT ( 'NONE', 'WORKASPACE' ) );
#6 = SURFACE_SIDE_STYLE ('',( #222 ) ) ;
#7 = DIRECTION ( 'NONE',  ( 0.000000000000000000, 0.000000000000000000, -1.000000000000000000 ) ) ;
#8 = LENGTH_MEASURE_WITH_UNIT ( LENGTH_MEASURE( 0.02539999999999999897 ), #184 );
#9 = DIRECTION ( 'NONE',  ( -0.000000000000000000, -1.000000000000000000, -0.000000000000000000 ) ) ;
#10 = STYLED_ITEM ( 'NONE', ( #309 ), #96 ) ;
#11 = SPHERICAL_SURFACE ( 'NONE', #221, 0.2500000000000000000 ) ;
#12 = ORIENTED_EDGE ( 'NONE', *, *, #307, .F. ) ;
#13 = CARTESIAN_POINT ( 'NONE',  ( 2.449293598294706414E-16, 2.000000000000000000, 0.000000000000000000 ) ) ;
#14 = DIMENSIONAL_EXPONENTS ( 1.000000000000000000, 0.000000000000000000, 0.000000000000000000, 0.000000000000000000, 0.000000000000000000, 0.000000000000000000, 0.000000000000000000 ) ;
#15 = APPLICATION_PROTOCOL_DEFINITION ( 'draft international standard', 'automotive_design', 1998, #220 ) ;
#16 = CARTESIAN_POINT ( 'NONE',  ( 0.2499999999999995837, 4.000000000000000000, 3.061616997868379320E-17 ) ) ;
#17 = STYLED_ITEM ( 'NONE', ( #63 ), #225 ) ;
#18 = PRODUCT_DEFINITION_FORMATION_WITH_SPECIFIED_SOURCE ( 'ANY', '', #354, .NOT_KNOWN. ) ;
#19 = SURFACE_STYLE_FILL_AREA ( #304 ) ;
#20 = CARTESIAN_POINT ( 'NONE',  ( 0.000000000000000000, 0.000000000000000000, 0.000000000000000000 ) ) ;
#21 = SURFACE_STYLE_FILL_AREA ( #83 ) ;
#22 =( LENGTH_UNIT ( ) NAMED_UNIT ( * ) SI_UNIT ( $, .METRE. ) );
#23 = UNCERTAINTY_MEASURE_WITH_UNIT (LENGTH_MEASURE( 1.000000000000000082E-05 ), #94, 'distance_accuracy_value', 'NONE');
#24 = CIRCLE ( 'NONE', #210, 0.2500000000000000000 ) ;
#25 = EDGE_CURVE ( 'NONE', #106, #117, #272, .T. ) ;
#26 = AXIS2_PLACEMENT_3D ( 'NONE', #20, #249, #277 ) ;
#27 = CARTESIAN_POINT ( 'NONE',  ( 0.2499999999999998335, 4.000000000000000000, 3.061616997868381169E-17 ) ) ;
#28 = VERTEX_POINT ( 'NONE', #325 ) ;
#29 = DIRECTION ( 'NONE',  ( -1.000000000000000000, 0.000000000000000000, 0.000000000000000000 ) ) ;
#30 = SURFACE_STYLE_USAGE ( .BOTH. , #36 ) ;
#31 = COLOUR_RGB ( '',1.000000000000000000, 0.000000000000000000, 0.000000000000000000 ) ;
#32 = DIRECTION ( 'NONE',  ( -0.000000000000000000, -1.000000000000000000, -0.000000000000000000 ) ) ;
#33 = COLOUR_RGB ( '',1.000000000000000000, 0.000000000000000000, 0.000000000000000000 ) ;
#34 = ORIENTED_EDGE ( 'NONE', *, *, #64, .T. ) ;
#35 = ADVANCED_FACE ( 'NONE', ( #353 ), #193, .T. ) ;
#36 = SURFACE_SIDE_STYLE ('',( #120 ) ) ;
#37 = CARTESIAN_POINT ( 'NONE',  ( -3.061616997868383018E-17, 0.2500000000000000000, 0.000000000000000000 ) ) ;
#38 = DIRECTION ( 'NONE',  ( 0.000000000000000000, 0.000000000000000000, -1.000000000000000000 ) ) ;
#39 = EDGE_LOOP ( 'NONE', ( #34, #45, #216, #131 ) ) ;
#40 =( NAMED_UNIT ( * ) PLANE_ANGLE_UNIT ( ) SI_UNIT ( $, .RADIAN. ) );
#41 = EDGE_CURVE ( 'NONE', #28, #351, #358, .T. ) ;
#42 = STYLED_ITEM ( 'NONE', ( #121 ), #136 ) ;
#43 = ORIENTED_EDGE ( 'NONE', *, *, #113, .T. ) ;
#44 = DIRECTION ( 'NONE',  ( -0.000000000000000000, -1.000000000000000000, -0.000000000000000000 ) ) ;
#45 = ORIENTED_EDGE ( 'NONE', *, *, #65, .T. ) ;
#46 = ORIENTED_EDGE ( 'NONE', *, *, #87, .F. ) ;
#47 = CARTESIAN_POINT ( 'NONE',  ( 0.000000000000000000, 0.2500000000000000555, 0.000000000000000000 ) ) ;
#48 = DIRECTION ( 'NONE',  ( -1.836970198721029441E-16, 1.000000000000000000, -0.000000000000000000 ) ) ;
#49 = SURFACE_STYLE_FILL_AREA ( #328 ) ;
#50 = PRODUCT_CONTEXT ( 'NONE', #220, 'mechanical' ) ;
#51 = CARTESIAN_POINT ( 'NONE',  ( -0.2499999999999992784, 2.000000000000000000, 0.000000000000000000 ) ) ;
#52 = APPLICATION_PROTOCOL_DEFINITION ( 'draft international standard', 'automotive_design', 1998, #262 ) ;
#53 = DIMENSIONAL_EXPONENTS ( 1.000000000000000000, 0.000000000000000000, 0.000000000000000000, 0.000000000000000000, 0.000000000000000000, 0.000000000000000000, 0.000000000000000000 ) ;
#54 =( LENGTH_UNIT ( ) NAMED_UNIT ( * ) SI_UNIT ( $, .METRE. ) );
#55 = STYLED_ITEM ( 'NONE', ( #270 ), #35 ) ;
#56 = DIRECTION ( 'NONE',  ( -0.000000000000000000, -1.000000000000000000, -0.000000000000000000 ) ) ;
#57 = DIRECTION ( 'NONE',  ( 1.000000000000000000, 0.000000000000000000, -1.224646799147353207E-16 ) ) ;
#58 = DIRECTION ( 'NONE',  ( -1.836970198721029441E-16, 1.000000000000000000, -0.000000000000000000 ) ) ;
#59 = CLOSED_SHELL ( 'NONE', ( #219, #293, #182, #187 ) ) ;
#60 = CYLINDRICAL_SURFACE ( 'NONE', #333, 0.2499999999999997224 ) ;
#61 = DIRECTION ( 'NONE',  ( -1.000000000000000000, 0.000000000000000000, 0.000000000000000000 ) ) ;
#62 = VERTEX_POINT ( 'NONE', #300 ) ;
#63 = PRESENTATION_STYLE_ASSIGNMENT (( #317 ) ) ;
#64 = EDGE_CURVE ( 'NONE', #117, #106, #279, .T. ) ;
#65 = EDGE_CURVE ( 'NONE', #106, #154, #160, .T. ) ;
#66 = CIRCLE ( 'NONE', #138, 0.2500000000000000000 ) ;
#67 = SURFACE_SIDE_STYLE ('',( #319 ) ) ;
#68 = PRESENTATION_STYLE_ASSIGNMENT (( #30 ) ) ;
#69 = DIRECTION ( 'NONE',  ( 1.836970198721029441E-16, -1.000000000000000000, 0.000000000000000000 ) ) ;
#70 = DIRECTION ( 'NONE',  ( 0.000000000000000000, 0.000000000000000000, -1.000000000000000000 ) ) ;
#71 = EDGE_CURVE ( 'NONE', #28, #174, #112, .T. ) ;
#72 = CARTESIAN_POINT ( 'NONE',  ( 0.000000000000000000, 0.000000000000000000, -0.2499999999999998612 ) ) ;
#73 = CIRCLE ( 'NONE', #144, 0.2500000000000000000 ) ;
#74 = ORIENTED_EDGE ( 'NONE', *, *, #150, .T. ) ;
#75 = DIRECTION ( 'NONE',  ( 0.000000000000000000, -0.000000000000000000, 1.000000000000000000 ) ) ;
#76 =( CONVERSION_BASED_UNIT ( 'INCH', #274 ) LENGTH_UNIT ( ) NAMED_UNIT ( #82 ) );
#77 = ORIENTED_EDGE ( 'NONE', *, *, #282, .F. ) ;
#78 =( NAMED_UNIT ( * ) SI_UNIT ( $, .STERADIAN. ) SOLID_ANGLE_UNIT ( ) );
#79 = STYLED_ITEM ( 'NONE', ( #68 ), #308 ) ;
#80 =( CONVERSION_BASED_UNIT ( 'INCH', #134 ) LENGTH_UNIT ( ) NAMED_UNIT ( #162 ) );
#81 = SURFACE_STYLE_USAGE ( .BOTH. , #251 ) ;
#82 = DIMENSIONAL_EXPONENTS ( 1.000000000000000000, 0.000000000000000000, 0.000000000000000000, 0.000000000000000000, 0.000000000000000000, 0.000000000000000000, 0.000000000000000000 ) ;
#83 = FILL_AREA_STYLE ('',( #168 ) ) ;
#84 = AXIS2_PLACEMENT_3D ( 'NONE', #215, #48, #108 ) ;
#85 = CIRCLE ( 'NONE', #151, 0.2500000000000000000 ) ;
#86 = DIRECTION ( 'NONE',  ( 0.000000000000000000, 0.000000000000000000, -1.000000000000000000 ) ) ;
#87 = EDGE_CURVE ( 'NONE', #119, #229, #66, .T. ) ;
#88 = CARTESIAN_POINT ( 'NONE',  ( -1.224646799147352468E-16, 4.000000000000000000, 0.000000000000000000 ) ) ;
#89 =( GEOMETRIC_REPRESENTATION_CONTEXT ( 3 ) GLOBAL_UNCERTAINTY_ASSIGNED_CONTEXT ( ( #367 ) ) GLOBAL_UNIT_ASSIGNED_CONTEXT ( ( #80, #110, #338 ) ) REPRESENTATION_CONTEXT ( 'NONE', 'WORKASPACE' ) );
#90 = SURFACE_STYLE_FILL_AREA ( #181 ) ;
#91 = ORIENTED_EDGE ( 'NONE', *, *, #209, .F. ) ;
#92 = CARTESIAN_POINT ( 'NONE',  ( -0.2500000000000001110, 4.000000000000000000, 0.000000000000000000 ) ) ;
#93 = MANIFOLD_SOLID_BREP ( 'Revolve - Tool Body (Straight Shanked)', #59 ) ;
#94 =( CONVERSION_BASED_UNIT ( 'INCH', #259 ) LENGTH_UNIT ( ) NAMED_UNIT ( #53 ) );
#95 = ORIENTED_EDGE ( 'NONE', *, *, #71, .F. ) ;
#96 = MANIFOLD_SOLID_BREP ( 'Revolve - Cutting Edge', #320 ) ;
#97 = CARTESIAN_POINT ( 'NONE',  ( 0.2499999999999998335, 4.000000000000000000, 0.000000000000000000 ) ) ;
#98 = AXIS2_PLACEMENT_3D ( 'NONE', #97, #69, #173 ) ;
#99 = DIRECTION ( 'NONE',  ( -1.000000000000000000, 0.000000000000000000, 0.000000000000000000 ) ) ;
#100 = DIRECTION ( 'NONE',  ( 0.000000000000000000, 0.000000000000000000, 1.000000000000000000 ) ) ;
#101 = ORIENTED_EDGE ( 'NONE', *, *, #65, .F. ) ;
#102 = COLOUR_RGB ( '',1.000000000000000000, 0.000000000000000000, 0.000000000000000000 ) ;
#103 = CIRCLE ( 'NONE', #111, 0.2500000000000000000 ) ;
#104 = ORIENTED_EDGE ( 'NONE', *, *, #232, .F. ) ;
#105 =( GEOMETRIC_REPRESENTATION_CONTEXT ( 3 ) GLOBAL_UNCERTAINTY_ASSIGNED_CONTEXT ( ( #337 ) ) GLOBAL_UNIT_ASSIGNED_CONTEXT ( ( #261, #258, #233 ) ) REPRESENTATION_CONTEXT ( 'NONE', 'WORKASPACE' ) );
#106 = VERTEX_POINT ( 'NONE', #198 ) ;
#107 = MECHANICAL_DESIGN_GEOMETRIC_PRESENTATION_REPRESENTATION (  '', ( #55 ), #267 ) ;
#108 = DIRECTION ( 'NONE',  ( -1.000000000000000000, 0.000000000000000000, 0.000000000000000000 ) ) ;
#109 = MECHANICAL_DESIGN_GEOMETRIC_PRESENTATION_REPRESENTATION (  '', ( #17 ), #310 ) ;
#110 =( NAMED_UNIT ( * ) PLANE_ANGLE_UNIT ( ) SI_UNIT ( $, .RADIAN. ) );
#111 = AXIS2_PLACEMENT_3D ( 'NONE', #37, #38, #99 ) ;
#112 = LINE ( 'NONE', #165, #371 ) ;
#113 = EDGE_CURVE ( 'NONE', #350, #154, #4, .T. ) ;
#114 = CARTESIAN_POINT ( 'NONE',  ( 0.000000000000000000, 0.2500000000000000555, 0.000000000000000000 ) ) ;
#115 = DIRECTION ( 'NONE',  ( -1.836970198721029441E-16, 1.000000000000000000, -0.000000000000000000 ) ) ;
#116 =( NAMED_UNIT ( * ) SI_UNIT ( $, .STERADIAN. ) SOLID_ANGLE_UNIT ( ) );
#117 = VERTEX_POINT ( 'NONE', #51 ) ;
#118 = MECHANICAL_DESIGN_GEOMETRIC_PRESENTATION_REPRESENTATION (  '', ( #42 ), #334 ) ;
#119 = VERTEX_POINT ( 'NONE', #224 ) ;
#120 = SURFACE_STYLE_FILL_AREA ( #291 ) ;
#121 = PRESENTATION_STYLE_ASSIGNMENT (( #266 ) ) ;
#122 = AXIS2_PLACEMENT_3D ( 'NONE', #345, #205, #61 ) ;
#123 = LENGTH_MEASURE_WITH_UNIT ( LENGTH_MEASURE( 0.02539999999999999897 ), #163 );
#124 = ORIENTED_EDGE ( 'NONE', *, *, #313, .F. ) ;
#125 =( CONVERSION_BASED_UNIT ( 'INCH', #8 ) LENGTH_UNIT ( ) NAMED_UNIT ( #190 ) );
#126 = EDGE_CURVE ( 'NONE', #119, #147, #24, .T. ) ;
#127 =( GEOMETRIC_REPRESENTATION_CONTEXT ( 3 ) GLOBAL_UNCERTAINTY_ASSIGNED_CONTEXT ( ( #227 ) ) GLOBAL_UNIT_ASSIGNED_CONTEXT ( ( #365, #305, #135 ) ) REPRESENTATION_CONTEXT ( 'NONE', 'WORKASPACE' ) );
#128 = MECHANICAL_DESIGN_GEOMETRIC_PRESENTATION_REPRESENTATION (  '', ( #79 ), #105 ) ;
#129 = SURFACE_STYLE_USAGE ( .BOTH. , #297 ) ;
#130 = DIRECTION ( 'NONE',  ( -1.000000000000000000, 0.000000000000000000, 0.000000000000000000 ) ) ;
#131 = ORIENTED_EDGE ( 'NONE', *, *, #200, .F. ) ;
#132 = SHAPE_DEFINITION_REPRESENTATION ( #218, #235 ) ;
#133 =( GEOMETRIC_REPRESENTATION_CONTEXT ( 3 ) GLOBAL_UNCERTAINTY_ASSIGNED_CONTEXT ( ( #201 ) ) GLOBAL_UNIT_ASSIGNED_CONTEXT ( ( #239, #152, #156 ) ) REPRESENTATION_CONTEXT ( 'NONE', 'WORKASPACE' ) );
#134 = LENGTH_MEASURE_WITH_UNIT ( LENGTH_MEASURE( 0.02539999999999999897 ), #22 );
#135 =( NAMED_UNIT ( * ) SI_UNIT ( $, .STERADIAN. ) SOLID_ANGLE_UNIT ( ) );
#136 = ADVANCED_FACE ( 'NONE', ( #278 ), #361, .T. ) ;
#137 = AXIS2_PLACEMENT_3D ( 'NONE', #13, #332, #130 ) ;
#138 = AXIS2_PLACEMENT_3D ( 'NONE', #280, #360, #86 ) ;
#139 = UNCERTAINTY_MEASURE_WITH_UNIT (LENGTH_MEASURE( 1.000000000000000082E-05 ), #125, 'distance_accuracy_value', 'NONE');
#140 = FACE_OUTER_BOUND ( 'NONE', #298, .T. ) ;
#141 = EDGE_LOOP ( 'NONE', ( #12, #318 ) ) ;
#142 = FACE_OUTER_BOUND ( 'NONE', #296, .T. ) ;
#143 = CARTESIAN_POINT ( 'NONE',  ( 0.000000000000000000, 2.000000000000000000, -0.2499999999999997502 ) ) ;
#144 = AXIS2_PLACEMENT_3D ( 'NONE', #47, #44, #236 ) ;
#145 = ORIENTED_EDGE ( 'NONE', *, *, #209, .T. ) ;
#146 = CARTESIAN_POINT ( 'NONE',  ( 0.000000000000000000, 0.2500000000000000555, 0.000000000000000000 ) ) ;
#147 = VERTEX_POINT ( 'NONE', #292 ) ;
#148 = DIRECTION ( 'NONE',  ( -1.000000000000000000, -1.836970198721029441E-16, 0.000000000000000000 ) ) ;
#149 = CARTESIAN_POINT ( 'NONE',  ( 3.061616997868383018E-17, 0.2500000000000000555, 0.2499999999999999722 ) ) ;
#150 = EDGE_CURVE ( 'NONE', #62, #147, #103, .T. ) ;
#151 = AXIS2_PLACEMENT_3D ( 'NONE', #114, #202, #212 ) ;
#152 =( NAMED_UNIT ( * ) PLANE_ANGLE_UNIT ( ) SI_UNIT ( $, .RADIAN. ) );
#153 = FILL_AREA_STYLE_COLOUR ( '', #102 ) ;
#154 = VERTEX_POINT ( 'NONE', #27 ) ;
#155 = EDGE_CURVE ( 'NONE', #229, #62, #284, .T. ) ;
#156 =( NAMED_UNIT ( * ) SI_UNIT ( $, .STERADIAN. ) SOLID_ANGLE_UNIT ( ) );
#157 = EDGE_LOOP ( 'NONE', ( #275, #327, #2, #260 ) ) ;
#158 = FILL_AREA_STYLE_COLOUR ( '', #241 ) ;
#159 = MECHANICAL_DESIGN_GEOMETRIC_PRESENTATION_REPRESENTATION (  '', ( #10 ), #127 ) ;
#160 = LINE ( 'NONE', #16, #234 ) ;
#161 = STYLED_ITEM ( 'NONE', ( #191 ), #250 ) ;
#162 = DIMENSIONAL_EXPONENTS ( 1.000000000000000000, 0.000000000000000000, 0.000000000000000000, 0.000000000000000000, 0.000000000000000000, 0.000000000000000000, 0.000000000000000000 ) ;
#163 =( LENGTH_UNIT ( ) NAMED_UNIT ( * ) SI_UNIT ( $, .METRE. ) );
#164 = CARTESIAN_POINT ( 'NONE',  ( 0.000000000000000000, 2.000000000000000000, 0.000000000000000000 ) ) ;
#165 = CARTESIAN_POINT ( 'NONE',  ( 3.061616997868381785E-17, 0.000000000000000000, 0.2499999999999998612 ) ) ;
#166 = PRESENTATION_LAYER_ASSIGNMENT (  '', '', ( #10 ) ) ;
#167 = AXIS2_PLACEMENT_3D ( 'NONE', #288, #323, #148 ) ;
#168 = FILL_AREA_STYLE_COLOUR ( '', #197 ) ;
#169 = SURFACE_STYLE_USAGE ( .BOTH. , #199 ) ;
#170 = CARTESIAN_POINT ( 'NONE',  ( -3.061616997868383018E-17, 0.2500000000000000000, 0.000000000000000000 ) ) ;
#171 = AXIS2_PLACEMENT_3D ( 'NONE', #164, #189, #276 ) ;
#172 = PRESENTATION_LAYER_ASSIGNMENT (  '', '', ( #79 ) ) ;
#173 = DIRECTION ( 'NONE',  ( 1.000000000000000000, 1.836970198721029441E-16, 0.000000000000000000 ) ) ;
#174 = VERTEX_POINT ( 'NONE', #149 ) ;
#175 = UNCERTAINTY_MEASURE_WITH_UNIT (LENGTH_MEASURE( 1.000000000000000082E-05 ), #357, 'distance_accuracy_value', 'NONE');
#176 = CARTESIAN_POINT ( 'NONE',  ( -1.224646799147352714E-16, 4.000000000000000000, 0.000000000000000000 ) ) ;
#177 = EDGE_LOOP ( 'NONE', ( #95, #206, #369, #46, #77 ) ) ;
#178 = FACE_OUTER_BOUND ( 'NONE', #240, .T. ) ;
#179 = PRESENTATION_LAYER_ASSIGNMENT (  '', '', ( #42 ) ) ;
#180 = PRESENTATION_LAYER_ASSIGNMENT (  '', '', ( #161 ) ) ;
#181 = FILL_AREA_STYLE ('',( #281 ) ) ;
#182 = ADVANCED_FACE ( 'NONE', ( #140 ), #254, .T. ) ;
#183 = SPHERICAL_SURFACE ( 'NONE', #302, 0.2500000000000000000 ) ;
#184 =( LENGTH_UNIT ( ) NAMED_UNIT ( * ) SI_UNIT ( $, .METRE. ) );
#185 = FILL_AREA_STYLE_COLOUR ( '', #33 ) ;
#186 = AXIS2_PLACEMENT_3D ( 'NONE', #194, #58, #306 ) ;
#187 = ADVANCED_FACE ( 'NONE', ( #263 ), #321, .F. ) ;
#188 = ORIENTED_EDGE ( 'NONE', *, *, #200, .T. ) ;
#189 = DIRECTION ( 'NONE',  ( -0.000000000000000000, -1.000000000000000000, -0.000000000000000000 ) ) ;
#190 = DIMENSIONAL_EXPONENTS ( 1.000000000000000000, 0.000000000000000000, 0.000000000000000000, 0.000000000000000000, 0.000000000000000000, 0.000000000000000000, 0.000000000000000000 ) ;
#191 = PRESENTATION_STYLE_ASSIGNMENT (( #129 ) ) ;
#192 = PRESENTATION_LAYER_ASSIGNMENT (  '', '', ( #17 ) ) ;
#193 = PLANE ( 'NONE',  #362 ) ;
#194 = CARTESIAN_POINT ( 'NONE',  ( -1.224646799147352468E-16, 4.000000000000000000, 0.000000000000000000 ) ) ;
#195 = DIMENSIONAL_EXPONENTS ( 1.000000000000000000, 0.000000000000000000, 0.000000000000000000, 0.000000000000000000, 0.000000000000000000, 0.000000000000000000, 0.000000000000000000 ) ;
#196 = CARTESIAN_POINT ( 'NONE',  ( -3.061616997868383018E-17, 0.2500000000000000000, 0.000000000000000000 ) ) ;
#197 = COLOUR_RGB ( '',0.7921568627450980005, 0.8196078431372548767, 0.9333333333333333481 ) ;
#198 = CARTESIAN_POINT ( 'NONE',  ( 0.2499999999999997502, 2.000000000000000000, 3.061616997868381169E-17 ) ) ;
#199 = SURFACE_SIDE_STYLE ('',( #21 ) ) ;
#200 = EDGE_CURVE ( 'NONE', #117, #350, #226, .T. ) ;
#201 = UNCERTAINTY_MEASURE_WITH_UNIT (LENGTH_MEASURE( 1.000000000000000082E-05 ), #239, 'distance_accuracy_value', 'NONE');
#202 = DIRECTION ( 'NONE',  ( -0.000000000000000000, -1.000000000000000000, -0.000000000000000000 ) ) ;
#203 = DIRECTION ( 'NONE',  ( -1.000000000000000000, 0.000000000000000000, 0.000000000000000000 ) ) ;
#204 = PRESENTATION_LAYER_ASSIGNMENT (  '', '', ( #295 ) ) ;
#205 = DIRECTION ( 'NONE',  ( -1.836970198721029441E-16, 1.000000000000000000, -0.000000000000000000 ) ) ;
#206 = ORIENTED_EDGE ( 'NONE', *, *, #41, .T. ) ;
#207 =( LENGTH_UNIT ( ) NAMED_UNIT ( * ) SI_UNIT ( $, .METRE. ) );
#208 = FILL_AREA_STYLE ('',( #344 ) ) ;
#209 = EDGE_CURVE ( 'NONE', #154, #350, #326, .T. ) ;
#210 = AXIS2_PLACEMENT_3D ( 'NONE', #170, #283, #57 ) ;
#211 = DIRECTION ( 'NONE',  ( 0.000000000000000000, 0.000000000000000000, -1.000000000000000000 ) ) ;
#212 = DIRECTION ( 'NONE',  ( 0.000000000000000000, 0.000000000000000000, -1.000000000000000000 ) ) ;
#213 = ORIENTED_EDGE ( 'NONE', *, *, #71, .T. ) ;
#214 = DIRECTION ( 'NONE',  ( 1.000000000000000000, 0.000000000000000000, 0.000000000000000000 ) ) ;
#215 = CARTESIAN_POINT ( 'NONE',  ( 2.449293598294706414E-16, 2.000000000000000000, 0.000000000000000000 ) ) ;
#216 = ORIENTED_EDGE ( 'NONE', *, *, #113, .F. ) ;
#217 = SURFACE_STYLE_USAGE ( .BOTH. , #6 ) ;
#218 = PRODUCT_DEFINITION_SHAPE ( 'NONE', 'NONE',  #339 ) ;
#219 = ADVANCED_FACE ( 'NONE', ( #311 ), #60, .T. ) ;
#220 = APPLICATION_CONTEXT ( 'automotive_design' ) ;
#221 = AXIS2_PLACEMENT_3D ( 'NONE', #196, #340, #364 ) ;
#222 = SURFACE_STYLE_FILL_AREA ( #269 ) ;
#223 =( NAMED_UNIT ( * ) PLANE_ANGLE_UNIT ( ) SI_UNIT ( $, .RADIAN. ) );
#224 = CARTESIAN_POINT ( 'NONE',  ( -0.2500000000000000000, 0.2500000000000000555, 3.061616997868382402E-17 ) ) ;
#225 = ADVANCED_FACE ( 'NONE', ( #142 ), #230, .T. ) ;
#226 = LINE ( 'NONE', #368, #301 ) ;
#227 = UNCERTAINTY_MEASURE_WITH_UNIT (LENGTH_MEASURE( 1.000000000000000082E-05 ), #365, 'distance_accuracy_value', 'NONE');
#228 =( LENGTH_UNIT ( ) NAMED_UNIT ( * ) SI_UNIT ( $, .METRE. ) );
#229 = VERTEX_POINT ( 'NONE', #245 ) ;
#230 = CYLINDRICAL_SURFACE ( 'NONE', #256, 0.2499999999999998612 ) ;
#231 = ORIENTED_EDGE ( 'NONE', *, *, #307, .T. ) ;
#232 = EDGE_CURVE ( 'NONE', #62, #174, #73, .T. ) ;
#233 =( NAMED_UNIT ( * ) SI_UNIT ( $, .STERADIAN. ) SOLID_ANGLE_UNIT ( ) );
#234 = VECTOR ( 'NONE', #115, 39.37007874015748143 ) ;
#235 = ADVANCED_BREP_SHAPE_REPRESENTATION ( '49316', ( #96, #93, #26 ), #5 ) ;
#236 = DIRECTION ( 'NONE',  ( 0.000000000000000000, 0.000000000000000000, -1.000000000000000000 ) ) ;
#237 = ORIENTED_EDGE ( 'NONE', *, *, #155, .T. ) ;
#238 = LENGTH_MEASURE_WITH_UNIT ( LENGTH_MEASURE( 0.02539999999999999897 ), #346 );
#239 =( CONVERSION_BASED_UNIT ( 'INCH', #123 ) LENGTH_UNIT ( ) NAMED_UNIT ( #244 ) );
#240 = EDGE_LOOP ( 'NONE', ( #356, #246 ) ) ;
#241 = COLOUR_RGB ( '',1.000000000000000000, 0.000000000000000000, 0.000000000000000000 ) ;
#242 = FACE_OUTER_BOUND ( 'NONE', #315, .T. ) ;
#243 =( NAMED_UNIT ( * ) PLANE_ANGLE_UNIT ( ) SI_UNIT ( $, .RADIAN. ) );
#244 = DIMENSIONAL_EXPONENTS ( 1.000000000000000000, 0.000000000000000000, 0.000000000000000000, 0.000000000000000000, 0.000000000000000000, 0.000000000000000000, 0.000000000000000000 ) ;
#245 = CARTESIAN_POINT ( 'NONE',  ( 0.000000000000000000, 0.2500000000000000555, -0.2500000000000000000 ) ) ;
#246 = ORIENTED_EDGE ( 'NONE', *, *, #25, .F. ) ;
#247 = ORIENTED_EDGE ( 'NONE', *, *, #25, .T. ) ;
#248 = AXIS2_PLACEMENT_3D ( 'NONE', #347, #285, #314 ) ;
#249 = DIRECTION ( 'NONE',  ( 0.000000000000000000, 0.000000000000000000, 1.000000000000000000 ) ) ;
#250 = ADVANCED_FACE ( 'NONE', ( #242 ), #11, .T. ) ;
#251 = SURFACE_SIDE_STYLE ('',( #19 ) ) ;
#252 = LENGTH_MEASURE_WITH_UNIT ( LENGTH_MEASURE( 0.02539999999999999897 ), #207 );
#253 = LENGTH_MEASURE_WITH_UNIT ( LENGTH_MEASURE( 0.02539999999999999897 ), #54 );
#254 = CYLINDRICAL_SURFACE ( 'NONE', #122, 0.2499999999999997224 ) ;
#255 =( NAMED_UNIT ( * ) PLANE_ANGLE_UNIT ( ) SI_UNIT ( $, .RADIAN. ) );
#256 = AXIS2_PLACEMENT_3D ( 'NONE', #299, #9, #7 ) ;
#257 = VECTOR ( 'NONE', #370, 39.37007874015748143 ) ;
#258 =( NAMED_UNIT ( * ) PLANE_ANGLE_UNIT ( ) SI_UNIT ( $, .RADIAN. ) );
#259 = LENGTH_MEASURE_WITH_UNIT ( LENGTH_MEASURE( 0.02539999999999999897 ), #228 );
#260 = ORIENTED_EDGE ( 'NONE', *, *, #232, .T. ) ;
#261 =( CONVERSION_BASED_UNIT ( 'INCH', #238 ) LENGTH_UNIT ( ) NAMED_UNIT ( #271 ) );
#262 = APPLICATION_CONTEXT ( 'automotive_design' ) ;
#263 = FACE_OUTER_BOUND ( 'NONE', #286, .T. ) ;
#264 = ORIENTED_EDGE ( 'NONE', *, *, #87, .T. ) ;
#265 = CARTESIAN_POINT ( 'NONE',  ( 0.000000000000000000, 2.000000000000000000, 0.000000000000000000 ) ) ;
#266 = SURFACE_STYLE_USAGE ( .BOTH. , #289 ) ;
#267 =( GEOMETRIC_REPRESENTATION_CONTEXT ( 3 ) GLOBAL_UNCERTAINTY_ASSIGNED_CONTEXT ( ( #139 ) ) GLOBAL_UNIT_ASSIGNED_CONTEXT ( ( #125, #243, #355 ) ) REPRESENTATION_CONTEXT ( 'NONE', 'WORKASPACE' ) );
#268 = AXIS2_PLACEMENT_3D ( 'NONE', #146, #32, #211 ) ;
#269 = FILL_AREA_STYLE ('',( #153 ) ) ;
#270 = PRESENTATION_STYLE_ASSIGNMENT (( #217 ) ) ;
#271 = DIMENSIONAL_EXPONENTS ( 1.000000000000000000, 0.000000000000000000, 0.000000000000000000, 0.000000000000000000, 0.000000000000000000, 0.000000000000000000, 0.000000000000000000 ) ;
#272 = CIRCLE ( 'NONE', #137, 0.2499999999999995282 ) ;
#273 = COLOUR_RGB ( '',1.000000000000000000, 0.000000000000000000, 0.000000000000000000 ) ;
#274 = LENGTH_MEASURE_WITH_UNIT ( LENGTH_MEASURE( 0.02539999999999999897 ), #331 );
#275 = ORIENTED_EDGE ( 'NONE', *, *, #282, .T. ) ;
#276 = DIRECTION ( 'NONE',  ( 0.000000000000000000, 0.000000000000000000, -1.000000000000000000 ) ) ;
#277 = DIRECTION ( 'NONE',  ( 1.000000000000000000, 0.000000000000000000, 0.000000000000000000 ) ) ;
#278 = FACE_OUTER_BOUND ( 'NONE', #177, .T. ) ;
#279 = CIRCLE ( 'NONE', #84, 0.2499999999999995282 ) ;
#280 = CARTESIAN_POINT ( 'NONE',  ( 0.000000000000000000, 0.2500000000000000555, 0.000000000000000000 ) ) ;
#281 = FILL_AREA_STYLE_COLOUR ( '', #31 ) ;
#282 = EDGE_CURVE ( 'NONE', #174, #119, #85, .T. ) ;
#283 = DIRECTION ( 'NONE',  ( 1.224646799147353207E-16, -0.000000000000000000, 1.000000000000000000 ) ) ;
#284 = CIRCLE ( 'NONE', #268, 0.2500000000000000000 ) ;
#285 = DIRECTION ( 'NONE',  ( -0.000000000000000000, -1.000000000000000000, -0.000000000000000000 ) ) ;
#286 = EDGE_LOOP ( 'NONE', ( #43, #145 ) ) ;
#287 = DIRECTION ( 'NONE',  ( -1.836970198721029441E-16, 1.000000000000000000, -0.000000000000000000 ) ) ;
#288 = CARTESIAN_POINT ( 'NONE',  ( 2.449293598294706414E-16, 2.000000000000000000, 0.000000000000000000 ) ) ;
#289 = SURFACE_SIDE_STYLE ('',( #90 ) ) ;
#290 = MECHANICAL_DESIGN_GEOMETRIC_PRESENTATION_REPRESENTATION (  '', ( #295 ), #89 ) ;
#291 = FILL_AREA_STYLE ('',( #185 ) ) ;
#292 = CARTESIAN_POINT ( 'NONE',  ( -1.530808498934191509E-17, 0.000000000000000000, 0.000000000000000000 ) ) ;
#293 = ADVANCED_FACE ( 'NONE', ( #178 ), #1, .F. ) ;
#294 = CARTESIAN_POINT ( 'NONE',  ( -3.061616997868383018E-17, 0.2500000000000000000, 0.000000000000000000 ) ) ;
#295 = STYLED_ITEM ( 'NONE', ( #336 ), #93 ) ;
#296 = EDGE_LOOP ( 'NONE', ( #231, #213, #104, #373, #124 ) ) ;
#297 = SURFACE_SIDE_STYLE ('',( #49 ) ) ;
#298 = EDGE_LOOP ( 'NONE', ( #101, #247, #188, #91 ) ) ;
#299 = CARTESIAN_POINT ( 'NONE',  ( 0.000000000000000000, 0.000000000000000000, 0.000000000000000000 ) ) ;
#300 = CARTESIAN_POINT ( 'NONE',  ( 0.2500000000000000000, 0.2500000000000000555, 0.000000000000000000 ) ) ;
#301 = VECTOR ( 'NONE', #341, 39.37007874015748143 ) ;
#302 = AXIS2_PLACEMENT_3D ( 'NONE', #294, #100, #214 ) ;
#303 = CARTESIAN_POINT ( 'NONE',  ( 0.000000000000000000, 2.000000000000000000, 0.000000000000000000 ) ) ;
#304 = FILL_AREA_STYLE ('',( #363 ) ) ;
#305 =( NAMED_UNIT ( * ) PLANE_ANGLE_UNIT ( ) SI_UNIT ( $, .RADIAN. ) );
#306 = DIRECTION ( 'NONE',  ( -1.000000000000000000, 0.000000000000000000, 0.000000000000000000 ) ) ;
#307 = EDGE_CURVE ( 'NONE', #351, #28, #342, .T. ) ;
#308 = ADVANCED_FACE ( 'NONE', ( #316 ), #183, .T. ) ;
#309 = PRESENTATION_STYLE_ASSIGNMENT (( #169 ) ) ;
#310 =( GEOMETRIC_REPRESENTATION_CONTEXT ( 3 ) GLOBAL_UNCERTAINTY_ASSIGNED_CONTEXT ( ( #330 ) ) GLOBAL_UNIT_ASSIGNED_CONTEXT ( ( #76, #40, #324 ) ) REPRESENTATION_CONTEXT ( 'NONE', 'WORKASPACE' ) );
#311 = FACE_OUTER_BOUND ( 'NONE', #39, .T. ) ;
#312 = MECHANICAL_DESIGN_GEOMETRIC_PRESENTATION_REPRESENTATION (  '', ( #161 ), #133 ) ;
#313 = EDGE_CURVE ( 'NONE', #351, #229, #343, .T. ) ;
#314 = DIRECTION ( 'NONE',  ( 0.000000000000000000, 0.000000000000000000, -1.000000000000000000 ) ) ;
#315 = EDGE_LOOP ( 'NONE', ( #322, #264, #237, #74 ) ) ;
#316 = FACE_OUTER_BOUND ( 'NONE', #157, .T. ) ;
#317 = SURFACE_STYLE_USAGE ( .BOTH. , #67 ) ;
#318 = ORIENTED_EDGE ( 'NONE', *, *, #41, .F. ) ;
#319 = SURFACE_STYLE_FILL_AREA ( #208 ) ;
#320 = CLOSED_SHELL ( 'NONE', ( #308, #225, #35, #136, #250 ) ) ;
#321 = PLANE ( 'NONE',  #98 ) ;
#322 = ORIENTED_EDGE ( 'NONE', *, *, #126, .F. ) ;
#323 = DIRECTION ( 'NONE',  ( -1.836970198721029441E-16, 1.000000000000000000, 0.000000000000000000 ) ) ;
#324 =( NAMED_UNIT ( * ) SI_UNIT ( $, .STERADIAN. ) SOLID_ANGLE_UNIT ( ) );
#325 = CARTESIAN_POINT ( 'NONE',  ( 3.061616997868381169E-17, 2.000000000000000000, 0.2499999999999997502 ) ) ;
#326 = CIRCLE ( 'NONE', #349, 0.2499999999999999722 ) ;
#327 = ORIENTED_EDGE ( 'NONE', *, *, #126, .T. ) ;
#328 = FILL_AREA_STYLE ('',( #158 ) ) ;
#329 = DIRECTION ( 'NONE',  ( 0.000000000000000000, 1.000000000000000000, 0.000000000000000000 ) ) ;
#330 = UNCERTAINTY_MEASURE_WITH_UNIT (LENGTH_MEASURE( 1.000000000000000082E-05 ), #76, 'distance_accuracy_value', 'NONE');
#331 =( LENGTH_UNIT ( ) NAMED_UNIT ( * ) SI_UNIT ( $, .METRE. ) );
#332 = DIRECTION ( 'NONE',  ( -1.836970198721029441E-16, 1.000000000000000000, -0.000000000000000000 ) ) ;
#333 = AXIS2_PLACEMENT_3D ( 'NONE', #176, #287, #29 ) ;
#334 =( GEOMETRIC_REPRESENTATION_CONTEXT ( 3 ) GLOBAL_UNCERTAINTY_ASSIGNED_CONTEXT ( ( #23 ) ) GLOBAL_UNIT_ASSIGNED_CONTEXT ( ( #94, #255, #116 ) ) REPRESENTATION_CONTEXT ( 'NONE', 'WORKASPACE' ) );
#335 = PRODUCT_DEFINITION_CONTEXT ( 'detailed design', #262, 'design' ) ;
#336 = PRESENTATION_STYLE_ASSIGNMENT (( #81 ) ) ;
#337 = UNCERTAINTY_MEASURE_WITH_UNIT (LENGTH_MEASURE( 1.000000000000000082E-05 ), #261, 'distance_accuracy_value', 'NONE');
#338 =( NAMED_UNIT ( * ) SI_UNIT ( $, .STERADIAN. ) SOLID_ANGLE_UNIT ( ) );
#339 = PRODUCT_DEFINITION ( 'UNKNOWN', '', #18, #335 ) ;
#340 = DIRECTION ( 'NONE',  ( 0.000000000000000000, 0.000000000000000000, 1.000000000000000000 ) ) ;
#341 = DIRECTION ( 'NONE',  ( -1.836970198721029441E-16, 1.000000000000000000, -0.000000000000000000 ) ) ;
#342 = CIRCLE ( 'NONE', #359, 0.2499999999999997502 ) ;
#343 = LINE ( 'NONE', #72, #257 ) ;
#344 = FILL_AREA_STYLE_COLOUR ( '', #273 ) ;
#345 = CARTESIAN_POINT ( 'NONE',  ( -1.224646799147352714E-16, 4.000000000000000000, 0.000000000000000000 ) ) ;
#346 =( LENGTH_UNIT ( ) NAMED_UNIT ( * ) SI_UNIT ( $, .METRE. ) );
#347 = CARTESIAN_POINT ( 'NONE',  ( 0.000000000000000000, 0.000000000000000000, 0.000000000000000000 ) ) ;
#348 = PRESENTATION_LAYER_ASSIGNMENT (  '', '', ( #55 ) ) ;
#349 = AXIS2_PLACEMENT_3D ( 'NONE', #88, #372, #203 ) ;
#350 = VERTEX_POINT ( 'NONE', #92 ) ;
#351 = VERTEX_POINT ( 'NONE', #143 ) ;
#352 = COLOUR_RGB ( '',0.7921568627450980005, 0.8196078431372548767, 0.9333333333333333481 ) ;
#353 = FACE_OUTER_BOUND ( 'NONE', #141, .T. ) ;
#354 = PRODUCT ( '49316', '49316', '', ( #50 ) ) ;
#355 =( NAMED_UNIT ( * ) SI_UNIT ( $, .STERADIAN. ) SOLID_ANGLE_UNIT ( ) );
#356 = ORIENTED_EDGE ( 'NONE', *, *, #64, .F. ) ;
#357 =( CONVERSION_BASED_UNIT ( 'INCH', #252 ) LENGTH_UNIT ( ) NAMED_UNIT ( #195 ) );
#358 = CIRCLE ( 'NONE', #171, 0.2499999999999997502 ) ;
#359 = AXIS2_PLACEMENT_3D ( 'NONE', #265, #3, #70 ) ;
#360 = DIRECTION ( 'NONE',  ( -0.000000000000000000, -1.000000000000000000, -0.000000000000000000 ) ) ;
#361 = CYLINDRICAL_SURFACE ( 'NONE', #248, 0.2499999999999998612 ) ;
#362 = AXIS2_PLACEMENT_3D ( 'NONE', #303, #329, #75 ) ;
#363 = FILL_AREA_STYLE_COLOUR ( '', #352 ) ;
#364 = DIRECTION ( 'NONE',  ( 1.000000000000000000, 0.000000000000000000, 0.000000000000000000 ) ) ;
#365 =( CONVERSION_BASED_UNIT ( 'INCH', #253 ) LENGTH_UNIT ( ) NAMED_UNIT ( #14 ) );
#366 = PRODUCT_RELATED_PRODUCT_CATEGORY ( 'part', '', ( #354 ) ) ;
#367 = UNCERTAINTY_MEASURE_WITH_UNIT (LENGTH_MEASURE( 1.000000000000000082E-05 ), #80, 'distance_accuracy_value', 'NONE');
#368 = CARTESIAN_POINT ( 'NONE',  ( -0.2499999999999998612, 4.000000000000000000, 0.000000000000000000 ) ) ;
#369 = ORIENTED_EDGE ( 'NONE', *, *, #313, .T. ) ;
#370 = DIRECTION ( 'NONE',  ( -0.000000000000000000, -1.000000000000000000, -0.000000000000000000 ) ) ;
#371 = VECTOR ( 'NONE', #56, 39.37007874015748143 ) ;
#372 = DIRECTION ( 'NONE',  ( -1.836970198721029441E-16, 1.000000000000000000, -0.000000000000000000 ) ) ;
#373 = ORIENTED_EDGE ( 'NONE', *, *, #155, .F. ) ;
ENDSEC;
END-ISO-10303-21;
