ISO-10303-21;
HEADER;
FILE_DESCRIPTION (( 'STEP AP214' ),
    '1' );
FILE_NAME ('Micro_RNC-250-24.STEP',
    '2021-09-03T17:36:33',
    ( '' ),
    ( '' ),
    'SwSTEP 2.0',
    'SolidWorks 2020',
    '' );
FILE_SCHEMA (( 'AUTOMOTIVE_DESIGN' ));
ENDSEC;

DATA;
#1 = EDGE_CURVE ( 'NONE', #113, #43, #124, .T. ) ;
#2 = AXIS2_PLACEMENT_3D ( 'NONE', #148, #38, #174 ) ;
#3 = UNCERTAINTY_MEASURE_WITH_UNIT (LENGTH_MEASURE( 1.000000000000000082E-05 ), #115, 'distance_accuracy_value', 'NONE');
#4 = VECTOR ( 'NONE', #151, 39.37007874015748143 ) ;
#5 = MECHANICAL_DESIGN_GEOMETRIC_PRESENTATION_REPRESENTATION (  '', ( #244 ), #26 ) ;
#6 = PRODUCT_CONTEXT ( 'NONE', #110, 'mechanical' ) ;
#7 = PRODUCT_DEFINITION_CONTEXT ( 'detailed design', #178, 'design' ) ;
#8 = CIRCLE ( 'NONE', #2, 0.1250000000000000000 ) ;
#9 = ORIENTED_EDGE ( 'NONE', *, *, #154, .F. ) ;
#10 = DIRECTION ( 'NONE',  ( 0.0000000000000000000, 0.0000000000000000000, 1.000000000000000000 ) ) ;
#11 = CARTESIAN_POINT ( 'NONE',  ( 0.1250000000000000000, 1.530808498934191509E-17, 0.1209999999999993858 ) ) ;
#12 = ORIENTED_EDGE ( 'NONE', *, *, #226, .F. ) ;
#13 = ADVANCED_FACE ( 'NONE', ( #16 ), #73, .F. ) ;
#14 = PRESENTATION_LAYER_ASSIGNMENT (  '', '', ( #244 ) ) ;
#15 = DIRECTION ( 'NONE',  ( -1.000000000000000000, 0.0000000000000000000, 0.0000000000000000000 ) ) ;
#16 = FACE_OUTER_BOUND ( 'NONE', #245, .T. ) ;
#17 = DIRECTION ( 'NONE',  ( -0.0000000000000000000, -0.0000000000000000000, -1.000000000000000000 ) ) ;
#18 = EDGE_CURVE ( 'NONE', #221, #138, #172, .T. ) ;
#19 = CIRCLE ( 'NONE', #219, 0.003999999999999994879 ) ;
#20 = DIRECTION ( 'NONE',  ( -1.000000000000000000, 0.0000000000000000000, 0.0000000000000000000 ) ) ;
#21 =( NAMED_UNIT ( * ) SI_UNIT ( $, .STERADIAN. ) SOLID_ANGLE_UNIT ( ) );
#22 = EDGE_CURVE ( 'NONE', #43, #113, #67, .T. ) ;
#23 = LINE ( 'NONE', #83, #161 ) ;
#24 = ORIENTED_EDGE ( 'NONE', *, *, #166, .F. ) ;
#25 = ORIENTED_EDGE ( 'NONE', *, *, #166, .T. ) ;
#26 =( GEOMETRIC_REPRESENTATION_CONTEXT ( 3 ) GLOBAL_UNCERTAINTY_ASSIGNED_CONTEXT ( ( #236 ) ) GLOBAL_UNIT_ASSIGNED_CONTEXT ( ( #40, #60, #61 ) ) REPRESENTATION_CONTEXT ( 'NONE', 'WORKASPACE' ) );
#27 = DIRECTION ( 'NONE',  ( -1.000000000000000000, 0.0000000000000000000, 0.0000000000000000000 ) ) ;
#28 = ORIENTED_EDGE ( 'NONE', *, *, #1, .F. ) ;
#29 = ORIENTED_EDGE ( 'NONE', *, *, #18, .T. ) ;
#30 = DIRECTION ( 'NONE',  ( 1.000000000000000000, 0.0000000000000000000, 0.0000000000000000000 ) ) ;
#31 = CARTESIAN_POINT ( 'NONE',  ( -0.003999999999999994879, -4.898587196589406797E-19, 4.000000000000000000 ) ) ;
#32 = LINE ( 'NONE', #190, #4 ) ;
#33 = CLOSED_SHELL ( 'NONE', ( #213, #195, #192, #196, #107, #13, #122, #55 ) ) ;
#34 = CYLINDRICAL_SURFACE ( 'NONE', #147, 0.1250000000000000000 ) ;
#35 = COLOUR_RGB ( '',0.7921568627450980005, 0.8196078431372548767, 0.9333333333333333481 ) ;
#36 = ORIENTED_EDGE ( 'NONE', *, *, #22, .T. ) ;
#37 = ORIENTED_EDGE ( 'NONE', *, *, #179, .T. ) ;
#38 = DIRECTION ( 'NONE',  ( -0.0000000000000000000, -0.0000000000000000000, -1.000000000000000000 ) ) ;
#39 = AXIS2_PLACEMENT_3D ( 'NONE', #112, #210, #91 ) ;
#40 =( CONVERSION_BASED_UNIT ( 'INCH', #56 ) LENGTH_UNIT ( ) NAMED_UNIT ( #163 ) );
#41 = VERTEX_POINT ( 'NONE', #164 ) ;
#42 = DIRECTION ( 'NONE',  ( 0.0000000000000000000, 0.0000000000000000000, 1.000000000000000000 ) ) ;
#43 = VERTEX_POINT ( 'NONE', #146 ) ;
#44 = PRODUCT_DEFINITION_FORMATION_WITH_SPECIFIED_SOURCE ( 'ANY', '', #119, .NOT_KNOWN. ) ;
#45 = LINE ( 'NONE', #204, #232 ) ;
#46 = ADVANCED_BREP_SHAPE_REPRESENTATION ( 'Micro_RNC-250-24', ( #176, #223 ), #156 ) ;
#47 = SURFACE_STYLE_FILL_AREA ( #225 ) ;
#48 = ORIENTED_EDGE ( 'NONE', *, *, #226, .T. ) ;
#49 = AXIS2_PLACEMENT_3D ( 'NONE', #194, #191, #150 ) ;
#50 = CARTESIAN_POINT ( 'NONE',  ( -0.1250000000000000000, 0.0000000000000000000, 0.1209999999999993858 ) ) ;
#51 = LINE ( 'NONE', #31, #97 ) ;
#52 = DIRECTION ( 'NONE',  ( -0.7071067811865493491, -8.659560562354955045E-17, -0.7071067811865457964 ) ) ;
#53 = CARTESIAN_POINT ( 'NONE',  ( -0.1250000000000000000, 0.0000000000000000000, 4.000000000000000000 ) ) ;
#54 = ORIENTED_EDGE ( 'NONE', *, *, #66, .T. ) ;
#55 = ADVANCED_FACE ( 'NONE', ( #233 ), #70, .T. ) ;
#56 = LENGTH_MEASURE_WITH_UNIT ( LENGTH_MEASURE( 0.02539999999999999897 ), #87 );
#57 = MECHANICAL_DESIGN_GEOMETRIC_PRESENTATION_REPRESENTATION (  '', ( #78 ), #215 ) ;
#58 = DIMENSIONAL_EXPONENTS ( 1.000000000000000000, 0.0000000000000000000, 0.0000000000000000000, 0.0000000000000000000, 0.0000000000000000000, 0.0000000000000000000, 0.0000000000000000000 ) ;
#59 = ORIENTED_EDGE ( 'NONE', *, *, #133, .F. ) ;
#60 =( NAMED_UNIT ( * ) PLANE_ANGLE_UNIT ( ) SI_UNIT ( $, .RADIAN. ) );
#61 =( NAMED_UNIT ( * ) SI_UNIT ( $, .STERADIAN. ) SOLID_ANGLE_UNIT ( ) );
#62 = EDGE_CURVE ( 'NONE', #41, #113, #51, .T. ) ;
#63 = FILL_AREA_STYLE_COLOUR ( '', #239 ) ;
#64 = ORIENTED_EDGE ( 'NONE', *, *, #65, .T. ) ;
#65 = EDGE_CURVE ( 'NONE', #185, #221, #77, .T. ) ;
#66 = EDGE_CURVE ( 'NONE', #43, #152, #32, .T. ) ;
#67 = CIRCLE ( 'NONE', #208, 0.1250000000000000000 ) ;
#68 = CIRCLE ( 'NONE', #142, 0.003999999999999994879 ) ;
#69 = ORIENTED_EDGE ( 'NONE', *, *, #1, .T. ) ;
#70 = PLANE ( 'NONE',  #100 ) ;
#71 = AXIS2_PLACEMENT_3D ( 'NONE', #104, #10, #149 ) ;
#72 = CONICAL_SURFACE ( 'NONE', #39, 0.003999999999999994879, 0.7853981633974508325 ) ;
#73 = PLANE ( 'NONE',  #71 ) ;
#74 = DIRECTION ( 'NONE',  ( -1.000000000000000000, 0.0000000000000000000, 0.0000000000000000000 ) ) ;
#75 = CARTESIAN_POINT ( 'NONE',  ( -0.003999999999999994879, 4.898587196589406797E-19, 0.0000000000000000000 ) ) ;
#76 = DIRECTION ( 'NONE',  ( -1.000000000000000000, 0.0000000000000000000, 0.0000000000000000000 ) ) ;
#77 = CIRCLE ( 'NONE', #130, 0.003999999999999994879 ) ;
#78 = STYLED_ITEM ( 'NONE', ( #217 ), #46 ) ;
#79 = DIRECTION ( 'NONE',  ( -0.0000000000000000000, -0.0000000000000000000, -1.000000000000000000 ) ) ;
#80 = EDGE_CURVE ( 'NONE', #117, #43, #23, .T. ) ;
#81 = FILL_AREA_STYLE ('',( #63 ) ) ;
#82 = CARTESIAN_POINT ( 'NONE',  ( 0.0000000000000000000, 0.0000000000000000000, 0.0000000000000000000 ) ) ;
#83 = CARTESIAN_POINT ( 'NONE',  ( 0.003999999999999994879, 0.0000000000000000000, 4.000000000000000000 ) ) ;
#84 = CONICAL_SURFACE ( 'NONE', #159, 0.003999999999999994879, 0.7853981633974508325 ) ;
#85 = FACE_OUTER_BOUND ( 'NONE', #247, .T. ) ;
#86 = PRODUCT_RELATED_PRODUCT_CATEGORY ( 'part', '', ( #119 ) ) ;
#87 =( LENGTH_UNIT ( ) NAMED_UNIT ( * ) SI_UNIT ( $, .METRE. ) );
#88 = DIRECTION ( 'NONE',  ( -0.7071067811865493491, 8.659560562354955045E-17, 0.7071067811865457964 ) ) ;
#89 = EDGE_LOOP ( 'NONE', ( #69, #54, #24, #12 ) ) ;
#90 = AXIS2_PLACEMENT_3D ( 'NONE', #240, #103, #165 ) ;
#91 = DIRECTION ( 'NONE',  ( 1.000000000000000000, 0.0000000000000000000, 0.0000000000000000000 ) ) ;
#92 = DIRECTION ( 'NONE',  ( 0.7071067811865493491, 0.0000000000000000000, -0.7071067811865457964 ) ) ;
#93 = DIRECTION ( 'NONE',  ( 0.0000000000000000000, 0.0000000000000000000, -1.000000000000000000 ) ) ;
#94 =( NAMED_UNIT ( * ) PLANE_ANGLE_UNIT ( ) SI_UNIT ( $, .RADIAN. ) );
#95 = CONICAL_SURFACE ( 'NONE', #49, 0.003999999999999994879, 0.7853981633974508325 ) ;
#96 = DIRECTION ( 'NONE',  ( 1.000000000000000000, 0.0000000000000000000, 0.0000000000000000000 ) ) ;
#97 = VECTOR ( 'NONE', #52, 39.37007874015748143 ) ;
#98 = EDGE_CURVE ( 'NONE', #221, #185, #19, .T. ) ;
#99 = ORIENTED_EDGE ( 'NONE', *, *, #199, .T. ) ;
#100 = AXIS2_PLACEMENT_3D ( 'NONE', #126, #229, #131 ) ;
#101 = PRESENTATION_STYLE_ASSIGNMENT (( #184 ) ) ;
#102 = AXIS2_PLACEMENT_3D ( 'NONE', #144, #160, #27 ) ;
#103 = DIRECTION ( 'NONE',  ( -0.0000000000000000000, -0.0000000000000000000, -1.000000000000000000 ) ) ;
#104 = CARTESIAN_POINT ( 'NONE',  ( 0.0000000000000000000, 0.0000000000000000000, 0.0000000000000000000 ) ) ;
#105 = UNCERTAINTY_MEASURE_WITH_UNIT (LENGTH_MEASURE( 1.000000000000000082E-05 ), #171, 'distance_accuracy_value', 'NONE');
#106 = ORIENTED_EDGE ( 'NONE', *, *, #98, .T. ) ;
#107 = ADVANCED_FACE ( 'NONE', ( #85 ), #84, .T. ) ;
#108 = CARTESIAN_POINT ( 'NONE',  ( 0.0000000000000000000, 0.0000000000000000000, 0.0000000000000000000 ) ) ;
#109 = DIRECTION ( 'NONE',  ( -0.0000000000000000000, -0.0000000000000000000, -1.000000000000000000 ) ) ;
#110 = APPLICATION_CONTEXT ( 'automotive_design' ) ;
#111 = ORIENTED_EDGE ( 'NONE', *, *, #199, .F. ) ;
#112 = CARTESIAN_POINT ( 'NONE',  ( 0.0000000000000000000, 0.0000000000000000000, 0.0000000000000000000 ) ) ;
#113 = VERTEX_POINT ( 'NONE', #238 ) ;
#114 = FACE_OUTER_BOUND ( 'NONE', #168, .T. ) ;
#115 =( CONVERSION_BASED_UNIT ( 'INCH', #137 ) LENGTH_UNIT ( ) NAMED_UNIT ( #58 ) );
#116 = CONICAL_SURFACE ( 'NONE', #153, 0.003999999999999994879, 0.7853981633974508325 ) ;
#117 = VERTEX_POINT ( 'NONE', #141 ) ;
#118 = APPLICATION_PROTOCOL_DEFINITION ( 'draft international standard', 'automotive_design', 1998, #110 ) ;
#119 = PRODUCT ( 'Micro_RNC-250-24', 'Micro_RNC-250-24', '', ( #6 ) ) ;
#120 = DIRECTION ( 'NONE',  ( 1.000000000000000000, 0.0000000000000000000, 0.0000000000000000000 ) ) ;
#121 = SURFACE_SIDE_STYLE ('',( #47 ) ) ;
#122 = ADVANCED_FACE ( 'NONE', ( #182 ), #116, .T. ) ;
#123 = DIRECTION ( 'NONE',  ( -1.000000000000000000, 0.0000000000000000000, 0.0000000000000000000 ) ) ;
#124 = CIRCLE ( 'NONE', #214, 0.1250000000000000000 ) ;
#125 = EDGE_LOOP ( 'NONE', ( #218, #99, #242, #28 ) ) ;
#126 = CARTESIAN_POINT ( 'NONE',  ( 0.0000000000000000000, 0.0000000000000000000, 4.000000000000000000 ) ) ;
#127 = CARTESIAN_POINT ( 'NONE',  ( 0.0000000000000000000, 0.0000000000000000000, 0.0000000000000000000 ) ) ;
#128 = CARTESIAN_POINT ( 'NONE',  ( 0.0000000000000000000, 0.0000000000000000000, 4.000000000000000000 ) ) ;
#129 = DIRECTION ( 'NONE',  ( -1.000000000000000000, 0.0000000000000000000, 0.0000000000000000000 ) ) ;
#130 = AXIS2_PLACEMENT_3D ( 'NONE', #127, #206, #170 ) ;
#131 = DIRECTION ( 'NONE',  ( 1.000000000000000000, 0.0000000000000000000, -0.0000000000000000000 ) ) ;
#132 = PRODUCT_DEFINITION ( 'UNKNOWN', '', #44, #7 ) ;
#133 = EDGE_CURVE ( 'NONE', #185, #152, #45, .T. ) ;
#134 = FACE_OUTER_BOUND ( 'NONE', #211, .T. ) ;
#135 = FACE_OUTER_BOUND ( 'NONE', #201, .T. ) ;
#136 = ORIENTED_EDGE ( 'NONE', *, *, #65, .F. ) ;
#137 = LENGTH_MEASURE_WITH_UNIT ( LENGTH_MEASURE( 0.02539999999999999897 ), #180 );
#138 = VERTEX_POINT ( 'NONE', #50 ) ;
#139 = CIRCLE ( 'NONE', #90, 0.1250000000000000000 ) ;
#140 = PRODUCT_DEFINITION_SHAPE ( 'NONE', 'NONE',  #132 ) ;
#141 = CARTESIAN_POINT ( 'NONE',  ( 0.003999999999999994879, 0.0000000000000000000, 4.000000000000000000 ) ) ;
#142 = AXIS2_PLACEMENT_3D ( 'NONE', #155, #248, #15 ) ;
#143 = FILL_AREA_STYLE_COLOUR ( '', #35 ) ;
#144 = CARTESIAN_POINT ( 'NONE',  ( 0.0000000000000000000, 0.0000000000000000000, 4.000000000000000000 ) ) ;
#145 = ORIENTED_EDGE ( 'NONE', *, *, #179, .F. ) ;
#146 = CARTESIAN_POINT ( 'NONE',  ( 0.1250000000000000000, 1.530808498934191509E-17, 3.879000000000000448 ) ) ;
#147 = AXIS2_PLACEMENT_3D ( 'NONE', #128, #79, #74 ) ;
#148 = CARTESIAN_POINT ( 'NONE',  ( 0.0000000000000000000, 0.0000000000000000000, 0.1209999999999993858 ) ) ;
#149 = DIRECTION ( 'NONE',  ( 1.000000000000000000, 0.0000000000000000000, -0.0000000000000000000 ) ) ;
#150 = DIRECTION ( 'NONE',  ( 1.000000000000000000, 0.0000000000000000000, 0.0000000000000000000 ) ) ;
#151 = DIRECTION ( 'NONE',  ( -0.0000000000000000000, -0.0000000000000000000, -1.000000000000000000 ) ) ;
#152 = VERTEX_POINT ( 'NONE', #11 ) ;
#153 = AXIS2_PLACEMENT_3D ( 'NONE', #243, #224, #30 ) ;
#154 = EDGE_CURVE ( 'NONE', #117, #41, #183, .T. ) ;
#155 = CARTESIAN_POINT ( 'NONE',  ( 0.0000000000000000000, 0.0000000000000000000, 4.000000000000000000 ) ) ;
#156 =( GEOMETRIC_REPRESENTATION_CONTEXT ( 3 ) GLOBAL_UNCERTAINTY_ASSIGNED_CONTEXT ( ( #105 ) ) GLOBAL_UNIT_ASSIGNED_CONTEXT ( ( #171, #94, #212 ) ) REPRESENTATION_CONTEXT ( 'NONE', 'WORKASPACE' ) );
#157 = ORIENTED_EDGE ( 'NONE', *, *, #80, .F. ) ;
#158 = ORIENTED_EDGE ( 'NONE', *, *, #62, .T. ) ;
#159 = AXIS2_PLACEMENT_3D ( 'NONE', #82, #228, #120 ) ;
#160 = DIRECTION ( 'NONE',  ( 0.0000000000000000000, 0.0000000000000000000, -1.000000000000000000 ) ) ;
#161 = VECTOR ( 'NONE', #92, 39.37007874015748143 ) ;
#162 = ORIENTED_EDGE ( 'NONE', *, *, #98, .F. ) ;
#163 = DIMENSIONAL_EXPONENTS ( 1.000000000000000000, 0.0000000000000000000, 0.0000000000000000000, 0.0000000000000000000, 0.0000000000000000000, 0.0000000000000000000, 0.0000000000000000000 ) ;
#164 = CARTESIAN_POINT ( 'NONE',  ( -0.003999999999999994879, -7.898971854500427644E-18, 4.000000000000000000 ) ) ;
#165 = DIRECTION ( 'NONE',  ( -1.000000000000000000, 0.0000000000000000000, 0.0000000000000000000 ) ) ;
#166 = EDGE_CURVE ( 'NONE', #138, #152, #139, .T. ) ;
#167 = PRESENTATION_LAYER_ASSIGNMENT (  '', '', ( #78 ) ) ;
#168 = EDGE_LOOP ( 'NONE', ( #227, #36, #48, #145 ) ) ;
#169 = CARTESIAN_POINT ( 'NONE',  ( 0.003999999999999994879, 0.0000000000000000000, 0.0000000000000000000 ) ) ;
#170 = DIRECTION ( 'NONE',  ( -1.000000000000000000, 0.0000000000000000000, 0.0000000000000000000 ) ) ;
#171 =( CONVERSION_BASED_UNIT ( 'INCH', #173 ) LENGTH_UNIT ( ) NAMED_UNIT ( #186 ) );
#172 = LINE ( 'NONE', #75, #175 ) ;
#173 = LENGTH_MEASURE_WITH_UNIT ( LENGTH_MEASURE( 0.02539999999999999897 ), #193 );
#174 = DIRECTION ( 'NONE',  ( -1.000000000000000000, 0.0000000000000000000, 0.0000000000000000000 ) ) ;
#175 = VECTOR ( 'NONE', #88, 39.37007874015748143 ) ;
#176 = MANIFOLD_SOLID_BREP ( 'Mirror1', #33 ) ;
#177 =( NAMED_UNIT ( * ) PLANE_ANGLE_UNIT ( ) SI_UNIT ( $, .RADIAN. ) );
#178 = APPLICATION_CONTEXT ( 'automotive_design' ) ;
#179 = EDGE_CURVE ( 'NONE', #152, #138, #8, .T. ) ;
#180 =( LENGTH_UNIT ( ) NAMED_UNIT ( * ) SI_UNIT ( $, .METRE. ) );
#181 = VECTOR ( 'NONE', #17, 39.37007874015748143 ) ;
#182 = FACE_OUTER_BOUND ( 'NONE', #125, .T. ) ;
#183 = CIRCLE ( 'NONE', #102, 0.003999999999999994879 ) ;
#184 = SURFACE_STYLE_USAGE ( .BOTH. , #121 ) ;
#185 = VERTEX_POINT ( 'NONE', #169 ) ;
#186 = DIMENSIONAL_EXPONENTS ( 1.000000000000000000, 0.0000000000000000000, 0.0000000000000000000, 0.0000000000000000000, 0.0000000000000000000, 0.0000000000000000000, 0.0000000000000000000 ) ;
#187 = DIRECTION ( 'NONE',  ( 0.7071067811865493491, 0.0000000000000000000, 0.7071067811865457964 ) ) ;
#188 = DIRECTION ( 'NONE',  ( 0.0000000000000000000, 0.0000000000000000000, -1.000000000000000000 ) ) ;
#189 = CARTESIAN_POINT ( 'NONE',  ( 0.0000000000000000000, 0.0000000000000000000, 4.000000000000000000 ) ) ;
#190 = CARTESIAN_POINT ( 'NONE',  ( 0.1250000000000000000, 1.530808498934191509E-17, 4.000000000000000000 ) ) ;
#191 = DIRECTION ( 'NONE',  ( 0.0000000000000000000, 0.0000000000000000000, -1.000000000000000000 ) ) ;
#192 = ADVANCED_FACE ( 'NONE', ( #207 ), #231, .T. ) ;
#193 =( LENGTH_UNIT ( ) NAMED_UNIT ( * ) SI_UNIT ( $, .METRE. ) );
#194 = CARTESIAN_POINT ( 'NONE',  ( 0.0000000000000000000, 0.0000000000000000000, 4.000000000000000000 ) ) ;
#195 = ADVANCED_FACE ( 'NONE', ( #134 ), #72, .T. ) ;
#196 = ADVANCED_FACE ( 'NONE', ( #114 ), #34, .T. ) ;
#197 = ORIENTED_EDGE ( 'NONE', *, *, #22, .F. ) ;
#198 = APPLICATION_PROTOCOL_DEFINITION ( 'draft international standard', 'automotive_design', 1998, #178 ) ;
#199 = EDGE_CURVE ( 'NONE', #41, #117, #68, .T. ) ;
#200 = DIRECTION ( 'NONE',  ( -0.0000000000000000000, -0.0000000000000000000, -1.000000000000000000 ) ) ;
#201 = EDGE_LOOP ( 'NONE', ( #246, #158, #197, #157 ) ) ;
#202 = AXIS2_PLACEMENT_3D ( 'NONE', #189, #109, #20 ) ;
#203 = EDGE_LOOP ( 'NONE', ( #9, #111 ) ) ;
#204 = CARTESIAN_POINT ( 'NONE',  ( 0.003999999999999994879, 0.0000000000000000000, 0.0000000000000000000 ) ) ;
#205 = CARTESIAN_POINT ( 'NONE',  ( 0.0000000000000000000, 0.0000000000000000000, 3.879000000000000448 ) ) ;
#206 = DIRECTION ( 'NONE',  ( -0.0000000000000000000, -0.0000000000000000000, -1.000000000000000000 ) ) ;
#207 = FACE_OUTER_BOUND ( 'NONE', #89, .T. ) ;
#208 = AXIS2_PLACEMENT_3D ( 'NONE', #230, #93, #76 ) ;
#209 = ORIENTED_EDGE ( 'NONE', *, *, #133, .T. ) ;
#210 = DIRECTION ( 'NONE',  ( 0.0000000000000000000, 0.0000000000000000000, 1.000000000000000000 ) ) ;
#211 = EDGE_LOOP ( 'NONE', ( #162, #29, #25, #59 ) ) ;
#212 =( NAMED_UNIT ( * ) SI_UNIT ( $, .STERADIAN. ) SOLID_ANGLE_UNIT ( ) );
#213 = ADVANCED_FACE ( 'NONE', ( #135 ), #95, .T. ) ;
#214 = AXIS2_PLACEMENT_3D ( 'NONE', #205, #188, #129 ) ;
#215 =( GEOMETRIC_REPRESENTATION_CONTEXT ( 3 ) GLOBAL_UNCERTAINTY_ASSIGNED_CONTEXT ( ( #3 ) ) GLOBAL_UNIT_ASSIGNED_CONTEXT ( ( #115, #177, #21 ) ) REPRESENTATION_CONTEXT ( 'NONE', 'WORKASPACE' ) );
#216 = CARTESIAN_POINT ( 'NONE',  ( -0.003999999999999994879, 7.898971854500427644E-18, 0.0000000000000000000 ) ) ;
#217 = PRESENTATION_STYLE_ASSIGNMENT (( #220 ) ) ;
#218 = ORIENTED_EDGE ( 'NONE', *, *, #62, .F. ) ;
#219 = AXIS2_PLACEMENT_3D ( 'NONE', #108, #200, #123 ) ;
#220 = SURFACE_STYLE_USAGE ( .BOTH. , #237 ) ;
#221 = VERTEX_POINT ( 'NONE', #216 ) ;
#222 = SURFACE_STYLE_FILL_AREA ( #81 ) ;
#223 = AXIS2_PLACEMENT_3D ( 'NONE', #249, #42, #96 ) ;
#224 = DIRECTION ( 'NONE',  ( 0.0000000000000000000, 0.0000000000000000000, -1.000000000000000000 ) ) ;
#225 = FILL_AREA_STYLE ('',( #143 ) ) ;
#226 = EDGE_CURVE ( 'NONE', #113, #138, #234, .T. ) ;
#227 = ORIENTED_EDGE ( 'NONE', *, *, #66, .F. ) ;
#228 = DIRECTION ( 'NONE',  ( 0.0000000000000000000, 0.0000000000000000000, 1.000000000000000000 ) ) ;
#229 = DIRECTION ( 'NONE',  ( 0.0000000000000000000, 0.0000000000000000000, 1.000000000000000000 ) ) ;
#230 = CARTESIAN_POINT ( 'NONE',  ( 0.0000000000000000000, 0.0000000000000000000, 3.879000000000000448 ) ) ;
#231 = CYLINDRICAL_SURFACE ( 'NONE', #202, 0.1250000000000000000 ) ;
#232 = VECTOR ( 'NONE', #187, 39.37007874015748143 ) ;
#233 = FACE_OUTER_BOUND ( 'NONE', #203, .T. ) ;
#234 = LINE ( 'NONE', #53, #181 ) ;
#235 = SHAPE_DEFINITION_REPRESENTATION ( #140, #46 ) ;
#236 = UNCERTAINTY_MEASURE_WITH_UNIT (LENGTH_MEASURE( 1.000000000000000082E-05 ), #40, 'distance_accuracy_value', 'NONE');
#237 = SURFACE_SIDE_STYLE ('',( #222 ) ) ;
#238 = CARTESIAN_POINT ( 'NONE',  ( -0.1250000000000000000, 0.0000000000000000000, 3.879000000000000448 ) ) ;
#239 = COLOUR_RGB ( '',0.7921568627450980005, 0.8196078431372548767, 0.9333333333333333481 ) ;
#240 = CARTESIAN_POINT ( 'NONE',  ( 0.0000000000000000000, 0.0000000000000000000, 0.1209999999999993858 ) ) ;
#241 = ORIENTED_EDGE ( 'NONE', *, *, #18, .F. ) ;
#242 = ORIENTED_EDGE ( 'NONE', *, *, #80, .T. ) ;
#243 = CARTESIAN_POINT ( 'NONE',  ( 0.0000000000000000000, 0.0000000000000000000, 4.000000000000000000 ) ) ;
#244 = STYLED_ITEM ( 'NONE', ( #101 ), #176 ) ;
#245 = EDGE_LOOP ( 'NONE', ( #64, #106 ) ) ;
#246 = ORIENTED_EDGE ( 'NONE', *, *, #154, .T. ) ;
#247 = EDGE_LOOP ( 'NONE', ( #241, #136, #209, #37 ) ) ;
#248 = DIRECTION ( 'NONE',  ( 0.0000000000000000000, 0.0000000000000000000, -1.000000000000000000 ) ) ;
#249 = CARTESIAN_POINT ( 'NONE',  ( 0.0000000000000000000, 0.0000000000000000000, 0.0000000000000000000 ) ) ;
ENDSEC;
END-ISO-10303-21;
