ISO-10303-21;
HEADER;
FILE_DESCRIPTION (( 'STEP AP214' ),
    '1' );
FILE_NAME ('Micro_AEMM-100-3X.STEP',
    '2022-03-15T14:30:14',
    ( '' ),
    ( '' ),
    'SwSTEP 2.0',
    'SolidWorks 2022',
    '' );
FILE_SCHEMA (( 'AUTOMOTIVE_DESIGN' ));
ENDSEC;

DATA;
#1 = FILL_AREA_STYLE_COLOUR ( '', #128 ) ;
#2 = EDGE_CURVE ( 'NONE', #36, #297, #16, .T. ) ;
#3 = VERTEX_POINT ( 'NONE', #146 ) ;
#4 = AXIS2_PLACEMENT_3D ( 'NONE', #167, #258, #51 ) ;
#5 = PRESENTATION_STYLE_ASSIGNMENT (( #145 ) ) ;
#6 = DIRECTION ( 'NONE',  ( -1.000000000000000000, 0.000000000000000000, 0.000000000000000000 ) ) ;
#7 = ORIENTED_EDGE ( 'NONE', *, *, #2, .T. ) ;
#8 = CIRCLE ( 'NONE', #84, 0.1968504999999999838 ) ;
#9 = DIRECTION ( 'NONE',  ( 1.000000000000000000, 0.000000000000000000, 0.000000000000000000 ) ) ;
#10 = DIRECTION ( 'NONE',  ( -1.224646799147353207E-16, -0.000000000000000000, -1.000000000000000000 ) ) ;
#11 = PRODUCT_CONTEXT ( 'NONE', #256, 'mechanical' ) ;
#12 = CARTESIAN_POINT ( 'NONE',  ( 1.205361061354380629E-16, 0.000000000000000000, 0.9842519999999999047 ) ) ;
#13 = ORIENTED_EDGE ( 'NONE', *, *, #264, .T. ) ;
#14 = CARTESIAN_POINT ( 'NONE',  ( 0.000000000000000000, 0.000000000000000000, 0.000000000000000000 ) ) ;
#15 = VERTEX_POINT ( 'NONE', #144 ) ;
#16 = CIRCLE ( 'NONE', #190, 0.1966536494999999996 ) ;
#17 = CIRCLE ( 'NONE', #242, 0.1966536494999999996 ) ;
#18 = ORIENTED_EDGE ( 'NONE', *, *, #253, .F. ) ;
#19 = PRODUCT_DEFINITION ( 'UNKNOWN', '', #90, #238 ) ;
#20 = CARTESIAN_POINT ( 'NONE',  ( 0.1968504999999999838, 2.410723347355560646E-17, 2.834646000000000665 ) ) ;
#21 = PRESENTATION_LAYER_ASSIGNMENT (  '', '', ( #234 ) ) ;
#22 = AXIS2_PLACEMENT_3D ( 'NONE', #151, #80, #174 ) ;
#23 = VECTOR ( 'NONE', #62, 39.37007874015748854 ) ;
#24 = DIRECTION ( 'NONE',  ( -1.224646799147353207E-16, -0.000000000000000000, -1.000000000000000000 ) ) ;
#25 =( NAMED_UNIT ( * ) PLANE_ANGLE_UNIT ( ) SI_UNIT ( $, .RADIAN. ) );
#26 = CARTESIAN_POINT ( 'NONE',  ( 0.000000000000000000, 0.000000000000000000, 0.000000000000000000 ) ) ;
#27 = SURFACE_SIDE_STYLE ('',( #235 ) ) ;
#28 = FACE_OUTER_BOUND ( 'NONE', #295, .T. ) ;
#29 = MECHANICAL_DESIGN_GEOMETRIC_PRESENTATION_REPRESENTATION (  '', ( #166 ), #133 ) ;
#30 = EDGE_CURVE ( 'NONE', #3, #57, #169, .T. ) ;
#31 = DIRECTION ( 'NONE',  ( 0.000000000000000000, 0.000000000000000000, -1.000000000000000000 ) ) ;
#32 = LINE ( 'NONE', #276, #23 ) ;
#33 = AXIS2_PLACEMENT_3D ( 'NONE', #241, #249, #41 ) ;
#34 = DIRECTION ( 'NONE',  ( -1.000000000000000000, 0.000000000000000000, 1.224646799147353207E-16 ) ) ;
#35 = ADVANCED_FACE ( 'NONE', ( #52 ), #237, .T. ) ;
#36 = VERTEX_POINT ( 'NONE', #83 ) ;
#37 = EDGE_LOOP ( 'NONE', ( #164, #187, #274, #78 ) ) ;
#38 = AXIS2_PLACEMENT_3D ( 'NONE', #12, #294, #204 ) ;
#39 = CARTESIAN_POINT ( 'NONE',  ( -0.1968504999999999838, 0.000000000000000000, 2.819646000000000097 ) ) ;
#40 = ORIENTED_EDGE ( 'NONE', *, *, #163, .F. ) ;
#41 = DIRECTION ( 'NONE',  ( 1.000000000000000000, 0.000000000000000000, 0.000000000000000000 ) ) ;
#42 = DIMENSIONAL_EXPONENTS ( 1.000000000000000000, 0.000000000000000000, 0.000000000000000000, 0.000000000000000000, 0.000000000000000000, 0.000000000000000000, 0.000000000000000000 ) ;
#43 = EDGE_LOOP ( 'NONE', ( #67, #184 ) ) ;
#44 = DIRECTION ( 'NONE',  ( -1.000000000000000000, 0.000000000000000000, 1.224646799147353207E-16 ) ) ;
#45 = ORIENTED_EDGE ( 'NONE', *, *, #191, .T. ) ;
#46 = VECTOR ( 'NONE', #24, 39.37007874015748143 ) ;
#47 = ADVANCED_FACE ( 'NONE', ( #178 ), #219, .T. ) ;
#48 = FACE_OUTER_BOUND ( 'NONE', #43, .T. ) ;
#49 = ADVANCED_BREP_SHAPE_REPRESENTATION ( 'Micro_AEMM-100-3X', ( #138, #299 ), #74 ) ;
#50 = CONICAL_SURFACE ( 'NONE', #38, 0.1966536494999999996, 0.1745329251994338360 ) ;
#51 = DIRECTION ( 'NONE',  ( -1.000000000000000000, 0.000000000000000000, 0.000000000000000000 ) ) ;
#52 = FACE_OUTER_BOUND ( 'NONE', #114, .T. ) ;
#53 =( CONVERSION_BASED_UNIT ( 'INCH', #147 ) LENGTH_UNIT ( ) NAMED_UNIT ( #275 ) );
#54 = CARTESIAN_POINT ( 'NONE',  ( 1.205361061354380629E-16, 0.000000000000000000, 0.9842519999999999047 ) ) ;
#55 = EDGE_CURVE ( 'NONE', #209, #3, #160, .T. ) ;
#56 =( LENGTH_UNIT ( ) NAMED_UNIT ( * ) SI_UNIT ( $, .METRE. ) );
#57 = VERTEX_POINT ( 'NONE', #61 ) ;
#58 =( LENGTH_UNIT ( ) NAMED_UNIT ( * ) SI_UNIT ( $, .METRE. ) );
#59 = AXIS2_PLACEMENT_3D ( 'NONE', #121, #217, #6 ) ;
#60 = LINE ( 'NONE', #165, #285 ) ;
#61 = CARTESIAN_POINT ( 'NONE',  ( -0.1968504999999998450, 0.000000000000000000, 0.9853683946618325695 ) ) ;
#62 = DIRECTION ( 'NONE',  ( 0.7071067811865354713, 8.659560562354783714E-17, -0.7071067811865594521 ) ) ;
#63 = ORIENTED_EDGE ( 'NONE', *, *, #155, .F. ) ;
#64 = FACE_OUTER_BOUND ( 'NONE', #111, .T. ) ;
#65 = ADVANCED_FACE ( 'NONE', ( #28 ), #97, .T. ) ;
#66 = DIRECTION ( 'NONE',  ( 1.000000000000000000, 0.000000000000000000, 0.000000000000000000 ) ) ;
#67 = ORIENTED_EDGE ( 'NONE', *, *, #225, .T. ) ;
#68 = LINE ( 'NONE', #70, #177 ) ;
#69 = VERTEX_POINT ( 'NONE', #104 ) ;
#70 = CARTESIAN_POINT ( 'NONE',  ( -0.1968504999999999838, 0.000000000000000000, 2.834646000000000665 ) ) ;
#71 = CARTESIAN_POINT ( 'NONE',  ( 0.1966536494999999996, 2.408312624008205170E-17, -2.408312624008205170E-17 ) ) ;
#72 = ORIENTED_EDGE ( 'NONE', *, *, #163, .T. ) ;
#73 = CARTESIAN_POINT ( 'NONE',  ( 1.205361061354380629E-16, 0.000000000000000000, 0.9842519999999999047 ) ) ;
#74 =( GEOMETRIC_REPRESENTATION_CONTEXT ( 3 ) GLOBAL_UNCERTAINTY_ASSIGNED_CONTEXT ( ( #141 ) ) GLOBAL_UNIT_ASSIGNED_CONTEXT ( ( #53, #25, #263 ) ) REPRESENTATION_CONTEXT ( 'NONE', 'WORKASPACE' ) );
#75 = LENGTH_MEASURE_WITH_UNIT ( LENGTH_MEASURE( 0.02539999999999999897 ), #56 );
#76 = ADVANCED_FACE ( 'NONE', ( #195 ), #82, .T. ) ;
#77 = CARTESIAN_POINT ( 'NONE',  ( 2.949332346337811403E-33, 0.000000000000000000, 2.408312624008205170E-17 ) ) ;
#78 = ORIENTED_EDGE ( 'NONE', *, *, #99, .F. ) ;
#79 = CIRCLE ( 'NONE', #281, 0.1818505000000002481 ) ;
#80 = DIRECTION ( 'NONE',  ( -0.000000000000000000, -0.000000000000000000, -1.000000000000000000 ) ) ;
#81 = APPLICATION_PROTOCOL_DEFINITION ( 'draft international standard', 'automotive_design', 1998, #256 ) ;
#82 = CYLINDRICAL_SURFACE ( 'NONE', #216, 0.1966536494999999996 ) ;
#83 = CARTESIAN_POINT ( 'NONE',  ( 0.1966536494999999996, 2.408312624008205170E-17, 0.000000000000000000 ) ) ;
#84 = AXIS2_PLACEMENT_3D ( 'NONE', #224, #10, #108 ) ;
#85 = CARTESIAN_POINT ( 'NONE',  ( 0.000000000000000000, 0.000000000000000000, 0.000000000000000000 ) ) ;
#86 =( NAMED_UNIT ( * ) SI_UNIT ( $, .STERADIAN. ) SOLID_ANGLE_UNIT ( ) );
#87 = CARTESIAN_POINT ( 'NONE',  ( -0.1818505000000002481, 0.000000000000000000, 2.834646000000000665 ) ) ;
#88 = FACE_OUTER_BOUND ( 'NONE', #131, .T. ) ;
#89 = LENGTH_MEASURE_WITH_UNIT ( LENGTH_MEASURE( 0.02539999999999999897 ), #154 );
#90 = PRODUCT_DEFINITION_FORMATION_WITH_SPECIFIED_SOURCE ( 'ANY', '', #194, .NOT_KNOWN. ) ;
#91 = EDGE_CURVE ( 'NONE', #57, #95, #277, .T. ) ;
#92 = DIRECTION ( 'NONE',  ( 1.000000000000000000, 0.000000000000000000, 0.000000000000000000 ) ) ;
#93 = VERTEX_POINT ( 'NONE', #129 ) ;
#94 = SURFACE_SIDE_STYLE ('',( #196 ) ) ;
#95 = VERTEX_POINT ( 'NONE', #185 ) ;
#96 = DIRECTION ( 'NONE',  ( -1.224646799147353207E-16, -0.000000000000000000, -1.000000000000000000 ) ) ;
#97 = CONICAL_SURFACE ( 'NONE', #59, 0.1818505000000002481, 0.7853981633974312926 ) ;
#98 = ORIENTED_EDGE ( 'NONE', *, *, #30, .F. ) ;
#99 = EDGE_CURVE ( 'NONE', #113, #57, #68, .T. ) ;
#100 = ADVANCED_FACE ( 'NONE', ( #231 ), #50, .T. ) ;
#101 = FACE_OUTER_BOUND ( 'NONE', #236, .T. ) ;
#102 = ORIENTED_EDGE ( 'NONE', *, *, #168, .F. ) ;
#103 = COLOUR_RGB ( '',0.7921568627450980005, 0.8196078431372548767, 0.9333333333333333481 ) ;
#104 = CARTESIAN_POINT ( 'NONE',  ( -0.1818505000000002481, 0.000000000000000000, 2.834646000000000665 ) ) ;
#105 = FILL_AREA_STYLE ('',( #218 ) ) ;
#106 = EDGE_CURVE ( 'NONE', #95, #57, #8, .T. ) ;
#107 = ORIENTED_EDGE ( 'NONE', *, *, #254, .T. ) ;
#108 = DIRECTION ( 'NONE',  ( 1.000000000000000000, 0.000000000000000000, 0.000000000000000000 ) ) ;
#109 = DIRECTION ( 'NONE',  ( 1.000000000000000000, 0.000000000000000000, -0.000000000000000000 ) ) ;
#110 = FACE_OUTER_BOUND ( 'NONE', #259, .T. ) ;
#111 = EDGE_LOOP ( 'NONE', ( #284, #45, #206, #118 ) ) ;
#112 = DIRECTION ( 'NONE',  ( -1.224646799147353207E-16, -0.000000000000000000, -1.000000000000000000 ) ) ;
#113 = VERTEX_POINT ( 'NONE', #39 ) ;
#114 = EDGE_LOOP ( 'NONE', ( #40, #132, #13, #127 ) ) ;
#115 = CARTESIAN_POINT ( 'NONE',  ( 2.949332346337811403E-33, 0.000000000000000000, 2.408312624008205170E-17 ) ) ;
#116 = ADVANCED_FACE ( 'NONE', ( #110 ), #212, .T. ) ;
#117 = ADVANCED_FACE ( 'NONE', ( #88 ), #181, .F. ) ;
#118 = ORIENTED_EDGE ( 'NONE', *, *, #211, .F. ) ;
#119 = MECHANICAL_DESIGN_GEOMETRIC_PRESENTATION_REPRESENTATION (  '', ( #234 ), #255 ) ;
#120 =( NAMED_UNIT ( * ) PLANE_ANGLE_UNIT ( ) SI_UNIT ( $, .RADIAN. ) );
#121 = CARTESIAN_POINT ( 'NONE',  ( 0.000000000000000000, 0.000000000000000000, 2.834646000000000665 ) ) ;
#122 = VECTOR ( 'NONE', #162, 39.37007874015748854 ) ;
#123 = DIRECTION ( 'NONE',  ( -1.000000000000000000, 0.000000000000000000, 1.224646799147353207E-16 ) ) ;
#124 = APPLICATION_CONTEXT ( 'automotive_design' ) ;
#125 = PRODUCT_RELATED_PRODUCT_CATEGORY ( 'part', '', ( #194 ) ) ;
#126 = DIRECTION ( 'NONE',  ( 0.1736481776669313304, 0.000000000000000000, 0.9848077530122077983 ) ) ;
#127 = ORIENTED_EDGE ( 'NONE', *, *, #2, .F. ) ;
#128 = COLOUR_RGB ( '',0.7921568627450980005, 0.8196078431372548767, 0.9333333333333333481 ) ;
#129 = CARTESIAN_POINT ( 'NONE',  ( 0.1968504999999999838, 2.410723347355560646E-17, 2.819646000000000097 ) ) ;
#130 =( NAMED_UNIT ( * ) PLANE_ANGLE_UNIT ( ) SI_UNIT ( $, .RADIAN. ) );
#131 = EDGE_LOOP ( 'NONE', ( #107, #7 ) ) ;
#132 = ORIENTED_EDGE ( 'NONE', *, *, #55, .T. ) ;
#133 =( GEOMETRIC_REPRESENTATION_CONTEXT ( 3 ) GLOBAL_UNCERTAINTY_ASSIGNED_CONTEXT ( ( #173 ) ) GLOBAL_UNIT_ASSIGNED_CONTEXT ( ( #243, #130, #86 ) ) REPRESENTATION_CONTEXT ( 'NONE', 'WORKASPACE' ) );
#134 = ADVANCED_FACE ( 'NONE', ( #64 ), #260, .T. ) ;
#135 = SHAPE_DEFINITION_REPRESENTATION ( #205, #49 ) ;
#136 = CARTESIAN_POINT ( 'NONE',  ( 0.1966536495000001383, 0.000000000000000000, 0.9842519999999999047 ) ) ;
#137 = CARTESIAN_POINT ( 'NONE',  ( -0.1966536494999999996, 0.000000000000000000, 2.408312624008205170E-17 ) ) ;
#138 = MANIFOLD_SOLID_BREP ( 'Cut-Revolve1', #280 ) ;
#139 = CIRCLE ( 'NONE', #230, 0.1966536494999999996 ) ;
#140 = ADVANCED_FACE ( 'NONE', ( #101 ), #283, .T. ) ;
#141 = UNCERTAINTY_MEASURE_WITH_UNIT (LENGTH_MEASURE( 1.000000000000000082E-05 ), #53, 'distance_accuracy_value', 'NONE');
#142 = AXIS2_PLACEMENT_3D ( 'NONE', #296, #150, #9 ) ;
#143 = ADVANCED_FACE ( 'NONE', ( #48 ), #286, .T. ) ;
#144 = CARTESIAN_POINT ( 'NONE',  ( 0.1818505000000002481, 2.318874837419510283E-17, 2.834646000000000665 ) ) ;
#145 = SURFACE_STYLE_USAGE ( .BOTH. , #27 ) ;
#146 = CARTESIAN_POINT ( 'NONE',  ( -0.1966536494999998608, 2.409517985681882600E-17, 0.9842519999999999047 ) ) ;
#147 = LENGTH_MEASURE_WITH_UNIT ( LENGTH_MEASURE( 0.02539999999999999897 ), #58 );
#148 = ORIENTED_EDGE ( 'NONE', *, *, #225, .F. ) ;
#149 = EDGE_CURVE ( 'NONE', #15, #69, #79, .T. ) ;
#150 = DIRECTION ( 'NONE',  ( 0.000000000000000000, 0.000000000000000000, -1.000000000000000000 ) ) ;
#151 = CARTESIAN_POINT ( 'NONE',  ( 0.000000000000000000, 0.000000000000000000, 2.834646000000000665 ) ) ;
#152 = DIRECTION ( 'NONE',  ( -0.000000000000000000, -0.000000000000000000, -1.000000000000000000 ) ) ;
#153 = DIRECTION ( 'NONE',  ( -1.224646799147353207E-16, -0.000000000000000000, -1.000000000000000000 ) ) ;
#154 =( LENGTH_UNIT ( ) NAMED_UNIT ( * ) SI_UNIT ( $, .METRE. ) );
#155 = EDGE_CURVE ( 'NONE', #209, #95, #60, .T. ) ;
#156 = ORIENTED_EDGE ( 'NONE', *, *, #106, .T. ) ;
#157 = CARTESIAN_POINT ( 'NONE',  ( 0.000000000000000000, 0.000000000000000000, 2.834646000000000665 ) ) ;
#158 = ORIENTED_EDGE ( 'NONE', *, *, #168, .T. ) ;
#159 = CARTESIAN_POINT ( 'NONE',  ( 1.206728250503579029E-16, 0.000000000000000000, 0.9853683946618325695 ) ) ;
#160 = CIRCLE ( 'NONE', #223, 0.1966536494999999996 ) ;
#161 = CIRCLE ( 'NONE', #142, 0.1968504999999999838 ) ;
#162 = DIRECTION ( 'NONE',  ( -0.7071067811865354713, 0.000000000000000000, -0.7071067811865594521 ) ) ;
#163 = EDGE_CURVE ( 'NONE', #209, #36, #202, .T. ) ;
#164 = ORIENTED_EDGE ( 'NONE', *, *, #201, .T. ) ;
#165 = CARTESIAN_POINT ( 'NONE',  ( 0.1966536495000001383, 0.000000000000000000, 0.9842519999999999047 ) ) ;
#166 = STYLED_ITEM ( 'NONE', ( #270 ), #49 ) ;
#167 = CARTESIAN_POINT ( 'NONE',  ( 0.000000000000000000, 0.000000000000000000, 2.834646000000000665 ) ) ;
#168 = EDGE_CURVE ( 'NONE', #93, #113, #161, .T. ) ;
#169 = LINE ( 'NONE', #262, #229 ) ;
#170 = ORIENTED_EDGE ( 'NONE', *, *, #155, .T. ) ;
#171 = CIRCLE ( 'NONE', #33, 0.1818505000000002481 ) ;
#172 = DIRECTION ( 'NONE',  ( -1.000000000000000000, 0.000000000000000000, 1.224646799147353207E-16 ) ) ;
#173 = UNCERTAINTY_MEASURE_WITH_UNIT (LENGTH_MEASURE( 1.000000000000000082E-05 ), #243, 'distance_accuracy_value', 'NONE');
#174 = DIRECTION ( 'NONE',  ( -1.000000000000000000, 0.000000000000000000, 0.000000000000000000 ) ) ;
#175 =( CONVERSION_BASED_UNIT ( 'INCH', #75 ) LENGTH_UNIT ( ) NAMED_UNIT ( #42 ) );
#176 = CARTESIAN_POINT ( 'NONE',  ( 0.000000000000000000, 0.000000000000000000, 0.000000000000000000 ) ) ;
#177 = VECTOR ( 'NONE', #247, 39.37007874015748143 ) ;
#178 = FACE_OUTER_BOUND ( 'NONE', #37, .T. ) ;
#179 = CARTESIAN_POINT ( 'NONE',  ( 0.000000000000000000, 0.000000000000000000, 2.834646000000000665 ) ) ;
#180 = DIRECTION ( 'NONE',  ( 0.000000000000000000, 0.000000000000000000, 1.000000000000000000 ) ) ;
#181 = PLANE ( 'NONE',  #282 ) ;
#182 = APPLICATION_PROTOCOL_DEFINITION ( 'draft international standard', 'automotive_design', 1998, #124 ) ;
#183 = AXIS2_PLACEMENT_3D ( 'NONE', #292, #267, #252 ) ;
#184 = ORIENTED_EDGE ( 'NONE', *, *, #149, .T. ) ;
#185 = CARTESIAN_POINT ( 'NONE',  ( 0.1968505000000001226, 2.410723347355561878E-17, 0.9853683946618325695 ) ) ;
#186 = SURFACE_STYLE_USAGE ( .BOTH. , #94 ) ;
#187 = ORIENTED_EDGE ( 'NONE', *, *, #253, .T. ) ;
#188 = AXIS2_PLACEMENT_3D ( 'NONE', #159, #112, #226 ) ;
#189 = DIRECTION ( 'NONE',  ( -1.000000000000000000, 0.000000000000000000, 0.000000000000000000 ) ) ;
#190 = AXIS2_PLACEMENT_3D ( 'NONE', #77, #214, #172 ) ;
#191 = EDGE_CURVE ( 'NONE', #15, #93, #32, .T. ) ;
#192 = FILL_AREA_STYLE ('',( #1 ) ) ;
#193 = VECTOR ( 'NONE', #222, 39.37007874015748143 ) ;
#194 = PRODUCT ( 'Micro_AEMM-100-3X', 'Micro_AEMM-100-3X', '', ( #11 ) ) ;
#195 = FACE_OUTER_BOUND ( 'NONE', #278, .T. ) ;
#196 = SURFACE_STYLE_FILL_AREA ( #105 ) ;
#197 = LINE ( 'NONE', #87, #122 ) ;
#198 = CIRCLE ( 'NONE', #183, 0.1968504999999999838 ) ;
#199 = CARTESIAN_POINT ( 'NONE',  ( 1.205361061354380629E-16, 0.000000000000000000, 0.9842519999999999047 ) ) ;
#200 = ORIENTED_EDGE ( 'NONE', *, *, #30, .T. ) ;
#201 = EDGE_CURVE ( 'NONE', #113, #93, #198, .T. ) ;
#202 = LINE ( 'NONE', #71, #193 ) ;
#203 = ORIENTED_EDGE ( 'NONE', *, *, #91, .T. ) ;
#204 = DIRECTION ( 'NONE',  ( 1.000000000000000000, 0.000000000000000000, 0.000000000000000000 ) ) ;
#205 = PRODUCT_DEFINITION_SHAPE ( 'NONE', 'NONE',  #19 ) ;
#206 = ORIENTED_EDGE ( 'NONE', *, *, #201, .F. ) ;
#207 = ORIENTED_EDGE ( 'NONE', *, *, #257, .T. ) ;
#208 = DIRECTION ( 'NONE',  ( -1.224646799147353207E-16, -0.000000000000000000, -1.000000000000000000 ) ) ;
#209 = VERTEX_POINT ( 'NONE', #136 ) ;
#210 = VECTOR ( 'NONE', #152, 39.37007874015748143 ) ;
#211 = EDGE_CURVE ( 'NONE', #69, #113, #197, .T. ) ;
#212 = CONICAL_SURFACE ( 'NONE', #248, 0.1966536494999999996, 0.1745329251994338360 ) ;
#213 =( NAMED_UNIT ( * ) SI_UNIT ( $, .STERADIAN. ) SOLID_ANGLE_UNIT ( ) );
#214 = DIRECTION ( 'NONE',  ( -1.224646799147353207E-16, -0.000000000000000000, -1.000000000000000000 ) ) ;
#215 = DIRECTION ( 'NONE',  ( -0.1736481776669311639, 2.126576849575782392E-17, 0.9848077530122080203 ) ) ;
#216 = AXIS2_PLACEMENT_3D ( 'NONE', #176, #153, #34 ) ;
#217 = DIRECTION ( 'NONE',  ( 0.000000000000000000, 0.000000000000000000, -1.000000000000000000 ) ) ;
#218 = FILL_AREA_STYLE_COLOUR ( '', #103 ) ;
#219 = CYLINDRICAL_SURFACE ( 'NONE', #22, 0.1968504999999999838 ) ;
#220 = DIRECTION ( 'NONE',  ( 0.000000000000000000, 0.000000000000000000, 1.000000000000000000 ) ) ;
#221 = EDGE_LOOP ( 'NONE', ( #251, #200, #203, #63 ) ) ;
#222 = DIRECTION ( 'NONE',  ( -1.224646799147353207E-16, -0.000000000000000000, -1.000000000000000000 ) ) ;
#223 = AXIS2_PLACEMENT_3D ( 'NONE', #54, #288, #239 ) ;
#224 = CARTESIAN_POINT ( 'NONE',  ( 1.206728250503579029E-16, 0.000000000000000000, 0.9853683946618325695 ) ) ;
#225 = EDGE_CURVE ( 'NONE', #69, #15, #171, .T. ) ;
#226 = DIRECTION ( 'NONE',  ( 1.000000000000000000, 0.000000000000000000, 0.000000000000000000 ) ) ;
#227 = ORIENTED_EDGE ( 'NONE', *, *, #106, .F. ) ;
#228 = ORIENTED_EDGE ( 'NONE', *, *, #191, .F. ) ;
#229 = VECTOR ( 'NONE', #215, 39.37007874015747433 ) ;
#230 = AXIS2_PLACEMENT_3D ( 'NONE', #73, #96, #189 ) ;
#231 = FACE_OUTER_BOUND ( 'NONE', #221, .T. ) ;
#232 = LINE ( 'NONE', #20, #210 ) ;
#233 = AXIS2_PLACEMENT_3D ( 'NONE', #269, #220, #109 ) ;
#234 = STYLED_ITEM ( 'NONE', ( #5 ), #138 ) ;
#235 = SURFACE_STYLE_FILL_AREA ( #192 ) ;
#236 = EDGE_LOOP ( 'NONE', ( #18, #158, #265, #227 ) ) ;
#237 = CYLINDRICAL_SURFACE ( 'NONE', #246, 0.1966536494999999996 ) ;
#238 = PRODUCT_DEFINITION_CONTEXT ( 'detailed design', #124, 'design' ) ;
#239 = DIRECTION ( 'NONE',  ( -1.000000000000000000, 0.000000000000000000, 0.000000000000000000 ) ) ;
#240 = DIRECTION ( 'NONE',  ( 1.000000000000000000, 0.000000000000000000, 0.000000000000000000 ) ) ;
#241 = CARTESIAN_POINT ( 'NONE',  ( 0.000000000000000000, 0.000000000000000000, 2.834646000000000665 ) ) ;
#242 = AXIS2_PLACEMENT_3D ( 'NONE', #115, #208, #44 ) ;
#243 =( CONVERSION_BASED_UNIT ( 'INCH', #89 ) LENGTH_UNIT ( ) NAMED_UNIT ( #250 ) );
#244 = ORIENTED_EDGE ( 'NONE', *, *, #211, .T. ) ;
#245 = ORIENTED_EDGE ( 'NONE', *, *, #55, .F. ) ;
#246 = AXIS2_PLACEMENT_3D ( 'NONE', #26, #287, #123 ) ;
#247 = DIRECTION ( 'NONE',  ( -0.000000000000000000, -0.000000000000000000, -1.000000000000000000 ) ) ;
#248 = AXIS2_PLACEMENT_3D ( 'NONE', #199, #290, #92 ) ;
#249 = DIRECTION ( 'NONE',  ( 0.000000000000000000, 0.000000000000000000, 1.000000000000000000 ) ) ;
#250 = DIMENSIONAL_EXPONENTS ( 1.000000000000000000, 0.000000000000000000, 0.000000000000000000, 0.000000000000000000, 0.000000000000000000, 0.000000000000000000, 0.000000000000000000 ) ;
#251 = ORIENTED_EDGE ( 'NONE', *, *, #257, .F. ) ;
#252 = DIRECTION ( 'NONE',  ( 1.000000000000000000, 0.000000000000000000, 0.000000000000000000 ) ) ;
#253 = EDGE_CURVE ( 'NONE', #93, #95, #232, .T. ) ;
#254 = EDGE_CURVE ( 'NONE', #297, #36, #17, .T. ) ;
#255 =( GEOMETRIC_REPRESENTATION_CONTEXT ( 3 ) GLOBAL_UNCERTAINTY_ASSIGNED_CONTEXT ( ( #298 ) ) GLOBAL_UNIT_ASSIGNED_CONTEXT ( ( #175, #120, #213 ) ) REPRESENTATION_CONTEXT ( 'NONE', 'WORKASPACE' ) );
#256 = APPLICATION_CONTEXT ( 'automotive_design' ) ;
#257 = EDGE_CURVE ( 'NONE', #3, #209, #139, .T. ) ;
#258 = DIRECTION ( 'NONE',  ( -0.000000000000000000, -0.000000000000000000, -1.000000000000000000 ) ) ;
#259 = EDGE_LOOP ( 'NONE', ( #98, #245, #170, #156 ) ) ;
#260 = CONICAL_SURFACE ( 'NONE', #289, 0.1818505000000002481, 0.7853981633974312926 ) ;
#261 = DIRECTION ( 'NONE',  ( -1.000000000000000000, 0.000000000000000000, 0.000000000000000000 ) ) ;
#262 = CARTESIAN_POINT ( 'NONE',  ( -0.1966536494999998608, 2.408312624008205170E-17, 0.9842519999999999047 ) ) ;
#263 =( NAMED_UNIT ( * ) SI_UNIT ( $, .STERADIAN. ) SOLID_ANGLE_UNIT ( ) );
#264 = EDGE_CURVE ( 'NONE', #3, #297, #279, .T. ) ;
#265 = ORIENTED_EDGE ( 'NONE', *, *, #99, .T. ) ;
#266 = DIRECTION ( 'NONE',  ( 0.000000000000000000, 0.000000000000000000, 1.000000000000000000 ) ) ;
#267 = DIRECTION ( 'NONE',  ( 0.000000000000000000, 0.000000000000000000, -1.000000000000000000 ) ) ;
#268 = CARTESIAN_POINT ( 'NONE',  ( -0.1966536494999999996, 0.000000000000000000, 4.816625248016410340E-17 ) ) ;
#269 = CARTESIAN_POINT ( 'NONE',  ( 0.000000000000000000, 0.000000000000000000, 2.834646000000000665 ) ) ;
#270 = PRESENTATION_STYLE_ASSIGNMENT (( #186 ) ) ;
#271 = PRESENTATION_LAYER_ASSIGNMENT (  '', '', ( #166 ) ) ;
#272 = DIRECTION ( 'NONE',  ( 1.000000000000000000, 0.000000000000000000, -0.000000000000000000 ) ) ;
#273 = DIRECTION ( 'NONE',  ( 0.000000000000000000, 0.000000000000000000, 1.000000000000000000 ) ) ;
#274 = ORIENTED_EDGE ( 'NONE', *, *, #91, .F. ) ;
#275 = DIMENSIONAL_EXPONENTS ( 1.000000000000000000, 0.000000000000000000, 0.000000000000000000, 0.000000000000000000, 0.000000000000000000, 0.000000000000000000, 0.000000000000000000 ) ;
#276 = CARTESIAN_POINT ( 'NONE',  ( 0.1818505000000002481, 2.227026327483460228E-17, 2.834646000000000665 ) ) ;
#277 = CIRCLE ( 'NONE', #188, 0.1968504999999999838 ) ;
#278 = EDGE_LOOP ( 'NONE', ( #207, #72, #293, #291 ) ) ;
#279 = LINE ( 'NONE', #137, #46 ) ;
#280 = CLOSED_SHELL ( 'NONE', ( #76, #100, #134, #47, #140, #143, #65, #116, #35, #117 ) ) ;
#281 = AXIS2_PLACEMENT_3D ( 'NONE', #179, #266, #240 ) ;
#282 = AXIS2_PLACEMENT_3D ( 'NONE', #85, #180, #272 ) ;
#283 = CYLINDRICAL_SURFACE ( 'NONE', #4, 0.1968504999999999838 ) ;
#284 = ORIENTED_EDGE ( 'NONE', *, *, #149, .F. ) ;
#285 = VECTOR ( 'NONE', #126, 39.37007874015748143 ) ;
#286 = PLANE ( 'NONE',  #233 ) ;
#287 = DIRECTION ( 'NONE',  ( -1.224646799147353207E-16, -0.000000000000000000, -1.000000000000000000 ) ) ;
#288 = DIRECTION ( 'NONE',  ( -1.224646799147353207E-16, -0.000000000000000000, -1.000000000000000000 ) ) ;
#289 = AXIS2_PLACEMENT_3D ( 'NONE', #157, #31, #261 ) ;
#290 = DIRECTION ( 'NONE',  ( 1.224646799147353207E-16, 0.000000000000000000, 1.000000000000000000 ) ) ;
#291 = ORIENTED_EDGE ( 'NONE', *, *, #264, .F. ) ;
#292 = CARTESIAN_POINT ( 'NONE',  ( 0.000000000000000000, 0.000000000000000000, 2.819646000000000097 ) ) ;
#293 = ORIENTED_EDGE ( 'NONE', *, *, #254, .F. ) ;
#294 = DIRECTION ( 'NONE',  ( 1.224646799147353207E-16, 0.000000000000000000, 1.000000000000000000 ) ) ;
#295 = EDGE_LOOP ( 'NONE', ( #228, #148, #244, #102 ) ) ;
#296 = CARTESIAN_POINT ( 'NONE',  ( 0.000000000000000000, 0.000000000000000000, 2.819646000000000097 ) ) ;
#297 = VERTEX_POINT ( 'NONE', #268 ) ;
#298 = UNCERTAINTY_MEASURE_WITH_UNIT (LENGTH_MEASURE( 1.000000000000000082E-05 ), #175, 'distance_accuracy_value', 'NONE');
#299 = AXIS2_PLACEMENT_3D ( 'NONE', #14, #273, #66 ) ;
ENDSEC;
END-ISO-10303-21;
