ISO-10303-21;
HEADER;
FILE_DESCRIPTION (( 'STEP AP214' ),
    '1' );
FILE_NAME ('59833.STEP',
    '2023-06-22T22:55:12',
    ( '' ),
    ( '' ),
    'SwSTEP 2.0',
    'SolidWorks 2023',
    '' );
FILE_SCHEMA (( 'AUTOMOTIVE_DESIGN' ));
ENDSEC;

DATA;
#1 = AXIS2_PLACEMENT_3D ( 'NONE', #302, #234, #111 ) ;
#2 = FILL_AREA_STYLE ('',( #146 ) ) ;
#3 = FILL_AREA_STYLE_COLOUR ( '', #32 ) ;
#4 = DIRECTION ( 'NONE',  ( -0.000000000000000000, -1.000000000000000000, -0.000000000000000000 ) ) ;
#5 = PRESENTATION_LAYER_ASSIGNMENT (  '', '', ( #217 ) ) ;
#6 = AXIS2_PLACEMENT_3D ( 'NONE', #273, #274, #105 ) ;
#7 = LENGTH_MEASURE_WITH_UNIT ( LENGTH_MEASURE( 0.02539999999999999897 ), #253 );
#8 = CARTESIAN_POINT ( 'NONE',  ( 0.000000000000000000, 0.000000000000000000, 0.000000000000000000 ) ) ;
#9 = CIRCLE ( 'NONE', #211, 0.06249999999999945877 ) ;
#10 = UNCERTAINTY_MEASURE_WITH_UNIT (LENGTH_MEASURE( 1.000000000000000082E-05 ), #109, 'distance_accuracy_value', 'NONE');
#11 = ORIENTED_EDGE ( 'NONE', *, *, #192, .T. ) ;
#12 = DIRECTION ( 'NONE',  ( -1.000000000000000000, 0.000000000000000000, 0.000000000000000000 ) ) ;
#13 = FILL_AREA_STYLE ('',( #37 ) ) ;
#14 = ORIENTED_EDGE ( 'NONE', *, *, #178, .T. ) ;
#15 = MECHANICAL_DESIGN_GEOMETRIC_PRESENTATION_REPRESENTATION (  '', ( #163 ), #289 ) ;
#16 = LINE ( 'NONE', #229, #294 ) ;
#17 = EDGE_LOOP ( 'NONE', ( #140, #259 ) ) ;
#18 = DIRECTION ( 'NONE',  ( 0.000000000000000000, 0.000000000000000000, 1.000000000000000000 ) ) ;
#19 = EDGE_LOOP ( 'NONE', ( #118, #53 ) ) ;
#20 = CLOSED_SHELL ( 'NONE', ( #135, #31, #103, #49 ) ) ;
#21 = VECTOR ( 'NONE', #183, 39.37007874015748143 ) ;
#22 =( CONVERSION_BASED_UNIT ( 'INCH', #66 ) LENGTH_UNIT ( ) NAMED_UNIT ( #176 ) );
#23 =( NAMED_UNIT ( * ) SI_UNIT ( $, .STERADIAN. ) SOLID_ANGLE_UNIT ( ) );
#24 = SURFACE_STYLE_USAGE ( .BOTH. , #44 ) ;
#25 = AXIS2_PLACEMENT_3D ( 'NONE', #267, #101, #216 ) ;
#26 = CIRCLE ( 'NONE', #202, 0.06250000000000001388 ) ;
#27 = DIRECTION ( 'NONE',  ( 0.000000000000000000, 0.000000000000000000, -1.000000000000000000 ) ) ;
#28 = FILL_AREA_STYLE_COLOUR ( '', #116 ) ;
#29 =( CONVERSION_BASED_UNIT ( 'INCH', #7 ) LENGTH_UNIT ( ) NAMED_UNIT ( #76 ) );
#30 = DIRECTION ( 'NONE',  ( 4.408728476930472137E-16, 1.000000000000000000, -0.000000000000000000 ) ) ;
#31 = ADVANCED_FACE ( 'NONE', ( #301 ), #191, .T. ) ;
#32 = COLOUR_RGB ( '',0.7921568627450980005, 0.8196078431372548767, 0.9333333333333333481 ) ;
#33 = FACE_OUTER_BOUND ( 'NONE', #230, .T. ) ;
#34 =( GEOMETRIC_REPRESENTATION_CONTEXT ( 3 ) GLOBAL_UNCERTAINTY_ASSIGNED_CONTEXT ( ( #86 ) ) GLOBAL_UNIT_ASSIGNED_CONTEXT ( ( #29, #179, #221 ) ) REPRESENTATION_CONTEXT ( 'NONE', 'WORKASPACE' ) );
#35 = ORIENTED_EDGE ( 'NONE', *, *, #285, .F. ) ;
#36 = ORIENTED_EDGE ( 'NONE', *, *, #178, .F. ) ;
#37 = FILL_AREA_STYLE_COLOUR ( '', #131 ) ;
#38 = CARTESIAN_POINT ( 'NONE',  ( 0.000000000000000000, 0.000000000000000000, -0.06250000000000001388 ) ) ;
#39 = PRODUCT_RELATED_PRODUCT_CATEGORY ( 'part', '', ( #110 ) ) ;
#40 =( CONVERSION_BASED_UNIT ( 'INCH', #61 ) LENGTH_UNIT ( ) NAMED_UNIT ( #150 ) );
#41 = DIRECTION ( 'NONE',  ( 4.408728476930472137E-16, 1.000000000000000000, -0.000000000000000000 ) ) ;
#42 = ADVANCED_FACE ( 'NONE', ( #74 ), #246, .F. ) ;
#43 = SURFACE_STYLE_USAGE ( .BOTH. , #308 ) ;
#44 = SURFACE_SIDE_STYLE ('',( #266 ) ) ;
#45 =( CONVERSION_BASED_UNIT ( 'INCH', #247 ) LENGTH_UNIT ( ) NAMED_UNIT ( #271 ) );
#46 = STYLED_ITEM ( 'NONE', ( #127 ), #49 ) ;
#47 = CARTESIAN_POINT ( 'NONE',  ( 0.000000000000000000, 0.000000000000000000, 0.000000000000000000 ) ) ;
#48 = DIRECTION ( 'NONE',  ( -0.000000000000000000, -1.000000000000000000, -0.000000000000000000 ) ) ;
#49 = ADVANCED_FACE ( 'NONE', ( #125 ), #270, .T. ) ;
#50 = PRESENTATION_STYLE_ASSIGNMENT (( #157 ) ) ;
#51 =( CONVERSION_BASED_UNIT ( 'INCH', #250 ) LENGTH_UNIT ( ) NAMED_UNIT ( #224 ) );
#52 = DIRECTION ( 'NONE',  ( -0.000000000000000000, -1.000000000000000000, -0.000000000000000000 ) ) ;
#53 = ORIENTED_EDGE ( 'NONE', *, *, #205, .F. ) ;
#54 =( GEOMETRIC_REPRESENTATION_CONTEXT ( 3 ) GLOBAL_UNCERTAINTY_ASSIGNED_CONTEXT ( ( #226 ) ) GLOBAL_UNIT_ASSIGNED_CONTEXT ( ( #40, #239, #147 ) ) REPRESENTATION_CONTEXT ( 'NONE', 'WORKASPACE' ) );
#55 = VECTOR ( 'NONE', #165, 39.37007874015748143 ) ;
#56 = DIRECTION ( 'NONE',  ( -0.000000000000000000, -1.000000000000000000, -0.000000000000000000 ) ) ;
#57 = PRESENTATION_LAYER_ASSIGNMENT (  '', '', ( #182 ) ) ;
#58 = ORIENTED_EDGE ( 'NONE', *, *, #288, .F. ) ;
#59 = LINE ( 'NONE', #38, #55 ) ;
#60 = DIRECTION ( 'NONE',  ( -0.000000000000000000, -1.000000000000000000, -0.000000000000000000 ) ) ;
#61 = LENGTH_MEASURE_WITH_UNIT ( LENGTH_MEASURE( 0.02539999999999999897 ), #236 );
#62 = FILL_AREA_STYLE ('',( #142 ) ) ;
#63 = SURFACE_STYLE_FILL_AREA ( #13 ) ;
#64 = CIRCLE ( 'NONE', #237, 0.06250000000000001388 ) ;
#65 = CARTESIAN_POINT ( 'NONE',  ( 5.510910596163089556E-16, 1.499999999999999778, 0.000000000000000000 ) ) ;
#66 = LENGTH_MEASURE_WITH_UNIT ( LENGTH_MEASURE( 0.02539999999999999897 ), #197 );
#67 = CYLINDRICAL_SURFACE ( 'NONE', #297, 0.06249999999999974326 ) ;
#68 = ADVANCED_BREP_SHAPE_REPRESENTATION ( '59833', ( #291, #70, #102 ), #89 ) ;
#69 = PRODUCT_DEFINITION_FORMATION_WITH_SPECIFIED_SOURCE ( 'ANY', '', #110, .NOT_KNOWN. ) ;
#70 = MANIFOLD_SOLID_BREP ( 'Revolve - Tool Body (Straight Shanked)', #204 ) ;
#71 = DIMENSIONAL_EXPONENTS ( 1.000000000000000000, 0.000000000000000000, 0.000000000000000000, 0.000000000000000000, 0.000000000000000000, 0.000000000000000000, 0.000000000000000000 ) ;
#72 = SURFACE_STYLE_FILL_AREA ( #2 ) ;
#73 = LENGTH_MEASURE_WITH_UNIT ( LENGTH_MEASURE( 0.02539999999999999897 ), #220 );
#74 = FACE_OUTER_BOUND ( 'NONE', #162, .T. ) ;
#75 = MECHANICAL_DESIGN_GEOMETRIC_PRESENTATION_REPRESENTATION (  '', ( #198 ), #252 ) ;
#76 = DIMENSIONAL_EXPONENTS ( 1.000000000000000000, 0.000000000000000000, 0.000000000000000000, 0.000000000000000000, 0.000000000000000000, 0.000000000000000000, 0.000000000000000000 ) ;
#77 = CIRCLE ( 'NONE', #159, 0.06249999999999945877 ) ;
#78 = UNCERTAINTY_MEASURE_WITH_UNIT (LENGTH_MEASURE( 1.000000000000000082E-05 ), #45, 'distance_accuracy_value', 'NONE');
#79 =( NAMED_UNIT ( * ) SI_UNIT ( $, .STERADIAN. ) SOLID_ANGLE_UNIT ( ) );
#80 =( LENGTH_UNIT ( ) NAMED_UNIT ( * ) SI_UNIT ( $, .METRE. ) );
#81 = MECHANICAL_DESIGN_GEOMETRIC_PRESENTATION_REPRESENTATION (  '', ( #217 ), #54 ) ;
#82 = MECHANICAL_DESIGN_GEOMETRIC_PRESENTATION_REPRESENTATION (  '', ( #182 ), #34 ) ;
#83 = SURFACE_STYLE_USAGE ( .BOTH. , #134 ) ;
#84 = CARTESIAN_POINT ( 'NONE',  ( -0.06249999999999918815, 1.499999999999999778, 0.000000000000000000 ) ) ;
#85 = VERTEX_POINT ( 'NONE', #296 ) ;
#86 = UNCERTAINTY_MEASURE_WITH_UNIT (LENGTH_MEASURE( 1.000000000000000082E-05 ), #29, 'distance_accuracy_value', 'NONE');
#87 = DIRECTION ( 'NONE',  ( 4.408728476930472631E-16, 1.000000000000000000, -0.000000000000000000 ) ) ;
#88 = ORIENTED_EDGE ( 'NONE', *, *, #235, .F. ) ;
#89 =( GEOMETRIC_REPRESENTATION_CONTEXT ( 3 ) GLOBAL_UNCERTAINTY_ASSIGNED_CONTEXT ( ( #143 ) ) GLOBAL_UNIT_ASSIGNED_CONTEXT ( ( #22, #269, #23 ) ) REPRESENTATION_CONTEXT ( 'NONE', 'WORKASPACE' ) );
#90 = FACE_OUTER_BOUND ( 'NONE', #284, .T. ) ;
#91 = VERTEX_POINT ( 'NONE', #129 ) ;
#92 = SURFACE_SIDE_STYLE ('',( #227 ) ) ;
#93 = VERTEX_POINT ( 'NONE', #107 ) ;
#94 = DIRECTION ( 'NONE',  ( 0.000000000000000000, 0.000000000000000000, -1.000000000000000000 ) ) ;
#95 = ORIENTED_EDGE ( 'NONE', *, *, #242, .T. ) ;
#96 = PRESENTATION_LAYER_ASSIGNMENT (  '', '', ( #46 ) ) ;
#97 = CARTESIAN_POINT ( 'NONE',  ( 0.000000000000000000, 0.000000000000000000, 0.000000000000000000 ) ) ;
#98 = EDGE_CURVE ( 'NONE', #93, #306, #219, .T. ) ;
#99 = PRESENTATION_STYLE_ASSIGNMENT (( #43 ) ) ;
#100 = CARTESIAN_POINT ( 'NONE',  ( 0.000000000000000000, 0.2499999999999998057, 0.000000000000000000 ) ) ;
#101 = DIRECTION ( 'NONE',  ( 0.000000000000000000, 1.000000000000000000, 0.000000000000000000 ) ) ;
#102 = AXIS2_PLACEMENT_3D ( 'NONE', #97, #18, #121 ) ;
#103 = ADVANCED_FACE ( 'NONE', ( #251 ), #153, .T. ) ;
#104 = FILL_AREA_STYLE ('',( #171 ) ) ;
#105 = DIRECTION ( 'NONE',  ( 0.000000000000000000, 0.000000000000000000, -1.000000000000000000 ) ) ;
#106 = COLOUR_RGB ( '',0.7921568627450980005, 0.8196078431372548767, 0.9333333333333333481 ) ;
#107 = CARTESIAN_POINT ( 'NONE',  ( 0.000000000000000000, 0.2499999999999998057, -0.06250000000000001388 ) ) ;
#108 = MECHANICAL_DESIGN_GEOMETRIC_PRESENTATION_REPRESENTATION (  '', ( #249 ), #199 ) ;
#109 =( CONVERSION_BASED_UNIT ( 'INCH', #254 ) LENGTH_UNIT ( ) NAMED_UNIT ( #71 ) );
#110 = PRODUCT ( '59833', '59833', '', ( #286 ) ) ;
#111 = DIRECTION ( 'NONE',  ( -1.000000000000000000, 0.000000000000000000, 0.000000000000000000 ) ) ;
#112 = UNCERTAINTY_MEASURE_WITH_UNIT (LENGTH_MEASURE( 1.000000000000000082E-05 ), #51, 'distance_accuracy_value', 'NONE');
#113 = LINE ( 'NONE', #193, #264 ) ;
#114 = SURFACE_SIDE_STYLE ('',( #63 ) ) ;
#115 = AXIS2_PLACEMENT_3D ( 'NONE', #309, #151, #248 ) ;
#116 = COLOUR_RGB ( '',1.000000000000000000, 0.000000000000000000, 0.000000000000000000 ) ;
#117 = PLANE ( 'NONE',  #304 ) ;
#118 = ORIENTED_EDGE ( 'NONE', *, *, #98, .F. ) ;
#119 = LINE ( 'NONE', #84, #21 ) ;
#120 = ORIENTED_EDGE ( 'NONE', *, *, #205, .T. ) ;
#121 = DIRECTION ( 'NONE',  ( 1.000000000000000000, 0.000000000000000000, 0.000000000000000000 ) ) ;
#122 = CARTESIAN_POINT ( 'NONE',  ( 0.000000000000000000, 0.000000000000000000, 0.000000000000000000 ) ) ;
#123 = FILL_AREA_STYLE ('',( #3 ) ) ;
#124 = AXIS2_PLACEMENT_3D ( 'NONE', #298, #56, #283 ) ;
#125 = FACE_OUTER_BOUND ( 'NONE', #17, .T. ) ;
#126 = SURFACE_SIDE_STYLE ('',( #287 ) ) ;
#127 = PRESENTATION_STYLE_ASSIGNMENT (( #24 ) ) ;
#128 = PRODUCT_DEFINITION_CONTEXT ( 'detailed design', #154, 'design' ) ;
#129 = CARTESIAN_POINT ( 'NONE',  ( -0.06249999999999890365, 1.499999999999999778, 0.000000000000000000 ) ) ;
#130 = ADVANCED_FACE ( 'NONE', ( #190 ), #209, .T. ) ;
#131 = COLOUR_RGB ( '',1.000000000000000000, 0.000000000000000000, 0.000000000000000000 ) ;
#132 = FILL_AREA_STYLE ('',( #28 ) ) ;
#133 = AXIS2_PLACEMENT_3D ( 'NONE', #272, #48, #27 ) ;
#134 = SURFACE_SIDE_STYLE ('',( #160 ) ) ;
#135 = ADVANCED_FACE ( 'NONE', ( #90 ), #282, .T. ) ;
#136 = CARTESIAN_POINT ( 'NONE',  ( -0.06250000000000001388, 0.2499999999999998335, 0.000000000000000000 ) ) ;
#137 =( GEOMETRIC_REPRESENTATION_CONTEXT ( 3 ) GLOBAL_UNCERTAINTY_ASSIGNED_CONTEXT ( ( #203 ) ) GLOBAL_UNIT_ASSIGNED_CONTEXT ( ( #174, #175, #292 ) ) REPRESENTATION_CONTEXT ( 'NONE', 'WORKASPACE' ) );
#138 = PRESENTATION_LAYER_ASSIGNMENT (  '', '', ( #163 ) ) ;
#139 = CARTESIAN_POINT ( 'NONE',  ( 0.000000000000000000, 0.2499999999999998057, 0.000000000000000000 ) ) ;
#140 = ORIENTED_EDGE ( 'NONE', *, *, #255, .T. ) ;
#141 = PRODUCT_DEFINITION ( 'UNKNOWN', '', #69, #128 ) ;
#142 = FILL_AREA_STYLE_COLOUR ( '', #152 ) ;
#143 = UNCERTAINTY_MEASURE_WITH_UNIT (LENGTH_MEASURE( 1.000000000000000082E-05 ), #22, 'distance_accuracy_value', 'NONE');
#144 = DIRECTION ( 'NONE',  ( -4.408728476930472631E-16, -1.000000000000000000, 0.000000000000000000 ) ) ;
#145 = APPLICATION_PROTOCOL_DEFINITION ( 'draft international standard', 'automotive_design', 1998, #225 ) ;
#146 = FILL_AREA_STYLE_COLOUR ( '', #106 ) ;
#147 =( NAMED_UNIT ( * ) SI_UNIT ( $, .STERADIAN. ) SOLID_ANGLE_UNIT ( ) );
#148 = DIRECTION ( 'NONE',  ( 0.000000000000000000, 0.000000000000000000, -1.000000000000000000 ) ) ;
#149 = DIRECTION ( 'NONE',  ( 0.000000000000000000, -1.000000000000000000, -0.000000000000000000 ) ) ;
#150 = DIMENSIONAL_EXPONENTS ( 1.000000000000000000, 0.000000000000000000, 0.000000000000000000, 0.000000000000000000, 0.000000000000000000, 0.000000000000000000, 0.000000000000000000 ) ;
#151 = DIRECTION ( 'NONE',  ( 4.408728476930472631E-16, 1.000000000000000000, -0.000000000000000000 ) ) ;
#152 = COLOUR_RGB ( '',1.000000000000000000, 0.000000000000000000, 0.000000000000000000 ) ;
#153 = CYLINDRICAL_SURFACE ( 'NONE', #133, 0.06250000000000001388 ) ;
#154 = APPLICATION_CONTEXT ( 'automotive_design' ) ;
#155 = SHAPE_DEFINITION_REPRESENTATION ( #206, #68 ) ;
#156 =( NAMED_UNIT ( * ) PLANE_ANGLE_UNIT ( ) SI_UNIT ( $, .RADIAN. ) );
#157 = SURFACE_STYLE_USAGE ( .BOTH. , #126 ) ;
#158 = DIRECTION ( 'NONE',  ( 4.408728476930472137E-16, 1.000000000000000000, -0.000000000000000000 ) ) ;
#159 = AXIS2_PLACEMENT_3D ( 'NONE', #231, #168, #12 ) ;
#160 = SURFACE_STYLE_FILL_AREA ( #132 ) ;
#161 = DIRECTION ( 'NONE',  ( 0.000000000000000000, 0.000000000000000000, -1.000000000000000000 ) ) ;
#162 = EDGE_LOOP ( 'NONE', ( #58, #307 ) ) ;
#163 = STYLED_ITEM ( 'NONE', ( #305 ), #135 ) ;
#164 = ORIENTED_EDGE ( 'NONE', *, *, #228, .T. ) ;
#165 = DIRECTION ( 'NONE',  ( -0.000000000000000000, -1.000000000000000000, -0.000000000000000000 ) ) ;
#166 = ORIENTED_EDGE ( 'NONE', *, *, #293, .F. ) ;
#167 = CARTESIAN_POINT ( 'NONE',  ( 7.654042494670959086E-18, 0.2499999999999998057, 0.06250000000000001388 ) ) ;
#168 = DIRECTION ( 'NONE',  ( 4.408728476930472137E-16, 1.000000000000000000, -0.000000000000000000 ) ) ;
#169 = ORIENTED_EDGE ( 'NONE', *, *, #288, .T. ) ;
#170 = AXIS2_PLACEMENT_3D ( 'NONE', #276, #52, #161 ) ;
#171 = FILL_AREA_STYLE_COLOUR ( '', #195 ) ;
#172 = DIRECTION ( 'NONE',  ( 4.408728476930472137E-16, 1.000000000000000000, -0.000000000000000000 ) ) ;
#173 =( LENGTH_UNIT ( ) NAMED_UNIT ( * ) SI_UNIT ( $, .METRE. ) );
#174 =( CONVERSION_BASED_UNIT ( 'INCH', #73 ) LENGTH_UNIT ( ) NAMED_UNIT ( #295 ) );
#175 =( NAMED_UNIT ( * ) PLANE_ANGLE_UNIT ( ) SI_UNIT ( $, .RADIAN. ) );
#176 = DIMENSIONAL_EXPONENTS ( 1.000000000000000000, 0.000000000000000000, 0.000000000000000000, 0.000000000000000000, 0.000000000000000000, 0.000000000000000000, 0.000000000000000000 ) ;
#177 = AXIS2_PLACEMENT_3D ( 'NONE', #47, #149, #148 ) ;
#178 = EDGE_CURVE ( 'NONE', #91, #85, #77, .T. ) ;
#179 =( NAMED_UNIT ( * ) PLANE_ANGLE_UNIT ( ) SI_UNIT ( $, .RADIAN. ) );
#180 = EDGE_CURVE ( 'NONE', #277, #189, #64, .T. ) ;
#181 =( NAMED_UNIT ( * ) SI_UNIT ( $, .STERADIAN. ) SOLID_ANGLE_UNIT ( ) );
#182 = STYLED_ITEM ( 'NONE', ( #201 ), #103 ) ;
#183 = DIRECTION ( 'NONE',  ( 4.408728476930472631E-16, 1.000000000000000000, -0.000000000000000000 ) ) ;
#184 = ORIENTED_EDGE ( 'NONE', *, *, #180, .T. ) ;
#185 = FACE_OUTER_BOUND ( 'NONE', #241, .T. ) ;
#186 = MECHANICAL_DESIGN_GEOMETRIC_PRESENTATION_REPRESENTATION (  '', ( #46 ), #137 ) ;
#187 = ORIENTED_EDGE ( 'NONE', *, *, #235, .T. ) ;
#188 = CARTESIAN_POINT ( 'NONE',  ( 0.06250000000000001388, 1.499999999999999778, 0.000000000000000000 ) ) ;
#189 = VERTEX_POINT ( 'NONE', #136 ) ;
#190 = FACE_OUTER_BOUND ( 'NONE', #194, .T. ) ;
#191 = PLANE ( 'NONE',  #25 ) ;
#192 = EDGE_CURVE ( 'NONE', #277, #85, #113, .T. ) ;
#193 = CARTESIAN_POINT ( 'NONE',  ( 0.06250000000000029143, 1.499999999999999778, 7.654042494670926730E-18 ) ) ;
#194 = EDGE_LOOP ( 'NONE', ( #169, #11, #36, #299 ) ) ;
#195 = COLOUR_RGB ( '',1.000000000000000000, 0.000000000000000000, 0.000000000000000000 ) ;
#196 = AXIS2_PLACEMENT_3D ( 'NONE', #100, #172, #290 ) ;
#197 =( LENGTH_UNIT ( ) NAMED_UNIT ( * ) SI_UNIT ( $, .METRE. ) );
#198 = STYLED_ITEM ( 'NONE', ( #50 ), #70 ) ;
#199 =( GEOMETRIC_REPRESENTATION_CONTEXT ( 3 ) GLOBAL_UNCERTAINTY_ASSIGNED_CONTEXT ( ( #78 ) ) GLOBAL_UNIT_ASSIGNED_CONTEXT ( ( #45, #156, #79 ) ) REPRESENTATION_CONTEXT ( 'NONE', 'WORKASPACE' ) );
#200 = ADVANCED_FACE ( 'NONE', ( #185 ), #117, .F. ) ;
#201 = PRESENTATION_STYLE_ASSIGNMENT (( #83 ) ) ;
#202 = AXIS2_PLACEMENT_3D ( 'NONE', #122, #4, #215 ) ;
#203 = UNCERTAINTY_MEASURE_WITH_UNIT (LENGTH_MEASURE( 1.000000000000000082E-05 ), #174, 'distance_accuracy_value', 'NONE');
#204 = CLOSED_SHELL ( 'NONE', ( #130, #42, #275, #200 ) ) ;
#205 = EDGE_CURVE ( 'NONE', #306, #93, #257, .T. ) ;
#206 = PRODUCT_DEFINITION_SHAPE ( 'NONE', 'NONE',  #141 ) ;
#207 = ORIENTED_EDGE ( 'NONE', *, *, #228, .F. ) ;
#208 =( LENGTH_UNIT ( ) NAMED_UNIT ( * ) SI_UNIT ( $, .METRE. ) );
#209 = CYLINDRICAL_SURFACE ( 'NONE', #1, 0.06249999999999974326 ) ;
#210 = PRESENTATION_STYLE_ASSIGNMENT (( #281 ) ) ;
#211 = AXIS2_PLACEMENT_3D ( 'NONE', #213, #158, #233 ) ;
#212 = SURFACE_STYLE_USAGE ( .BOTH. , #92 ) ;
#213 = CARTESIAN_POINT ( 'NONE',  ( 5.510910596163089556E-16, 1.499999999999999778, 0.000000000000000000 ) ) ;
#214 = PRESENTATION_LAYER_ASSIGNMENT (  '', '', ( #198 ) ) ;
#215 = DIRECTION ( 'NONE',  ( 0.000000000000000000, 0.000000000000000000, -1.000000000000000000 ) ) ;
#216 = DIRECTION ( 'NONE',  ( 0.000000000000000000, -0.000000000000000000, 1.000000000000000000 ) ) ;
#217 = STYLED_ITEM ( 'NONE', ( #210 ), #31 ) ;
#218 = CARTESIAN_POINT ( 'NONE',  ( 7.654042494670959086E-18, 0.000000000000000000, 0.06250000000000001388 ) ) ;
#219 = CIRCLE ( 'NONE', #6, 0.06250000000000001388 ) ;
#220 =( LENGTH_UNIT ( ) NAMED_UNIT ( * ) SI_UNIT ( $, .METRE. ) );
#221 =( NAMED_UNIT ( * ) SI_UNIT ( $, .STERADIAN. ) SOLID_ANGLE_UNIT ( ) );
#222 =( NAMED_UNIT ( * ) PLANE_ANGLE_UNIT ( ) SI_UNIT ( $, .RADIAN. ) );
#223 = CIRCLE ( 'NONE', #196, 0.06250000000000001388 ) ;
#224 = DIMENSIONAL_EXPONENTS ( 1.000000000000000000, 0.000000000000000000, 0.000000000000000000, 0.000000000000000000, 0.000000000000000000, 0.000000000000000000, 0.000000000000000000 ) ;
#225 = APPLICATION_CONTEXT ( 'automotive_design' ) ;
#226 = UNCERTAINTY_MEASURE_WITH_UNIT (LENGTH_MEASURE( 1.000000000000000082E-05 ), #40, 'distance_accuracy_value', 'NONE');
#227 = SURFACE_STYLE_FILL_AREA ( #62 ) ;
#228 = EDGE_CURVE ( 'NONE', #93, #232, #59, .T. ) ;
#229 = CARTESIAN_POINT ( 'NONE',  ( 7.654042494670959086E-18, 0.000000000000000000, 0.06250000000000001388 ) ) ;
#230 = EDGE_LOOP ( 'NONE', ( #261, #184, #95, #166 ) ) ;
#231 = CARTESIAN_POINT ( 'NONE',  ( 5.510910596163089556E-16, 1.499999999999999778, 0.000000000000000000 ) ) ;
#232 = VERTEX_POINT ( 'NONE', #238 ) ;
#233 = DIRECTION ( 'NONE',  ( -1.000000000000000000, 0.000000000000000000, 0.000000000000000000 ) ) ;
#234 = DIRECTION ( 'NONE',  ( 4.408728476930472137E-16, 1.000000000000000000, -0.000000000000000000 ) ) ;
#235 = EDGE_CURVE ( 'NONE', #306, #279, #16, .T. ) ;
#236 =( LENGTH_UNIT ( ) NAMED_UNIT ( * ) SI_UNIT ( $, .METRE. ) );
#237 = AXIS2_PLACEMENT_3D ( 'NONE', #139, #30, #262 ) ;
#238 = CARTESIAN_POINT ( 'NONE',  ( 0.000000000000000000, 0.000000000000000000, -0.06250000000000001388 ) ) ;
#239 =( NAMED_UNIT ( * ) PLANE_ANGLE_UNIT ( ) SI_UNIT ( $, .RADIAN. ) );
#240 = APPLICATION_PROTOCOL_DEFINITION ( 'draft international standard', 'automotive_design', 1998, #154 ) ;
#241 = EDGE_LOOP ( 'NONE', ( #14, #265 ) ) ;
#242 = EDGE_CURVE ( 'NONE', #189, #91, #119, .T. ) ;
#243 = CARTESIAN_POINT ( 'NONE',  ( 0.06250000000000001388, 0.2499999999999997502, 7.654042494670943678E-18 ) ) ;
#244 = CIRCLE ( 'NONE', #170, 0.06250000000000001388 ) ;
#245 = AXIS2_PLACEMENT_3D ( 'NONE', #8, #60, #94 ) ;
#246 = PLANE ( 'NONE',  #115 ) ;
#247 = LENGTH_MEASURE_WITH_UNIT ( LENGTH_MEASURE( 0.02539999999999999897 ), #173 );
#248 = DIRECTION ( 'NONE',  ( -1.000000000000000000, 4.408728476930472631E-16, 0.000000000000000000 ) ) ;
#249 = STYLED_ITEM ( 'NONE', ( #99 ), #291 ) ;
#250 = LENGTH_MEASURE_WITH_UNIT ( LENGTH_MEASURE( 0.02539999999999999897 ), #80 );
#251 = FACE_OUTER_BOUND ( 'NONE', #263, .T. ) ;
#252 =( GEOMETRIC_REPRESENTATION_CONTEXT ( 3 ) GLOBAL_UNCERTAINTY_ASSIGNED_CONTEXT ( ( #112 ) ) GLOBAL_UNIT_ASSIGNED_CONTEXT ( ( #51, #222, #181 ) ) REPRESENTATION_CONTEXT ( 'NONE', 'WORKASPACE' ) );
#253 =( LENGTH_UNIT ( ) NAMED_UNIT ( * ) SI_UNIT ( $, .METRE. ) );
#254 = LENGTH_MEASURE_WITH_UNIT ( LENGTH_MEASURE( 0.02539999999999999897 ), #208 );
#255 = EDGE_CURVE ( 'NONE', #232, #279, #244, .T. ) ;
#256 = ORIENTED_EDGE ( 'NONE', *, *, #255, .F. ) ;
#257 = CIRCLE ( 'NONE', #124, 0.06250000000000001388 ) ;
#258 =( NAMED_UNIT ( * ) PLANE_ANGLE_UNIT ( ) SI_UNIT ( $, .RADIAN. ) );
#259 = ORIENTED_EDGE ( 'NONE', *, *, #285, .T. ) ;
#260 = DIRECTION ( 'NONE',  ( -0.000000000000000000, -1.000000000000000000, -0.000000000000000000 ) ) ;
#261 = ORIENTED_EDGE ( 'NONE', *, *, #192, .F. ) ;
#262 = DIRECTION ( 'NONE',  ( -1.000000000000000000, 5.463695987328525451E-16, 0.000000000000000000 ) ) ;
#263 = EDGE_LOOP ( 'NONE', ( #88, #120, #164, #35 ) ) ;
#264 = VECTOR ( 'NONE', #87, 39.37007874015748143 ) ;
#265 = ORIENTED_EDGE ( 'NONE', *, *, #293, .T. ) ;
#266 = SURFACE_STYLE_FILL_AREA ( #104 ) ;
#267 = CARTESIAN_POINT ( 'NONE',  ( 0.000000000000000000, 0.2499999999999998057, 0.000000000000000000 ) ) ;
#268 = DIRECTION ( 'NONE',  ( -1.000000000000000000, 0.000000000000000000, 0.000000000000000000 ) ) ;
#269 =( NAMED_UNIT ( * ) PLANE_ANGLE_UNIT ( ) SI_UNIT ( $, .RADIAN. ) );
#270 = PLANE ( 'NONE',  #177 ) ;
#271 = DIMENSIONAL_EXPONENTS ( 1.000000000000000000, 0.000000000000000000, 0.000000000000000000, 0.000000000000000000, 0.000000000000000000, 0.000000000000000000, 0.000000000000000000 ) ;
#272 = CARTESIAN_POINT ( 'NONE',  ( 0.000000000000000000, 0.000000000000000000, 0.000000000000000000 ) ) ;
#273 = CARTESIAN_POINT ( 'NONE',  ( 0.000000000000000000, 0.2499999999999998057, 0.000000000000000000 ) ) ;
#274 = DIRECTION ( 'NONE',  ( -0.000000000000000000, -1.000000000000000000, -0.000000000000000000 ) ) ;
#275 = ADVANCED_FACE ( 'NONE', ( #33 ), #67, .T. ) ;
#276 = CARTESIAN_POINT ( 'NONE',  ( 0.000000000000000000, 0.000000000000000000, 0.000000000000000000 ) ) ;
#277 = VERTEX_POINT ( 'NONE', #243 ) ;
#278 = DIRECTION ( 'NONE',  ( 1.000000000000000000, -4.408728476930472631E-16, 0.000000000000000000 ) ) ;
#279 = VERTEX_POINT ( 'NONE', #218 ) ;
#280 = PRESENTATION_LAYER_ASSIGNMENT (  '', '', ( #249 ) ) ;
#281 = SURFACE_STYLE_USAGE ( .BOTH. , #114 ) ;
#282 = CYLINDRICAL_SURFACE ( 'NONE', #245, 0.06250000000000001388 ) ;
#283 = DIRECTION ( 'NONE',  ( 0.000000000000000000, 0.000000000000000000, -1.000000000000000000 ) ) ;
#284 = EDGE_LOOP ( 'NONE', ( #303, #187, #256, #207 ) ) ;
#285 = EDGE_CURVE ( 'NONE', #279, #232, #26, .T. ) ;
#286 = PRODUCT_CONTEXT ( 'NONE', #225, 'mechanical' ) ;
#287 = SURFACE_STYLE_FILL_AREA ( #123 ) ;
#288 = EDGE_CURVE ( 'NONE', #189, #277, #223, .T. ) ;
#289 =( GEOMETRIC_REPRESENTATION_CONTEXT ( 3 ) GLOBAL_UNCERTAINTY_ASSIGNED_CONTEXT ( ( #10 ) ) GLOBAL_UNIT_ASSIGNED_CONTEXT ( ( #109, #258, #300 ) ) REPRESENTATION_CONTEXT ( 'NONE', 'WORKASPACE' ) );
#290 = DIRECTION ( 'NONE',  ( -1.000000000000000000, 5.463695987328525451E-16, 0.000000000000000000 ) ) ;
#291 = MANIFOLD_SOLID_BREP ( 'Revolve - Cutting Edge', #20 ) ;
#292 =( NAMED_UNIT ( * ) SI_UNIT ( $, .STERADIAN. ) SOLID_ANGLE_UNIT ( ) );
#293 = EDGE_CURVE ( 'NONE', #85, #91, #9, .T. ) ;
#294 = VECTOR ( 'NONE', #260, 39.37007874015748143 ) ;
#295 = DIMENSIONAL_EXPONENTS ( 1.000000000000000000, 0.000000000000000000, 0.000000000000000000, 0.000000000000000000, 0.000000000000000000, 0.000000000000000000, 0.000000000000000000 ) ;
#296 = CARTESIAN_POINT ( 'NONE',  ( 0.06250000000000001388, 1.499999999999999778, 7.654042494670943678E-18 ) ) ;
#297 = AXIS2_PLACEMENT_3D ( 'NONE', #65, #41, #268 ) ;
#298 = CARTESIAN_POINT ( 'NONE',  ( 0.000000000000000000, 0.2499999999999998057, 0.000000000000000000 ) ) ;
#299 = ORIENTED_EDGE ( 'NONE', *, *, #242, .F. ) ;
#300 =( NAMED_UNIT ( * ) SI_UNIT ( $, .STERADIAN. ) SOLID_ANGLE_UNIT ( ) );
#301 = FACE_OUTER_BOUND ( 'NONE', #19, .T. ) ;
#302 = CARTESIAN_POINT ( 'NONE',  ( 5.510910596163089556E-16, 1.499999999999999778, 0.000000000000000000 ) ) ;
#303 = ORIENTED_EDGE ( 'NONE', *, *, #98, .T. ) ;
#304 = AXIS2_PLACEMENT_3D ( 'NONE', #188, #144, #278 ) ;
#305 = PRESENTATION_STYLE_ASSIGNMENT (( #212 ) ) ;
#306 = VERTEX_POINT ( 'NONE', #167 ) ;
#307 = ORIENTED_EDGE ( 'NONE', *, *, #180, .F. ) ;
#308 = SURFACE_SIDE_STYLE ('',( #72 ) ) ;
#309 = CARTESIAN_POINT ( 'NONE',  ( 6.074027119780526596E-33, 0.2499999999999998057, 0.000000000000000000 ) ) ;
ENDSEC;
END-ISO-10303-21;
