ISO-10303-21;
HEADER;
FILE_DESCRIPTION (( 'STEP AP214' ),
    '1' );
FILE_NAME ('59599.STEP',
    '2023-07-24T15:14:06',
    ( '' ),
    ( '' ),
    'SwSTEP 2.0',
    'SolidWorks 2023',
    '' );
FILE_SCHEMA (( 'AUTOMOTIVE_DESIGN' ));
ENDSEC;

DATA;
#1 = CARTESIAN_POINT ( 'NONE',  ( -4.999999999999992895, 63.00000000000000000, 0.000000000000000000 ) ) ;
#2 = VERTEX_POINT ( 'NONE', #152 ) ;
#3 = CIRCLE ( 'NONE', #230, 4.999999999999994671 ) ;
#4 = CARTESIAN_POINT ( 'NONE',  ( 0.000000000000000000, 20.00000000000000000, 0.000000000000000000 ) ) ;
#5 = ORIENTED_EDGE ( 'NONE', *, *, #74, .F. ) ;
#6 = PLANE ( 'NONE',  #78 ) ;
#7 =( GEOMETRIC_REPRESENTATION_CONTEXT ( 3 ) GLOBAL_UNCERTAINTY_ASSIGNED_CONTEXT ( ( #236 ) ) GLOBAL_UNIT_ASSIGNED_CONTEXT ( ( #113, #255, #341 ) ) REPRESENTATION_CONTEXT ( 'NONE', 'WORKASPACE' ) );
#8 = PLANE ( 'NONE',  #310 ) ;
#9 = CARTESIAN_POINT ( 'NONE',  ( 6.123233995736766282E-16, 0.000000000000000000, 5.000000000000000000 ) ) ;
#10 = STYLED_ITEM ( 'NONE', ( #307 ), #30 ) ;
#11 = DIRECTION ( 'NONE',  ( -1.000000000000000000, 0.000000000000000000, 0.000000000000000000 ) ) ;
#12 = CARTESIAN_POINT ( 'NONE',  ( 5.204170427930421283E-15, 20.00000000000000355, 0.000000000000000000 ) ) ;
#13 = ADVANCED_FACE ( 'NONE', ( #260 ), #8, .T. ) ;
#14 = CIRCLE ( 'NONE', #368, 5.000000000000000000 ) ;
#15 = DIRECTION ( 'NONE',  ( -4.697880814296055710E-17, 1.000000000000000000, -0.000000000000000000 ) ) ;
#16 = DIRECTION ( 'NONE',  ( -1.000000000000000000, 0.000000000000000000, 0.000000000000000000 ) ) ;
#17 = CYLINDRICAL_SURFACE ( 'NONE', #343, 5.000000000000000000 ) ;
#18 = EDGE_CURVE ( 'NONE', #203, #68, #3, .T. ) ;
#19 = DIRECTION ( 'NONE',  ( -1.000000000000000000, 0.000000000000000000, 0.000000000000000000 ) ) ;
#20 =( GEOMETRIC_REPRESENTATION_CONTEXT ( 3 ) GLOBAL_UNCERTAINTY_ASSIGNED_CONTEXT ( ( #335 ) ) GLOBAL_UNIT_ASSIGNED_CONTEXT ( ( #333, #51, #105 ) ) REPRESENTATION_CONTEXT ( 'NONE', 'WORKASPACE' ) );
#21 = FILL_AREA_STYLE_COLOUR ( '', #139 ) ;
#22 = STYLED_ITEM ( 'NONE', ( #50 ), #13 ) ;
#23 = PLANE ( 'NONE',  #107 ) ;
#24 = MECHANICAL_DESIGN_GEOMETRIC_PRESENTATION_REPRESENTATION (  '', ( #52 ), #7 ) ;
#25 = SURFACE_STYLE_USAGE ( .BOTH. , #146 ) ;
#26 = AXIS2_PLACEMENT_3D ( 'NONE', #109, #334, #194 ) ;
#27 = FILL_AREA_STYLE ('',( #288 ) ) ;
#28 = VERTEX_POINT ( 'NONE', #249 ) ;
#29 = CIRCLE ( 'NONE', #243, 4.999999999999996447 ) ;
#30 = MANIFOLD_SOLID_BREP ( 'Revolve - Cutting Edge', #149 ) ;
#31 = DIRECTION ( 'NONE',  ( -0.000000000000000000, -1.000000000000000000, -0.000000000000000000 ) ) ;
#32 = CIRCLE ( 'NONE', #244, 0.4999999999999995559 ) ;
#33 = MECHANICAL_DESIGN_GEOMETRIC_PRESENTATION_REPRESENTATION (  '', ( #292 ), #20 ) ;
#34 = EDGE_LOOP ( 'NONE', ( #65, #318, #298, #118 ) ) ;
#35 = CARTESIAN_POINT ( 'NONE',  ( 5.000000000000000000, 63.00000000000000000, 0.000000000000000000 ) ) ;
#36 = EDGE_LOOP ( 'NONE', ( #293, #63 ) ) ;
#37 = CARTESIAN_POINT ( 'NONE',  ( 5.510910596163089556E-16, 0.5000000000000000000, 4.500000000000000888 ) ) ;
#38 = EDGE_LOOP ( 'NONE', ( #340, #348, #88, #91 ) ) ;
#39 = EDGE_CURVE ( 'NONE', #295, #123, #296, .T. ) ;
#40 = LINE ( 'NONE', #157, #361 ) ;
#41 = PRESENTATION_LAYER_ASSIGNMENT (  '', '', ( #347 ) ) ;
#42 = SURFACE_STYLE_FILL_AREA ( #299 ) ;
#43 = FILL_AREA_STYLE ('',( #21 ) ) ;
#44 =( NAMED_UNIT ( * ) SI_UNIT ( $, .STERADIAN. ) SOLID_ANGLE_UNIT ( ) );
#45 = FILL_AREA_STYLE_COLOUR ( '', #284 ) ;
#46 = ADVANCED_FACE ( 'NONE', ( #281 ), #17, .T. ) ;
#47 = UNCERTAINTY_MEASURE_WITH_UNIT (LENGTH_MEASURE( 1.000000000000000082E-05 ), #328, 'distance_accuracy_value', 'NONE');
#48 = DIRECTION ( 'NONE',  ( 0.000000000000000000, -0.000000000000000000, 1.000000000000000000 ) ) ;
#49 = TOROIDAL_SURFACE ( 'NONE', #210, 4.500000000000000888, 0.4999999999999997780 ) ;
#50 = PRESENTATION_STYLE_ASSIGNMENT (( #275 ) ) ;
#51 =( NAMED_UNIT ( * ) PLANE_ANGLE_UNIT ( ) SI_UNIT ( $, .RADIAN. ) );
#52 = STYLED_ITEM ( 'NONE', ( #225 ), #82 ) ;
#53 = FILL_AREA_STYLE ('',( #250 ) ) ;
#54 = DIRECTION ( 'NONE',  ( -4.697880814296055710E-17, 1.000000000000000000, -0.000000000000000000 ) ) ;
#55 = AXIS2_PLACEMENT_3D ( 'NONE', #178, #297, #270 ) ;
#56 = CARTESIAN_POINT ( 'NONE',  ( 0.000000000000000000, 0.000000000000000000, 0.000000000000000000 ) ) ;
#57 = DIRECTION ( 'NONE',  ( -0.000000000000000000, -1.000000000000000000, -0.000000000000000000 ) ) ;
#58 =( NAMED_UNIT ( * ) SI_UNIT ( $, .STERADIAN. ) SOLID_ANGLE_UNIT ( ) );
#59 = PRESENTATION_LAYER_ASSIGNMENT (  '', '', ( #302 ) ) ;
#60 =( GEOMETRIC_REPRESENTATION_CONTEXT ( 3 ) GLOBAL_UNCERTAINTY_ASSIGNED_CONTEXT ( ( #309 ) ) GLOBAL_UNIT_ASSIGNED_CONTEXT ( ( #264, #218, #285 ) ) REPRESENTATION_CONTEXT ( 'NONE', 'WORKASPACE' ) );
#61 = ORIENTED_EDGE ( 'NONE', *, *, #169, .T. ) ;
#62 = DIRECTION ( 'NONE',  ( 0.000000000000000000, 0.000000000000000000, -1.000000000000000000 ) ) ;
#63 = ORIENTED_EDGE ( 'NONE', *, *, #188, .F. ) ;
#64 = DIRECTION ( 'NONE',  ( 1.000000000000000000, 4.697880814296055710E-17, 0.000000000000000000 ) ) ;
#65 = ORIENTED_EDGE ( 'NONE', *, *, #169, .F. ) ;
#66 = DIRECTION ( 'NONE',  ( 0.000000000000000000, -1.000000000000000000, -0.000000000000000000 ) ) ;
#67 = ADVANCED_FACE ( 'NONE', ( #261 ), #23, .F. ) ;
#68 = VERTEX_POINT ( 'NONE', #140 ) ;
#69 = STYLED_ITEM ( 'NONE', ( #289 ), #46 ) ;
#70 = DIRECTION ( 'NONE',  ( -4.697880814296055710E-17, 1.000000000000000000, -0.000000000000000000 ) ) ;
#71 = FILL_AREA_STYLE ('',( #45 ) ) ;
#72 = DIRECTION ( 'NONE',  ( 0.000000000000000000, 0.000000000000000000, -1.000000000000000000 ) ) ;
#73 = PRESENTATION_STYLE_ASSIGNMENT (( #128 ) ) ;
#74 = EDGE_CURVE ( 'NONE', #68, #123, #365, .T. ) ;
#75 = CYLINDRICAL_SURFACE ( 'NONE', #306, 5.000000000000000000 ) ;
#76 = SURFACE_STYLE_USAGE ( .BOTH. , #184 ) ;
#77 =( NAMED_UNIT ( * ) SI_UNIT ( $, .STERADIAN. ) SOLID_ANGLE_UNIT ( ) );
#78 = AXIS2_PLACEMENT_3D ( 'NONE', #35, #231, #64 ) ;
#79 = SURFACE_SIDE_STYLE ('',( #164 ) ) ;
#80 = SURFACE_STYLE_FILL_AREA ( #53 ) ;
#81 = COLOUR_RGB ( '',0.7921568627450980005, 0.8196078431372548767, 0.9333333333333333481 ) ;
#82 = ADVANCED_FACE ( 'NONE', ( #192 ), #49, .T. ) ;
#83 = DIRECTION ( 'NONE',  ( -0.000000000000000000, -1.000000000000000000, -0.000000000000000000 ) ) ;
#84 = PRODUCT ( '59599', '59599', '', ( #110 ) ) ;
#85 = CARTESIAN_POINT ( 'NONE',  ( 5.204170427930421283E-15, 20.00000000000000000, 0.000000000000000000 ) ) ;
#86 =( GEOMETRIC_REPRESENTATION_CONTEXT ( 3 ) GLOBAL_UNCERTAINTY_ASSIGNED_CONTEXT ( ( #360 ) ) GLOBAL_UNIT_ASSIGNED_CONTEXT ( ( #102, #132, #77 ) ) REPRESENTATION_CONTEXT ( 'NONE', 'WORKASPACE' ) );
#87 =( NAMED_UNIT ( * ) SI_UNIT ( $, .STERADIAN. ) SOLID_ANGLE_UNIT ( ) );
#88 = ORIENTED_EDGE ( 'NONE', *, *, #283, .T. ) ;
#89 = VERTEX_POINT ( 'NONE', #142 ) ;
#90 = DIRECTION ( 'NONE',  ( 0.000000000000000000, 0.000000000000000000, -1.000000000000000000 ) ) ;
#91 = ORIENTED_EDGE ( 'NONE', *, *, #356, .F. ) ;
#92 = AXIS2_PLACEMENT_3D ( 'NONE', #222, #265, #72 ) ;
#93 =( LENGTH_UNIT ( ) NAMED_UNIT ( * ) SI_UNIT ( .MILLI., .METRE. ) );
#94 = ORIENTED_EDGE ( 'NONE', *, *, #18, .F. ) ;
#95 = DIRECTION ( 'NONE',  ( 0.000000000000000000, 0.000000000000000000, -1.000000000000000000 ) ) ;
#96 = CARTESIAN_POINT ( 'NONE',  ( 0.000000000000000000, 0.000000000000000000, 0.000000000000000000 ) ) ;
#97 = UNCERTAINTY_MEASURE_WITH_UNIT (LENGTH_MEASURE( 1.000000000000000082E-05 ), #338, 'distance_accuracy_value', 'NONE');
#98 = VERTEX_POINT ( 'NONE', #204 ) ;
#99 = LINE ( 'NONE', #9, #364 ) ;
#100 =( LENGTH_UNIT ( ) NAMED_UNIT ( * ) SI_UNIT ( .MILLI., .METRE. ) );
#101 = CARTESIAN_POINT ( 'NONE',  ( 0.000000000000000000, 0.5000000000000000000, -4.500000000000000888 ) ) ;
#102 =( LENGTH_UNIT ( ) NAMED_UNIT ( * ) SI_UNIT ( .MILLI., .METRE. ) );
#103 = DIRECTION ( 'NONE',  ( -4.697880814296055710E-17, 1.000000000000000000, -0.000000000000000000 ) ) ;
#104 =( NAMED_UNIT ( * ) PLANE_ANGLE_UNIT ( ) SI_UNIT ( $, .RADIAN. ) );
#105 =( NAMED_UNIT ( * ) SI_UNIT ( $, .STERADIAN. ) SOLID_ANGLE_UNIT ( ) );
#106 = ADVANCED_FACE ( 'NONE', ( #257 ), #215, .T. ) ;
#107 = AXIS2_PLACEMENT_3D ( 'NONE', #85, #168, #287 ) ;
#108 = EDGE_CURVE ( 'NONE', #89, #2, #256, .T. ) ;
#109 = CARTESIAN_POINT ( 'NONE',  ( 0.000000000000000000, 0.000000000000000000, 0.000000000000000000 ) ) ;
#110 = PRODUCT_CONTEXT ( 'NONE', #198, 'mechanical' ) ;
#111 = CARTESIAN_POINT ( 'NONE',  ( -4.999999999999992006, 63.00000000000000000, 0.000000000000000000 ) ) ;
#112 = EDGE_CURVE ( 'NONE', #98, #28, #327, .T. ) ;
#113 =( LENGTH_UNIT ( ) NAMED_UNIT ( * ) SI_UNIT ( .MILLI., .METRE. ) );
#114 = ORIENTED_EDGE ( 'NONE', *, *, #269, .T. ) ;
#115 = AXIS2_PLACEMENT_3D ( 'NONE', #336, #352, #346 ) ;
#116 = SURFACE_STYLE_FILL_AREA ( #259 ) ;
#117 = CIRCLE ( 'NONE', #228, 4.999999999999994671 ) ;
#118 = ORIENTED_EDGE ( 'NONE', *, *, #165, .F. ) ;
#119 = FACE_OUTER_BOUND ( 'NONE', #266, .T. ) ;
#120 = ORIENTED_EDGE ( 'NONE', *, *, #325, .F. ) ;
#121 = CARTESIAN_POINT ( 'NONE',  ( 0.000000000000000000, 0.5000000000000000000, 0.000000000000000000 ) ) ;
#122 = FACE_OUTER_BOUND ( 'NONE', #290, .T. ) ;
#123 = VERTEX_POINT ( 'NONE', #1 ) ;
#124 = DIRECTION ( 'NONE',  ( -0.000000000000000000, -1.000000000000000000, -0.000000000000000000 ) ) ;
#125 = DIRECTION ( 'NONE',  ( -0.000000000000000000, -1.000000000000000000, -0.000000000000000000 ) ) ;
#126 = ORIENTED_EDGE ( 'NONE', *, *, #39, .T. ) ;
#127 =( NAMED_UNIT ( * ) PLANE_ANGLE_UNIT ( ) SI_UNIT ( $, .RADIAN. ) );
#128 = SURFACE_STYLE_USAGE ( .BOTH. , #239 ) ;
#129 = DIRECTION ( 'NONE',  ( -0.000000000000000000, -1.000000000000000000, -0.000000000000000000 ) ) ;
#130 = FACE_OUTER_BOUND ( 'NONE', #263, .T. ) ;
#131 = PRESENTATION_LAYER_ASSIGNMENT (  '', '', ( #292 ) ) ;
#132 =( NAMED_UNIT ( * ) PLANE_ANGLE_UNIT ( ) SI_UNIT ( $, .RADIAN. ) );
#133 = LINE ( 'NONE', #359, #202 ) ;
#134 = DIRECTION ( 'NONE',  ( 0.000000000000000000, 0.000000000000000000, 1.000000000000000000 ) ) ;
#135 = MECHANICAL_DESIGN_GEOMETRIC_PRESENTATION_REPRESENTATION (  '', ( #201 ), #354 ) ;
#136 = SURFACE_STYLE_USAGE ( .BOTH. , #79 ) ;
#137 =( GEOMETRIC_REPRESENTATION_CONTEXT ( 3 ) GLOBAL_UNCERTAINTY_ASSIGNED_CONTEXT ( ( #97 ) ) GLOBAL_UNIT_ASSIGNED_CONTEXT ( ( #338, #339, #58 ) ) REPRESENTATION_CONTEXT ( 'NONE', 'WORKASPACE' ) );
#138 = DIRECTION ( 'NONE',  ( -4.697880814296055710E-17, 1.000000000000000000, -0.000000000000000000 ) ) ;
#139 = COLOUR_RGB ( '',1.000000000000000000, 0.000000000000000000, 0.000000000000000000 ) ;
#140 = CARTESIAN_POINT ( 'NONE',  ( -4.999999999999989342, 20.00000000000000355, 0.000000000000000000 ) ) ;
#141 = ADVANCED_FACE ( 'NONE', ( #119 ), #154, .T. ) ;
#142 = CARTESIAN_POINT ( 'NONE',  ( 0.000000000000000000, 20.00000000000000000, -5.000000000000000000 ) ) ;
#143 = ORIENTED_EDGE ( 'NONE', *, *, #252, .T. ) ;
#144 = CARTESIAN_POINT ( 'NONE',  ( 0.000000000000000000, 0.000000000000000000, 0.000000000000000000 ) ) ;
#145 = ORIENTED_EDGE ( 'NONE', *, *, #18, .T. ) ;
#146 = SURFACE_SIDE_STYLE ('',( #42 ) ) ;
#147 = ADVANCED_FACE ( 'NONE', ( #349 ), #6, .F. ) ;
#148 = ORIENTED_EDGE ( 'NONE', *, *, #319, .F. ) ;
#149 = CLOSED_SHELL ( 'NONE', ( #46, #106, #206, #82, #342, #13 ) ) ;
#150 = ORIENTED_EDGE ( 'NONE', *, *, #112, .T. ) ;
#151 = DIRECTION ( 'NONE',  ( 1.000000000000000000, 0.000000000000000000, -1.224646799147353207E-16 ) ) ;
#152 = CARTESIAN_POINT ( 'NONE',  ( 6.123233995736766282E-16, 20.00000000000000000, 5.000000000000000000 ) ) ;
#153 =( GEOMETRIC_REPRESENTATION_CONTEXT ( 3 ) GLOBAL_UNCERTAINTY_ASSIGNED_CONTEXT ( ( #273 ) ) GLOBAL_UNIT_ASSIGNED_CONTEXT ( ( #303, #219, #193 ) ) REPRESENTATION_CONTEXT ( 'NONE', 'WORKASPACE' ) );
#154 = CYLINDRICAL_SURFACE ( 'NONE', #55, 4.999999999999995559 ) ;
#155 = SURFACE_STYLE_FILL_AREA ( #27 ) ;
#156 = SURFACE_STYLE_FILL_AREA ( #43 ) ;
#157 = CARTESIAN_POINT ( 'NONE',  ( 0.000000000000000000, 0.000000000000000000, -5.000000000000000000 ) ) ;
#158 = DIRECTION ( 'NONE',  ( 0.000000000000000000, 1.000000000000000000, 0.000000000000000000 ) ) ;
#159 = CARTESIAN_POINT ( 'NONE',  ( 5.204170427930421283E-15, 20.00000000000000355, 0.000000000000000000 ) ) ;
#160 = AXIS2_PLACEMENT_3D ( 'NONE', #240, #199, #62 ) ;
#161 = UNCERTAINTY_MEASURE_WITH_UNIT (LENGTH_MEASURE( 1.000000000000000082E-05 ), #93, 'distance_accuracy_value', 'NONE');
#162 = MECHANICAL_DESIGN_GEOMETRIC_PRESENTATION_REPRESENTATION (  '', ( #302 ), #370 ) ;
#163 = CARTESIAN_POINT ( 'NONE',  ( 3.184081677783117402E-15, 63.00000000000000000, 0.000000000000000000 ) ) ;
#164 = SURFACE_STYLE_FILL_AREA ( #332 ) ;
#165 = EDGE_CURVE ( 'NONE', #271, #367, #14, .T. ) ;
#166 = FILL_AREA_STYLE_COLOUR ( '', #216 ) ;
#167 = CLOSED_SHELL ( 'NONE', ( #301, #67, #141, #147 ) ) ;
#168 = DIRECTION ( 'NONE',  ( -4.697880814296055710E-17, 1.000000000000000000, 0.000000000000000000 ) ) ;
#169 = EDGE_CURVE ( 'NONE', #2, #271, #99, .T. ) ;
#170 = SHAPE_DEFINITION_REPRESENTATION ( #253, #246 ) ;
#171 = SURFACE_SIDE_STYLE ('',( #116 ) ) ;
#172 = EDGE_LOOP ( 'NONE', ( #148, #94 ) ) ;
#173 = MECHANICAL_DESIGN_GEOMETRIC_PRESENTATION_REPRESENTATION (  '', ( #22 ), #363 ) ;
#174 = EDGE_CURVE ( 'NONE', #367, #271, #300, .T. ) ;
#175 = CARTESIAN_POINT ( 'NONE',  ( 0.000000000000000000, 0.000000000000000000, 0.000000000000000000 ) ) ;
#176 = ORIENTED_EDGE ( 'NONE', *, *, #108, .T. ) ;
#177 = MECHANICAL_DESIGN_GEOMETRIC_PRESENTATION_REPRESENTATION (  '', ( #347 ), #153 ) ;
#178 = CARTESIAN_POINT ( 'NONE',  ( 3.184081677783117402E-15, 63.00000000000000000, 0.000000000000000000 ) ) ;
#179 = DIRECTION ( 'NONE',  ( 0.000000000000000000, 0.000000000000000000, -1.000000000000000000 ) ) ;
#180 = COLOUR_RGB ( '',1.000000000000000000, 0.000000000000000000, 0.000000000000000000 ) ;
#181 = ORIENTED_EDGE ( 'NONE', *, *, #74, .T. ) ;
#182 = FILL_AREA_STYLE_COLOUR ( '', #223 ) ;
#183 = SURFACE_STYLE_FILL_AREA ( #320 ) ;
#184 = SURFACE_SIDE_STYLE ('',( #211 ) ) ;
#185 = SURFACE_SIDE_STYLE ('',( #80 ) ) ;
#186 = PRODUCT_RELATED_PRODUCT_CATEGORY ( 'part', '', ( #84 ) ) ;
#187 = APPLICATION_CONTEXT ( 'automotive_design' ) ;
#188 = EDGE_CURVE ( 'NONE', #2, #89, #331, .T. ) ;
#189 = AXIS2_PLACEMENT_3D ( 'NONE', #175, #66, #179 ) ;
#190 = DIRECTION ( 'NONE',  ( 0.000000000000000000, 0.000000000000000000, -1.000000000000000000 ) ) ;
#191 = PRODUCT_DEFINITION_CONTEXT ( 'detailed design', #187, 'design' ) ;
#192 = FACE_OUTER_BOUND ( 'NONE', #38, .T. ) ;
#193 =( NAMED_UNIT ( * ) SI_UNIT ( $, .STERADIAN. ) SOLID_ANGLE_UNIT ( ) );
#194 = DIRECTION ( 'NONE',  ( 1.000000000000000000, 0.000000000000000000, 0.000000000000000000 ) ) ;
#195 = FILL_AREA_STYLE_COLOUR ( '', #180 ) ;
#196 = ORIENTED_EDGE ( 'NONE', *, *, #242, .F. ) ;
#197 = ORIENTED_EDGE ( 'NONE', *, *, #283, .F. ) ;
#198 = APPLICATION_CONTEXT ( 'automotive_design' ) ;
#199 = DIRECTION ( 'NONE',  ( -0.000000000000000000, -1.000000000000000000, -0.000000000000000000 ) ) ;
#200 = ORIENTED_EDGE ( 'NONE', *, *, #39, .F. ) ;
#201 = STYLED_ITEM ( 'NONE', ( #234 ), #206 ) ;
#202 = VECTOR ( 'NONE', #54, 1000.000000000000000 ) ;
#203 = VERTEX_POINT ( 'NONE', #353 ) ;
#204 = CARTESIAN_POINT ( 'NONE',  ( 0.000000000000000000, 0.000000000000000000, -4.500000000000000888 ) ) ;
#205 = DIRECTION ( 'NONE',  ( -0.000000000000000000, -1.000000000000000000, -0.000000000000000000 ) ) ;
#206 = ADVANCED_FACE ( 'NONE', ( #122 ), #323, .T. ) ;
#207 = MECHANICAL_DESIGN_GEOMETRIC_PRESENTATION_REPRESENTATION (  '', ( #69 ), #60 ) ;
#208 = ORIENTED_EDGE ( 'NONE', *, *, #356, .T. ) ;
#209 =( NAMED_UNIT ( * ) SI_UNIT ( $, .STERADIAN. ) SOLID_ANGLE_UNIT ( ) );
#210 = AXIS2_PLACEMENT_3D ( 'NONE', #121, #124, #95 ) ;
#211 = SURFACE_STYLE_FILL_AREA ( #71 ) ;
#212 = AXIS2_PLACEMENT_3D ( 'NONE', #101, #357, #134 ) ;
#213 = CARTESIAN_POINT ( 'NONE',  ( 5.000000000000000000, 63.00000000000000000, 6.123233995736762338E-16 ) ) ;
#214 = PRESENTATION_LAYER_ASSIGNMENT (  '', '', ( #22 ) ) ;
#215 = TOROIDAL_SURFACE ( 'NONE', #115, 4.500000000000000888, 0.4999999999999997780 ) ;
#216 = COLOUR_RGB ( '',1.000000000000000000, 0.000000000000000000, 0.000000000000000000 ) ;
#217 = PRESENTATION_LAYER_ASSIGNMENT (  '', '', ( #69 ) ) ;
#218 =( NAMED_UNIT ( * ) PLANE_ANGLE_UNIT ( ) SI_UNIT ( $, .RADIAN. ) );
#219 =( NAMED_UNIT ( * ) PLANE_ANGLE_UNIT ( ) SI_UNIT ( $, .RADIAN. ) );
#220 = PRODUCT_DEFINITION ( 'UNKNOWN', '', #355, #191 ) ;
#221 = DIRECTION ( 'NONE',  ( 0.000000000000000000, 0.000000000000000000, -1.000000000000000000 ) ) ;
#222 = CARTESIAN_POINT ( 'NONE',  ( 0.000000000000000000, 20.00000000000000000, 0.000000000000000000 ) ) ;
#223 = COLOUR_RGB ( '',1.000000000000000000, 0.000000000000000000, 0.000000000000000000 ) ;
#224 = APPLICATION_PROTOCOL_DEFINITION ( 'draft international standard', 'automotive_design', 1998, #187 ) ;
#225 = PRESENTATION_STYLE_ASSIGNMENT (( #314 ) ) ;
#226 = PRESENTATION_LAYER_ASSIGNMENT (  '', '', ( #52 ) ) ;
#227 = ORIENTED_EDGE ( 'NONE', *, *, #174, .T. ) ;
#228 = AXIS2_PLACEMENT_3D ( 'NONE', #159, #248, #19 ) ;
#229 = ORIENTED_EDGE ( 'NONE', *, *, #174, .F. ) ;
#230 = AXIS2_PLACEMENT_3D ( 'NONE', #12, #247, #279 ) ;
#231 = DIRECTION ( 'NONE',  ( 4.697880814296055710E-17, -1.000000000000000000, 0.000000000000000000 ) ) ;
#232 = VECTOR ( 'NONE', #138, 1000.000000000000000 ) ;
#233 = ORIENTED_EDGE ( 'NONE', *, *, #325, .T. ) ;
#234 = PRESENTATION_STYLE_ASSIGNMENT (( #235 ) ) ;
#235 = SURFACE_STYLE_USAGE ( .BOTH. , #294 ) ;
#236 = UNCERTAINTY_MEASURE_WITH_UNIT (LENGTH_MEASURE( 1.000000000000000082E-05 ), #113, 'distance_accuracy_value', 'NONE');
#237 = EDGE_LOOP ( 'NONE', ( #227, #143, #316, #197 ) ) ;
#238 = DIRECTION ( 'NONE',  ( -0.000000000000000000, -1.000000000000000000, -0.000000000000000000 ) ) ;
#239 = SURFACE_SIDE_STYLE ('',( #156 ) ) ;
#240 = CARTESIAN_POINT ( 'NONE',  ( 0.000000000000000000, 0.5000000000000000000, 0.000000000000000000 ) ) ;
#241 = UNCERTAINTY_MEASURE_WITH_UNIT (LENGTH_MEASURE( 1.000000000000000082E-05 ), #100, 'distance_accuracy_value', 'NONE');
#242 = EDGE_CURVE ( 'NONE', #89, #367, #40, .T. ) ;
#243 = AXIS2_PLACEMENT_3D ( 'NONE', #276, #70, #11 ) ;
#244 = AXIS2_PLACEMENT_3D ( 'NONE', #37, #151, #324 ) ;
#245 = SURFACE_STYLE_USAGE ( .BOTH. , #185 ) ;
#246 = ADVANCED_BREP_SHAPE_REPRESENTATION ( '59599', ( #30, #282, #26 ), #137 ) ;
#247 = DIRECTION ( 'NONE',  ( -4.697880814296055710E-17, 1.000000000000000000, -0.000000000000000000 ) ) ;
#248 = DIRECTION ( 'NONE',  ( -4.697880814296055710E-17, 1.000000000000000000, -0.000000000000000000 ) ) ;
#249 = CARTESIAN_POINT ( 'NONE',  ( 5.817072295949928412E-16, 0.000000000000000000, 4.500000000000000888 ) ) ;
#250 = FILL_AREA_STYLE_COLOUR ( '', #81 ) ;
#251 = FACE_OUTER_BOUND ( 'NONE', #34, .T. ) ;
#252 = EDGE_CURVE ( 'NONE', #271, #28, #32, .T. ) ;
#253 = PRODUCT_DEFINITION_SHAPE ( 'NONE', 'NONE',  #220 ) ;
#254 = DIRECTION ( 'NONE',  ( -0.000000000000000000, -1.000000000000000000, -0.000000000000000000 ) ) ;
#255 =( NAMED_UNIT ( * ) PLANE_ANGLE_UNIT ( ) SI_UNIT ( $, .RADIAN. ) );
#256 = CIRCLE ( 'NONE', #92, 5.000000000000000000 ) ;
#257 = FACE_OUTER_BOUND ( 'NONE', #237, .T. ) ;
#258 = CARTESIAN_POINT ( 'NONE',  ( 0.000000000000000000, 0.000000000000000000, 0.000000000000000000 ) ) ;
#259 = FILL_AREA_STYLE ('',( #195 ) ) ;
#260 = FACE_OUTER_BOUND ( 'NONE', #36, .T. ) ;
#261 = FACE_OUTER_BOUND ( 'NONE', #172, .T. ) ;
#262 = COLOUR_RGB ( '',1.000000000000000000, 0.000000000000000000, 0.000000000000000000 ) ;
#263 = EDGE_LOOP ( 'NONE', ( #268, #233, #350, #5 ) ) ;
#264 =( LENGTH_UNIT ( ) NAMED_UNIT ( * ) SI_UNIT ( .MILLI., .METRE. ) );
#265 = DIRECTION ( 'NONE',  ( -0.000000000000000000, -1.000000000000000000, -0.000000000000000000 ) ) ;
#266 = EDGE_LOOP ( 'NONE', ( #120, #145, #181, #200 ) ) ;
#267 = DIRECTION ( 'NONE',  ( 0.000000000000000000, 0.000000000000000000, -1.000000000000000000 ) ) ;
#268 = ORIENTED_EDGE ( 'NONE', *, *, #319, .T. ) ;
#269 = EDGE_CURVE ( 'NONE', #123, #295, #29, .T. ) ;
#270 = DIRECTION ( 'NONE',  ( -1.000000000000000000, 0.000000000000000000, 0.000000000000000000 ) ) ;
#271 = VERTEX_POINT ( 'NONE', #317 ) ;
#272 = FILL_AREA_STYLE_COLOUR ( '', #262 ) ;
#273 = UNCERTAINTY_MEASURE_WITH_UNIT (LENGTH_MEASURE( 1.000000000000000082E-05 ), #303, 'distance_accuracy_value', 'NONE');
#274 = AXIS2_PLACEMENT_3D ( 'NONE', #56, #83, #190 ) ;
#275 = SURFACE_STYLE_USAGE ( .BOTH. , #330 ) ;
#276 = CARTESIAN_POINT ( 'NONE',  ( 3.184081677783117402E-15, 63.00000000000000000, 0.000000000000000000 ) ) ;
#277 = CARTESIAN_POINT ( 'NONE',  ( 0.000000000000000000, 20.00000000000000000, 0.000000000000000000 ) ) ;
#278 =( NAMED_UNIT ( * ) PLANE_ANGLE_UNIT ( ) SI_UNIT ( $, .RADIAN. ) );
#279 = DIRECTION ( 'NONE',  ( -1.000000000000000000, 0.000000000000000000, 0.000000000000000000 ) ) ;
#280 = CYLINDRICAL_SURFACE ( 'NONE', #329, 4.999999999999995559 ) ;
#281 = FACE_OUTER_BOUND ( 'NONE', #369, .T. ) ;
#282 = MANIFOLD_SOLID_BREP ( 'Revolve - Tool Body (Straight Shanked)', #167 ) ;
#283 = EDGE_CURVE ( 'NONE', #367, #98, #362, .T. ) ;
#284 = COLOUR_RGB ( '',0.7921568627450980005, 0.8196078431372548767, 0.9333333333333333481 ) ;
#285 =( NAMED_UNIT ( * ) SI_UNIT ( $, .STERADIAN. ) SOLID_ANGLE_UNIT ( ) );
#286 = APPLICATION_PROTOCOL_DEFINITION ( 'draft international standard', 'automotive_design', 1998, #198 ) ;
#287 = DIRECTION ( 'NONE',  ( -1.000000000000000000, -4.697880814296055710E-17, 0.000000000000000000 ) ) ;
#288 = FILL_AREA_STYLE_COLOUR ( '', #351 ) ;
#289 = PRESENTATION_STYLE_ASSIGNMENT (( #25 ) ) ;
#290 = EDGE_LOOP ( 'NONE', ( #150, #208 ) ) ;
#291 = CARTESIAN_POINT ( 'NONE',  ( 0.000000000000000000, 0.5000000000000000000, 0.000000000000000000 ) ) ;
#292 = STYLED_ITEM ( 'NONE', ( #305 ), #282 ) ;
#293 = ORIENTED_EDGE ( 'NONE', *, *, #108, .F. ) ;
#294 = SURFACE_SIDE_STYLE ('',( #183 ) ) ;
#295 = VERTEX_POINT ( 'NONE', #213 ) ;
#296 = CIRCLE ( 'NONE', #337, 4.999999999999996447 ) ;
#297 = DIRECTION ( 'NONE',  ( -4.697880814296055710E-17, 1.000000000000000000, -0.000000000000000000 ) ) ;
#298 = ORIENTED_EDGE ( 'NONE', *, *, #242, .T. ) ;
#299 = FILL_AREA_STYLE ('',( #182 ) ) ;
#300 = CIRCLE ( 'NONE', #160, 5.000000000000000000 ) ;
#301 = ADVANCED_FACE ( 'NONE', ( #130 ), #280, .T. ) ;
#302 = STYLED_ITEM ( 'NONE', ( #308 ), #342 ) ;
#303 =( LENGTH_UNIT ( ) NAMED_UNIT ( * ) SI_UNIT ( .MILLI., .METRE. ) );
#304 = AXIS2_PLACEMENT_3D ( 'NONE', #4, #238, #344 ) ;
#305 = PRESENTATION_STYLE_ASSIGNMENT (( #245 ) ) ;
#306 = AXIS2_PLACEMENT_3D ( 'NONE', #258, #254, #221 ) ;
#307 = PRESENTATION_STYLE_ASSIGNMENT (( #76 ) ) ;
#308 = PRESENTATION_STYLE_ASSIGNMENT (( #136 ) ) ;
#309 = UNCERTAINTY_MEASURE_WITH_UNIT (LENGTH_MEASURE( 1.000000000000000082E-05 ), #264, 'distance_accuracy_value', 'NONE');
#310 = AXIS2_PLACEMENT_3D ( 'NONE', #277, #158, #48 ) ;
#311 = CARTESIAN_POINT ( 'NONE',  ( 3.184081677783117402E-15, 63.00000000000000000, 0.000000000000000000 ) ) ;
#312 = PRESENTATION_LAYER_ASSIGNMENT (  '', '', ( #201 ) ) ;
#313 = CARTESIAN_POINT ( 'NONE',  ( 0.000000000000000000, 0.5000000000000000000, -5.000000000000000000 ) ) ;
#314 = SURFACE_STYLE_USAGE ( .BOTH. , #171 ) ;
#315 = DIRECTION ( 'NONE',  ( 0.000000000000000000, 0.000000000000000000, -1.000000000000000000 ) ) ;
#316 = ORIENTED_EDGE ( 'NONE', *, *, #112, .F. ) ;
#317 = CARTESIAN_POINT ( 'NONE',  ( 6.123233995736766282E-16, 0.5000000000000000000, 5.000000000000000000 ) ) ;
#318 = ORIENTED_EDGE ( 'NONE', *, *, #188, .T. ) ;
#319 = EDGE_CURVE ( 'NONE', #68, #203, #117, .T. ) ;
#320 = FILL_AREA_STYLE ('',( #272 ) ) ;
#321 = AXIS2_PLACEMENT_3D ( 'NONE', #96, #129, #267 ) ;
#322 = CIRCLE ( 'NONE', #274, 4.500000000000000888 ) ;
#323 = PLANE ( 'NONE',  #189 ) ;
#324 = DIRECTION ( 'NONE',  ( -1.224646799147353454E-16, 0.000000000000000000, -1.000000000000000000 ) ) ;
#325 = EDGE_CURVE ( 'NONE', #203, #295, #133, .T. ) ;
#326 = DIRECTION ( 'NONE',  ( -1.000000000000000000, 0.000000000000000000, 0.000000000000000000 ) ) ;
#327 = CIRCLE ( 'NONE', #321, 4.500000000000000888 ) ;
#328 =( LENGTH_UNIT ( ) NAMED_UNIT ( * ) SI_UNIT ( .MILLI., .METRE. ) );
#329 = AXIS2_PLACEMENT_3D ( 'NONE', #311, #103, #16 ) ;
#330 = SURFACE_SIDE_STYLE ('',( #155 ) ) ;
#331 = CIRCLE ( 'NONE', #304, 5.000000000000000000 ) ;
#332 = FILL_AREA_STYLE ('',( #166 ) ) ;
#333 =( LENGTH_UNIT ( ) NAMED_UNIT ( * ) SI_UNIT ( .MILLI., .METRE. ) );
#334 = DIRECTION ( 'NONE',  ( 0.000000000000000000, 0.000000000000000000, 1.000000000000000000 ) ) ;
#335 = UNCERTAINTY_MEASURE_WITH_UNIT (LENGTH_MEASURE( 1.000000000000000082E-05 ), #333, 'distance_accuracy_value', 'NONE');
#336 = CARTESIAN_POINT ( 'NONE',  ( 0.000000000000000000, 0.5000000000000000000, 0.000000000000000000 ) ) ;
#337 = AXIS2_PLACEMENT_3D ( 'NONE', #163, #15, #326 ) ;
#338 =( LENGTH_UNIT ( ) NAMED_UNIT ( * ) SI_UNIT ( .MILLI., .METRE. ) );
#339 =( NAMED_UNIT ( * ) PLANE_ANGLE_UNIT ( ) SI_UNIT ( $, .RADIAN. ) );
#340 = ORIENTED_EDGE ( 'NONE', *, *, #252, .F. ) ;
#341 =( NAMED_UNIT ( * ) SI_UNIT ( $, .STERADIAN. ) SOLID_ANGLE_UNIT ( ) );
#342 = ADVANCED_FACE ( 'NONE', ( #251 ), #75, .T. ) ;
#343 = AXIS2_PLACEMENT_3D ( 'NONE', #144, #57, #315 ) ;
#344 = DIRECTION ( 'NONE',  ( 0.000000000000000000, 0.000000000000000000, -1.000000000000000000 ) ) ;
#345 = EDGE_LOOP ( 'NONE', ( #114, #126 ) ) ;
#346 = DIRECTION ( 'NONE',  ( 0.000000000000000000, 0.000000000000000000, -1.000000000000000000 ) ) ;
#347 = STYLED_ITEM ( 'NONE', ( #73 ), #106 ) ;
#348 = ORIENTED_EDGE ( 'NONE', *, *, #165, .T. ) ;
#349 = FACE_OUTER_BOUND ( 'NONE', #345, .T. ) ;
#350 = ORIENTED_EDGE ( 'NONE', *, *, #269, .F. ) ;
#351 = COLOUR_RGB ( '',1.000000000000000000, 0.000000000000000000, 0.000000000000000000 ) ;
#352 = DIRECTION ( 'NONE',  ( -0.000000000000000000, -1.000000000000000000, -0.000000000000000000 ) ) ;
#353 = CARTESIAN_POINT ( 'NONE',  ( 5.000000000000000000, 20.00000000000000355, 6.123233995736762338E-16 ) ) ;
#354 =( GEOMETRIC_REPRESENTATION_CONTEXT ( 3 ) GLOBAL_UNCERTAINTY_ASSIGNED_CONTEXT ( ( #161 ) ) GLOBAL_UNIT_ASSIGNED_CONTEXT ( ( #93, #127, #44 ) ) REPRESENTATION_CONTEXT ( 'NONE', 'WORKASPACE' ) );
#355 = PRODUCT_DEFINITION_FORMATION_WITH_SPECIFIED_SOURCE ( 'ANY', '', #84, .NOT_KNOWN. ) ;
#356 = EDGE_CURVE ( 'NONE', #28, #98, #322, .T. ) ;
#357 = DIRECTION ( 'NONE',  ( -1.000000000000000000, 0.000000000000000000, 0.000000000000000000 ) ) ;
#358 = PRESENTATION_LAYER_ASSIGNMENT (  '', '', ( #10 ) ) ;
#359 = CARTESIAN_POINT ( 'NONE',  ( 4.999999999999999112, 63.00000000000000000, 6.123233995736761352E-16 ) ) ;
#360 = UNCERTAINTY_MEASURE_WITH_UNIT (LENGTH_MEASURE( 1.000000000000000082E-05 ), #102, 'distance_accuracy_value', 'NONE');
#361 = VECTOR ( 'NONE', #31, 1000.000000000000000 ) ;
#362 = CIRCLE ( 'NONE', #212, 0.4999999999999995559 ) ;
#363 =( GEOMETRIC_REPRESENTATION_CONTEXT ( 3 ) GLOBAL_UNCERTAINTY_ASSIGNED_CONTEXT ( ( #241 ) ) GLOBAL_UNIT_ASSIGNED_CONTEXT ( ( #100, #104, #209 ) ) REPRESENTATION_CONTEXT ( 'NONE', 'WORKASPACE' ) );
#364 = VECTOR ( 'NONE', #125, 1000.000000000000000 ) ;
#365 = LINE ( 'NONE', #111, #232 ) ;
#366 = MECHANICAL_DESIGN_GEOMETRIC_PRESENTATION_REPRESENTATION (  '', ( #10 ), #86 ) ;
#367 = VERTEX_POINT ( 'NONE', #313 ) ;
#368 = AXIS2_PLACEMENT_3D ( 'NONE', #291, #205, #90 ) ;
#369 = EDGE_LOOP ( 'NONE', ( #176, #61, #229, #196 ) ) ;
#370 =( GEOMETRIC_REPRESENTATION_CONTEXT ( 3 ) GLOBAL_UNCERTAINTY_ASSIGNED_CONTEXT ( ( #47 ) ) GLOBAL_UNIT_ASSIGNED_CONTEXT ( ( #328, #278, #87 ) ) REPRESENTATION_CONTEXT ( 'NONE', 'WORKASPACE' ) );
ENDSEC;
END-ISO-10303-21;
