ISO-10303-21;
HEADER;
FILE_DESCRIPTION (( 'STEP AP214' ),
    '1' );
FILE_NAME ('Micro_SBM-125-4.STEP',
    '2021-09-02T17:01:00',
    ( '' ),
    ( '' ),
    'SwSTEP 2.0',
    'SolidWorks 2020',
    '' );
FILE_SCHEMA (( 'AUTOMOTIVE_DESIGN' ));
ENDSEC;

DATA;
#1 = ORIENTED_EDGE ( 'NONE', *, *, #126, .T. ) ;
#2 =( LENGTH_UNIT ( ) NAMED_UNIT ( * ) SI_UNIT ( $, .METRE. ) );
#3 = AXIS2_PLACEMENT_3D ( 'NONE', #334, #289, #12 ) ;
#4 =( GEOMETRIC_REPRESENTATION_CONTEXT ( 3 ) GLOBAL_UNCERTAINTY_ASSIGNED_CONTEXT ( ( #282 ) ) GLOBAL_UNIT_ASSIGNED_CONTEXT ( ( #276, #299, #32 ) ) REPRESENTATION_CONTEXT ( 'NONE', 'WORKASPACE' ) );
#5 = DIMENSIONAL_EXPONENTS ( 1.000000000000000000, 0.0000000000000000000, 0.0000000000000000000, 0.0000000000000000000, 0.0000000000000000000, 0.0000000000000000000, 0.0000000000000000000 ) ;
#6 = ORIENTED_EDGE ( 'NONE', *, *, #24, .T. ) ;
#7 = LINE ( 'NONE', #117, #25 ) ;
#8 = ADVANCED_FACE ( 'NONE', ( #131 ), #216, .T. ) ;
#9 = CARTESIAN_POINT ( 'NONE',  ( 0.0000000000000000000, 0.0000000000000000000, 1.241666666666664032 ) ) ;
#10 = DIRECTION ( 'NONE',  ( -0.0000000000000000000, -0.0000000000000000000, -1.000000000000000000 ) ) ;
#11 = FACE_OUTER_BOUND ( 'NONE', #301, .T. ) ;
#12 = DIRECTION ( 'NONE',  ( -1.000000000000000000, 0.0000000000000000000, 0.0000000000000000000 ) ) ;
#13 = ORIENTED_EDGE ( 'NONE', *, *, #60, .T. ) ;
#14 = EDGE_CURVE ( 'NONE', #288, #123, #59, .T. ) ;
#15 = SURFACE_STYLE_FILL_AREA ( #97 ) ;
#16 = ORIENTED_EDGE ( 'NONE', *, *, #141, .T. ) ;
#17 = DIRECTION ( 'NONE',  ( -0.7071067811865566766, 0.0000000000000000000, -0.7071067811865382469 ) ) ;
#18 = FACE_OUTER_BOUND ( 'NONE', #61, .T. ) ;
#19 = DIRECTION ( 'NONE',  ( -0.0000000000000000000, -0.0000000000000000000, -1.000000000000000000 ) ) ;
#20 = CYLINDRICAL_SURFACE ( 'NONE', #244, 0.05000000000000000278 ) ;
#21 = AXIS2_PLACEMENT_3D ( 'NONE', #148, #279, #221 ) ;
#22 = CIRCLE ( 'NONE', #220, 0.04999999999999998196 ) ;
#23 = FACE_OUTER_BOUND ( 'NONE', #202, .T. ) ;
#24 = EDGE_CURVE ( 'NONE', #174, #30, #208, .T. ) ;
#25 = VECTOR ( 'NONE', #222, 39.37007874015748854 ) ;
#26 = ORIENTED_EDGE ( 'NONE', *, *, #303, .T. ) ;
#27 = ORIENTED_EDGE ( 'NONE', *, *, #14, .F. ) ;
#28 = ADVANCED_FACE ( 'NONE', ( #87 ), #115, .T. ) ;
#29 = ORIENTED_EDGE ( 'NONE', *, *, #320, .F. ) ;
#30 = VERTEX_POINT ( 'NONE', #223 ) ;
#31 = EDGE_CURVE ( 'NONE', #325, #272, #190, .T. ) ;
#32 =( NAMED_UNIT ( * ) SI_UNIT ( $, .STERADIAN. ) SOLID_ANGLE_UNIT ( ) );
#33 = DIRECTION ( 'NONE',  ( -0.0000000000000000000, -0.0000000000000000000, -1.000000000000000000 ) ) ;
#34 = APPLICATION_PROTOCOL_DEFINITION ( 'draft international standard', 'automotive_design', 1998, #76 ) ;
#35 = ADVANCED_FACE ( 'NONE', ( #193 ), #232, .T. ) ;
#36 = CARTESIAN_POINT ( 'NONE',  ( 0.0000000000000000000, 0.0000000000000000000, 2.985000000000001208 ) ) ;
#37 = ORIENTED_EDGE ( 'NONE', *, *, #320, .T. ) ;
#38 = UNCERTAINTY_MEASURE_WITH_UNIT (LENGTH_MEASURE( 1.000000000000000082E-05 ), #307, 'distance_accuracy_value', 'NONE');
#39 = CARTESIAN_POINT ( 'NONE',  ( -0.1100000000000004446, 0.0000000000000000000, 3.000000000000000444 ) ) ;
#40 = CARTESIAN_POINT ( 'NONE',  ( -0.05000000000000000278, 0.0000000000000000000, 0.0000000000000000000 ) ) ;
#41 = CYLINDRICAL_SURFACE ( 'NONE', #78, 0.1250000000000000000 ) ;
#42 = ORIENTED_EDGE ( 'NONE', *, *, #316, .F. ) ;
#43 = VECTOR ( 'NONE', #100, 39.37007874015748143 ) ;
#44 = AXIS2_PLACEMENT_3D ( 'NONE', #184, #99, #50 ) ;
#45 = DIRECTION ( 'NONE',  ( 1.000000000000000000, 0.0000000000000000000, 0.0000000000000000000 ) ) ;
#46 = CARTESIAN_POINT ( 'NONE',  ( -0.05000000000000003053, 0.0000000000000000000, 0.09999999999999996392 ) ) ;
#47 = ORIENTED_EDGE ( 'NONE', *, *, #303, .F. ) ;
#48 = DIRECTION ( 'NONE',  ( 1.000000000000000000, 0.0000000000000000000, 0.0000000000000000000 ) ) ;
#49 = ADVANCED_FACE ( 'NONE', ( #11 ), #41, .T. ) ;
#50 = DIRECTION ( 'NONE',  ( -1.000000000000000000, 0.0000000000000000000, 0.0000000000000000000 ) ) ;
#51 = AXIS2_PLACEMENT_3D ( 'NONE', #145, #253, #125 ) ;
#52 = DIRECTION ( 'NONE',  ( -1.224646799147353207E-16, 1.000000000000000000, 0.0000000000000000000 ) ) ;
#53 = STYLED_ITEM ( 'NONE', ( #168 ), #302 ) ;
#54 = DIRECTION ( 'NONE',  ( 0.0000000000000000000, 0.0000000000000000000, -1.000000000000000000 ) ) ;
#55 = EDGE_LOOP ( 'NONE', ( #344, #37, #257, #162 ) ) ;
#56 = DIRECTION ( 'NONE',  ( -0.0000000000000000000, -0.0000000000000000000, -1.000000000000000000 ) ) ;
#57 = AXIS2_PLACEMENT_3D ( 'NONE', #36, #200, #48 ) ;
#58 = PRODUCT_DEFINITION_FORMATION_WITH_SPECIFIED_SOURCE ( 'ANY', '', #291, .NOT_KNOWN. ) ;
#59 = LINE ( 'NONE', #40, #167 ) ;
#60 = EDGE_CURVE ( 'NONE', #298, #226, #332, .T. ) ;
#61 = EDGE_LOOP ( 'NONE', ( #243, #213, #326, #217 ) ) ;
#62 = DIRECTION ( 'NONE',  ( 1.000000000000000000, 0.0000000000000000000, 0.0000000000000000000 ) ) ;
#63 = AXIS2_PLACEMENT_3D ( 'NONE', #166, #33, #140 ) ;
#64 = ORIENTED_EDGE ( 'NONE', *, *, #138, .T. ) ;
#65 = FILL_AREA_STYLE_COLOUR ( '', #157 ) ;
#66 = EDGE_CURVE ( 'NONE', #226, #272, #119, .T. ) ;
#67 = ORIENTED_EDGE ( 'NONE', *, *, #92, .T. ) ;
#68 =( CONVERSION_BASED_UNIT ( 'INCH', #114 ) LENGTH_UNIT ( ) NAMED_UNIT ( #88 ) );
#69 =( NAMED_UNIT ( * ) SI_UNIT ( $, .STERADIAN. ) SOLID_ANGLE_UNIT ( ) );
#70 = DIRECTION ( 'NONE',  ( -0.0000000000000000000, -0.0000000000000000000, -1.000000000000000000 ) ) ;
#71 = FACE_OUTER_BOUND ( 'NONE', #170, .T. ) ;
#72 = CIRCLE ( 'NONE', #265, 0.06250000000000000000 ) ;
#73 = ORIENTED_EDGE ( 'NONE', *, *, #31, .F. ) ;
#74 = CARTESIAN_POINT ( 'NONE',  ( 0.0000000000000000000, 0.0000000000000000000, 1.100000000000000089 ) ) ;
#75 = DIRECTION ( 'NONE',  ( -1.000000000000000000, 0.0000000000000000000, 0.0000000000000000000 ) ) ;
#76 = APPLICATION_CONTEXT ( 'automotive_design' ) ;
#77 = DIRECTION ( 'NONE',  ( 0.0000000000000000000, 0.0000000000000000000, 1.000000000000000000 ) ) ;
#78 = AXIS2_PLACEMENT_3D ( 'NONE', #331, #70, #75 ) ;
#79 = DIRECTION ( 'NONE',  ( 1.000000000000000000, 0.0000000000000000000, 0.0000000000000000000 ) ) ;
#80 = CARTESIAN_POINT ( 'NONE',  ( 0.0000000000000000000, 0.0000000000000000000, 0.0000000000000000000 ) ) ;
#81 = ADVANCED_FACE ( 'NONE', ( #328 ), #309, .T. ) ;
#82 = EDGE_CURVE ( 'NONE', #91, #318, #160, .T. ) ;
#83 = ORIENTED_EDGE ( 'NONE', *, *, #252, .F. ) ;
#84 = ORIENTED_EDGE ( 'NONE', *, *, #111, .T. ) ;
#85 = CIRCLE ( 'NONE', #139, 0.1250000000000000000 ) ;
#86 = CIRCLE ( 'NONE', #44, 0.05000000000000003053 ) ;
#87 = FACE_OUTER_BOUND ( 'NONE', #324, .T. ) ;
#88 = DIMENSIONAL_EXPONENTS ( 1.000000000000000000, 0.0000000000000000000, 0.0000000000000000000, 0.0000000000000000000, 0.0000000000000000000, 0.0000000000000000000, 0.0000000000000000000 ) ;
#89 = SURFACE_STYLE_FILL_AREA ( #247 ) ;
#90 = PRESENTATION_LAYER_ASSIGNMENT (  '', '', ( #218 ) ) ;
#91 = VERTEX_POINT ( 'NONE', #255 ) ;
#92 = EDGE_CURVE ( 'NONE', #30, #174, #260, .T. ) ;
#93 = DIRECTION ( 'NONE',  ( -1.000000000000000000, 0.0000000000000000000, 0.0000000000000000000 ) ) ;
#94 = CIRCLE ( 'NONE', #205, 0.05000000000000003053 ) ;
#95 =( LENGTH_UNIT ( ) NAMED_UNIT ( * ) SI_UNIT ( $, .METRE. ) );
#96 = PRESENTATION_STYLE_ASSIGNMENT (( #98 ) ) ;
#97 = FILL_AREA_STYLE ('',( #329 ) ) ;
#98 = SURFACE_STYLE_USAGE ( .BOTH. , #124 ) ;
#99 = DIRECTION ( 'NONE',  ( -0.0000000000000000000, -0.0000000000000000000, -1.000000000000000000 ) ) ;
#100 = DIRECTION ( 'NONE',  ( -0.0000000000000000000, -0.0000000000000000000, -1.000000000000000000 ) ) ;
#101 = MANIFOLD_SOLID_BREP ( 'Cut-Revolve3', #189 ) ;
#102 = CIRCLE ( 'NONE', #192, 0.06250000000000000000 ) ;
#103 = CARTESIAN_POINT ( 'NONE',  ( 0.0000000000000000000, 0.0000000000000000000, 0.2500000000000000555 ) ) ;
#104 = DIRECTION ( 'NONE',  ( -1.000000000000000000, 0.0000000000000000000, 0.0000000000000000000 ) ) ;
#105 = EDGE_CURVE ( 'NONE', #325, #298, #266, .T. ) ;
#106 = VERTEX_POINT ( 'NONE', #225 ) ;
#107 = ORIENTED_EDGE ( 'NONE', *, *, #111, .F. ) ;
#108 = ORIENTED_EDGE ( 'NONE', *, *, #66, .T. ) ;
#109 = LENGTH_MEASURE_WITH_UNIT ( LENGTH_MEASURE( 0.02539999999999999897 ), #2 );
#110 = CIRCLE ( 'NONE', #235, 0.05000000000000003053 ) ;
#111 = EDGE_CURVE ( 'NONE', #106, #230, #102, .T. ) ;
#112 = SHAPE_DEFINITION_REPRESENTATION ( #146, #302 ) ;
#113 = ORIENTED_EDGE ( 'NONE', *, *, #248, .T. ) ;
#114 = LENGTH_MEASURE_WITH_UNIT ( LENGTH_MEASURE( 0.02539999999999999897 ), #95 );
#115 = CYLINDRICAL_SURFACE ( 'NONE', #63, 0.1250000000000000000 ) ;
#116 =( NAMED_UNIT ( * ) PLANE_ANGLE_UNIT ( ) SI_UNIT ( $, .RADIAN. ) );
#117 = CARTESIAN_POINT ( 'NONE',  ( -0.1374999999999997613, 1.683889348827607856E-17, 1.241666666666664032 ) ) ;
#118 = PRODUCT_DEFINITION_CONTEXT ( 'detailed design', #273, 'design' ) ;
#119 = CIRCLE ( 'NONE', #57, 0.1250000000000000000 ) ;
#120 = LINE ( 'NONE', #227, #188 ) ;
#121 = VECTOR ( 'NONE', #330, 39.37007874015748143 ) ;
#122 = DIRECTION ( 'NONE',  ( 1.000000000000000000, 0.0000000000000000000, 0.0000000000000000000 ) ) ;
#123 = VERTEX_POINT ( 'NONE', #46 ) ;
#124 = SURFACE_SIDE_STYLE ('',( #15 ) ) ;
#125 = DIRECTION ( 'NONE',  ( 1.000000000000000000, 0.0000000000000000000, 0.0000000000000000000 ) ) ;
#126 = EDGE_CURVE ( 'NONE', #298, #325, #339, .T. ) ;
#127 = DIRECTION ( 'NONE',  ( -1.000000000000000000, 0.0000000000000000000, 0.0000000000000000000 ) ) ;
#128 = CARTESIAN_POINT ( 'NONE',  ( 0.1250000000000000000, 1.530808498934191201E-17, 2.985000000000001208 ) ) ;
#129 = AXIS2_PLACEMENT_3D ( 'NONE', #342, #79, #210 ) ;
#130 = FACE_OUTER_BOUND ( 'NONE', #143, .T. ) ;
#131 = FACE_OUTER_BOUND ( 'NONE', #133, .T. ) ;
#132 = EDGE_CURVE ( 'NONE', #275, #174, #120, .T. ) ;
#133 = EDGE_LOOP ( 'NONE', ( #270, #64, #308, #47, #27 ) ) ;
#134 = COLOUR_RGB ( '',0.7921568627450980005, 0.8196078431372548767, 0.9333333333333333481 ) ;
#135 = ORIENTED_EDGE ( 'NONE', *, *, #138, .F. ) ;
#136 = PRESENTATION_LAYER_ASSIGNMENT (  '', '', ( #53 ) ) ;
#137 = ORIENTED_EDGE ( 'NONE', *, *, #251, .T. ) ;
#138 = EDGE_CURVE ( 'NONE', #275, #91, #267, .T. ) ;
#139 = AXIS2_PLACEMENT_3D ( 'NONE', #158, #240, #209 ) ;
#140 = DIRECTION ( 'NONE',  ( -1.000000000000000000, 0.0000000000000000000, 0.0000000000000000000 ) ) ;
#141 = EDGE_CURVE ( 'NONE', #272, #226, #85, .T. ) ;
#142 = CARTESIAN_POINT ( 'NONE',  ( 0.0000000000000000000, 0.0000000000000000000, 0.06250000000000001388 ) ) ;
#143 = EDGE_LOOP ( 'NONE', ( #73, #215, #13, #198 ) ) ;
#144 = CARTESIAN_POINT ( 'NONE',  ( 6.123233995736770196E-18, -0.05000000000000003747, 0.09999999999999996392 ) ) ;
#145 = CARTESIAN_POINT ( 'NONE',  ( 0.0000000000000000000, 0.0000000000000000000, 3.000000000000000444 ) ) ;
#146 = PRODUCT_DEFINITION_SHAPE ( 'NONE', 'NONE',  #152 ) ;
#147 = DIRECTION ( 'NONE',  ( -0.0000000000000000000, -0.0000000000000000000, -1.000000000000000000 ) ) ;
#148 = CARTESIAN_POINT ( 'NONE',  ( 0.0000000000000000000, 0.0000000000000000000, 1.100000000000000089 ) ) ;
#149 =( GEOMETRIC_REPRESENTATION_CONTEXT ( 3 ) GLOBAL_UNCERTAINTY_ASSIGNED_CONTEXT ( ( #38 ) ) GLOBAL_UNIT_ASSIGNED_CONTEXT ( ( #307, #116, #283 ) ) REPRESENTATION_CONTEXT ( 'NONE', 'WORKASPACE' ) );
#150 = CARTESIAN_POINT ( 'NONE',  ( 0.0000000000000000000, 0.0000000000000000000, 3.000000000000000444 ) ) ;
#151 = DIRECTION ( 'NONE',  ( 0.08789381029635716380, 0.0000000000000000000, 0.9961298500253809030 ) ) ;
#152 = PRODUCT_DEFINITION ( 'UNKNOWN', '', #58, #118 ) ;
#153 = DIRECTION ( 'NONE',  ( -1.000000000000000000, 0.0000000000000000000, 0.0000000000000000000 ) ) ;
#154 = DIRECTION ( 'NONE',  ( -1.000000000000000000, 0.0000000000000000000, 0.0000000000000000000 ) ) ;
#155 = VECTOR ( 'NONE', #17, 39.37007874015748854 ) ;
#156 = DIRECTION ( 'NONE',  ( 1.000000000000000000, 1.224646799147353207E-16, -0.0000000000000000000 ) ) ;
#157 = COLOUR_RGB ( '',0.7921568627450980005, 0.8196078431372548767, 0.9333333333333333481 ) ;
#158 = CARTESIAN_POINT ( 'NONE',  ( 0.0000000000000000000, 0.0000000000000000000, 2.985000000000001208 ) ) ;
#159 = DIRECTION ( 'NONE',  ( 1.000000000000000000, 0.0000000000000000000, -0.0000000000000000000 ) ) ;
#160 = CIRCLE ( 'NONE', #3, 0.05000000000000003053 ) ;
#161 = APPLICATION_PROTOCOL_DEFINITION ( 'draft international standard', 'automotive_design', 1998, #273 ) ;
#162 = ORIENTED_EDGE ( 'NONE', *, *, #132, .F. ) ;
#163 = ORIENTED_EDGE ( 'NONE', *, *, #14, .T. ) ;
#164 = CONICAL_SURFACE ( 'NONE', #313, 0.1374999999999997613, 0.08800737352774079536 ) ;
#165 = CARTESIAN_POINT ( 'NONE',  ( 0.1100000000000004446, 1.347111479062094019E-17, 3.000000000000000444 ) ) ;
#166 = CARTESIAN_POINT ( 'NONE',  ( 0.0000000000000000000, 0.0000000000000000000, 3.000000000000000444 ) ) ;
#167 = VECTOR ( 'NONE', #10, 39.37007874015748143 ) ;
#168 = PRESENTATION_STYLE_ASSIGNMENT (( #306 ) ) ;
#169 = CARTESIAN_POINT ( 'NONE',  ( -0.1100000000000004446, 0.0000000000000000000, 3.000000000000000444 ) ) ;
#170 = EDGE_LOOP ( 'NONE', ( #29, #269, #194, #323 ) ) ;
#171 = DIRECTION ( 'NONE',  ( -0.0000000000000000000, -0.0000000000000000000, -1.000000000000000000 ) ) ;
#172 = AXIS2_PLACEMENT_3D ( 'NONE', #263, #54, #292 ) ;
#173 = DIRECTION ( 'NONE',  ( 0.0000000000000000000, 0.0000000000000000000, 1.000000000000000000 ) ) ;
#174 = VERTEX_POINT ( 'NONE', #206 ) ;
#175 = ADVANCED_FACE ( 'NONE', ( #18 ), #286, .T. ) ;
#176 = DIRECTION ( 'NONE',  ( 1.000000000000000000, 0.0000000000000000000, 0.0000000000000000000 ) ) ;
#177 = ADVANCED_FACE ( 'NONE', ( #130 ), #238, .T. ) ;
#178 = LENGTH_MEASURE_WITH_UNIT ( LENGTH_MEASURE( 0.02539999999999999897 ), #256 );
#179 = DIRECTION ( 'NONE',  ( 0.0000000000000000000, 0.0000000000000000000, -1.000000000000000000 ) ) ;
#180 = PLANE ( 'NONE',  #333 ) ;
#181 = MECHANICAL_DESIGN_GEOMETRIC_PRESENTATION_REPRESENTATION (  '', ( #53 ), #4 ) ;
#182 = ORIENTED_EDGE ( 'NONE', *, *, #242, .F. ) ;
#183 = DIRECTION ( 'NONE',  ( 0.7071067811865566766, 8.659560562355046257E-17, -0.7071067811865382469 ) ) ;
#184 = CARTESIAN_POINT ( 'NONE',  ( 0.0000000000000000000, 0.0000000000000000000, 0.09999999999999996392 ) ) ;
#185 = MECHANICAL_DESIGN_GEOMETRIC_PRESENTATION_REPRESENTATION (  '', ( #218 ), #149 ) ;
#186 = ORIENTED_EDGE ( 'NONE', *, *, #337, .F. ) ;
#187 = ORIENTED_EDGE ( 'NONE', *, *, #337, .T. ) ;
#188 = VECTOR ( 'NONE', #151, 39.37007874015748854 ) ;
#189 = CLOSED_SHELL ( 'NONE', ( #8, #203, #35, #175, #28, #49, #258, #177, #305, #81, #261 ) ) ;
#190 = LINE ( 'NONE', #165, #211 ) ;
#191 = SURFACE_SIDE_STYLE ('',( #89 ) ) ;
#192 = AXIS2_PLACEMENT_3D ( 'NONE', #287, #153, #259 ) ;
#193 = FACE_OUTER_BOUND ( 'NONE', #55, .T. ) ;
#194 = ORIENTED_EDGE ( 'NONE', *, *, #132, .T. ) ;
#195 = LINE ( 'NONE', #311, #341 ) ;
#196 = DIMENSIONAL_EXPONENTS ( 1.000000000000000000, 0.0000000000000000000, 0.0000000000000000000, 0.0000000000000000000, 0.0000000000000000000, 0.0000000000000000000, 0.0000000000000000000 ) ;
#197 = DIRECTION ( 'NONE',  ( 0.0000000000000000000, 0.0000000000000000000, 1.000000000000000000 ) ) ;
#198 = ORIENTED_EDGE ( 'NONE', *, *, #141, .F. ) ;
#199 = CARTESIAN_POINT ( 'NONE',  ( -0.04999999999999998196, 1.071565949253933995E-17, 0.2500000000000000555 ) ) ;
#200 = DIRECTION ( 'NONE',  ( 0.0000000000000000000, 0.0000000000000000000, -1.000000000000000000 ) ) ;
#201 = ORIENTED_EDGE ( 'NONE', *, *, #105, .T. ) ;
#202 = EDGE_LOOP ( 'NONE', ( #135, #113, #163, #182, #294 ) ) ;
#203 = ADVANCED_FACE ( 'NONE', ( #293 ), #340, .T. ) ;
#204 = AXIS2_PLACEMENT_3D ( 'NONE', #212, #219, #62 ) ;
#205 = AXIS2_PLACEMENT_3D ( 'NONE', #281, #171, #327 ) ;
#206 = CARTESIAN_POINT ( 'NONE',  ( 0.1250000000000000000, 1.530808498934191201E-17, 1.100000000000000089 ) ) ;
#207 = DIRECTION ( 'NONE',  ( -1.000000000000000000, 0.0000000000000000000, 0.0000000000000000000 ) ) ;
#208 = CIRCLE ( 'NONE', #21, 0.1250000000000000000 ) ;
#209 = DIRECTION ( 'NONE',  ( 1.000000000000000000, 0.0000000000000000000, 0.0000000000000000000 ) ) ;
#210 = DIRECTION ( 'NONE',  ( 0.0000000000000000000, 1.000000000000000000, 0.0000000000000000000 ) ) ;
#211 = VECTOR ( 'NONE', #183, 39.37007874015748854 ) ;
#212 = CARTESIAN_POINT ( 'NONE',  ( 0.0000000000000000000, 0.0000000000000000000, 0.0000000000000000000 ) ) ;
#213 = ORIENTED_EDGE ( 'NONE', *, *, #31, .T. ) ;
#214 = EDGE_LOOP ( 'NONE', ( #83, #300, #26, #84 ) ) ;
#215 = ORIENTED_EDGE ( 'NONE', *, *, #126, .F. ) ;
#216 = CYLINDRICAL_SURFACE ( 'NONE', #278, 0.05000000000000000278 ) ;
#217 = ORIENTED_EDGE ( 'NONE', *, *, #60, .F. ) ;
#218 = STYLED_ITEM ( 'NONE', ( #96 ), #101 ) ;
#219 = DIRECTION ( 'NONE',  ( 0.0000000000000000000, 0.0000000000000000000, 1.000000000000000000 ) ) ;
#220 = AXIS2_PLACEMENT_3D ( 'NONE', #264, #338, #207 ) ;
#221 = DIRECTION ( 'NONE',  ( 1.000000000000000000, 0.0000000000000000000, 0.0000000000000000000 ) ) ;
#222 = DIRECTION ( 'NONE',  ( -0.08789381029635716380, 1.076388734442984648E-17, 0.9961298500253809030 ) ) ;
#223 = CARTESIAN_POINT ( 'NONE',  ( -0.1250000000000000000, 0.0000000000000000000, 1.100000000000000089 ) ) ;
#224 = EDGE_LOOP ( 'NONE', ( #137, #345, #245, #107 ) ) ;
#225 = CARTESIAN_POINT ( 'NONE',  ( 0.0000000000000000000, 0.05000000000000003747, 0.09999999999999996392 ) ) ;
#226 = VERTEX_POINT ( 'NONE', #336 ) ;
#227 = CARTESIAN_POINT ( 'NONE',  ( 0.1374999999999997613, 0.0000000000000000000, 1.241666666666664032 ) ) ;
#228 = CARTESIAN_POINT ( 'NONE',  ( 0.1100000000000004446, 1.438959988998142687E-17, 3.000000000000000444 ) ) ;
#229 = DIRECTION ( 'NONE',  ( 1.000000000000000000, 0.0000000000000000000, 0.0000000000000000000 ) ) ;
#230 = VERTEX_POINT ( 'NONE', #290 ) ;
#231 = DIRECTION ( 'NONE',  ( 0.0000000000000000000, 1.000000000000000000, 0.0000000000000000000 ) ) ;
#232 = CONICAL_SURFACE ( 'NONE', #236, 0.1374999999999997613, 0.08800737352774079536 ) ;
#233 = CARTESIAN_POINT ( 'NONE',  ( 0.0000000000000000000, 0.0000000000000000000, 3.000000000000000444 ) ) ;
#234 = CARTESIAN_POINT ( 'NONE',  ( 0.04999999999999998196, 0.0000000000000000000, 0.2500000000000000555 ) ) ;
#235 = AXIS2_PLACEMENT_3D ( 'NONE', #237, #317, #154 ) ;
#236 = AXIS2_PLACEMENT_3D ( 'NONE', #312, #249, #229 ) ;
#237 = CARTESIAN_POINT ( 'NONE',  ( 0.0000000000000000000, 0.0000000000000000000, 0.09999999999999996392 ) ) ;
#238 = CONICAL_SURFACE ( 'NONE', #172, 0.1100000000000004446, 0.7853981633974613796 ) ;
#239 = PRODUCT_RELATED_PRODUCT_CATEGORY ( 'part', '', ( #291 ) ) ;
#240 = DIRECTION ( 'NONE',  ( 0.0000000000000000000, 0.0000000000000000000, -1.000000000000000000 ) ) ;
#241 = CARTESIAN_POINT ( 'NONE',  ( 0.0000000000000000000, 0.0000000000000000000, 0.0000000000000000000 ) ) ;
#242 = EDGE_CURVE ( 'NONE', #318, #123, #86, .T. ) ;
#243 = ORIENTED_EDGE ( 'NONE', *, *, #105, .F. ) ;
#244 = AXIS2_PLACEMENT_3D ( 'NONE', #80, #19, #127 ) ;
#245 = ORIENTED_EDGE ( 'NONE', *, *, #252, .T. ) ;
#246 = ORIENTED_EDGE ( 'NONE', *, *, #316, .T. ) ;
#247 = FILL_AREA_STYLE ('',( #65 ) ) ;
#248 = EDGE_CURVE ( 'NONE', #275, #288, #22, .T. ) ;
#249 = DIRECTION ( 'NONE',  ( 0.0000000000000000000, 0.0000000000000000000, 1.000000000000000000 ) ) ;
#250 = UNCERTAINTY_MEASURE_WITH_UNIT (LENGTH_MEASURE( 1.000000000000000082E-05 ), #68, 'distance_accuracy_value', 'NONE');
#251 = EDGE_CURVE ( 'NONE', #106, #91, #110, .T. ) ;
#252 = EDGE_CURVE ( 'NONE', #318, #230, #72, .T. ) ;
#253 = DIRECTION ( 'NONE',  ( 0.0000000000000000000, 0.0000000000000000000, 1.000000000000000000 ) ) ;
#254 = CARTESIAN_POINT ( 'NONE',  ( 0.1250000000000000000, 1.530808498934191201E-17, 3.000000000000000444 ) ) ;
#255 = CARTESIAN_POINT ( 'NONE',  ( 0.05000000000000003053, 6.123233995736769426E-18, 0.09999999999999996392 ) ) ;
#256 =( LENGTH_UNIT ( ) NAMED_UNIT ( * ) SI_UNIT ( $, .METRE. ) );
#257 = ORIENTED_EDGE ( 'NONE', *, *, #24, .F. ) ;
#258 = ADVANCED_FACE ( 'NONE', ( #321 ), #180, .T. ) ;
#259 = DIRECTION ( 'NONE',  ( 0.0000000000000000000, 0.0000000000000000000, 1.000000000000000000 ) ) ;
#260 = CIRCLE ( 'NONE', #296, 0.1250000000000000000 ) ;
#261 = ADVANCED_FACE ( 'NONE', ( #23 ), #20, .T. ) ;
#262 = CARTESIAN_POINT ( 'NONE',  ( 0.05000000000000000278, 6.123233995736766344E-18, 0.0000000000000000000 ) ) ;
#263 = CARTESIAN_POINT ( 'NONE',  ( 0.0000000000000000000, 0.0000000000000000000, 3.000000000000000444 ) ) ;
#264 = CARTESIAN_POINT ( 'NONE',  ( 0.0000000000000000000, 0.0000000000000000000, 0.2500000000000000555 ) ) ;
#265 = AXIS2_PLACEMENT_3D ( 'NONE', #315, #156, #52 ) ;
#266 = CIRCLE ( 'NONE', #343, 0.1100000000000004446 ) ;
#267 = LINE ( 'NONE', #262, #43 ) ;
#268 = AXIS2_PLACEMENT_3D ( 'NONE', #233, #179, #104 ) ;
#269 = ORIENTED_EDGE ( 'NONE', *, *, #248, .F. ) ;
#270 = ORIENTED_EDGE ( 'NONE', *, *, #284, .T. ) ;
#271 = AXIS2_PLACEMENT_3D ( 'NONE', #142, #314, #231 ) ;
#272 = VERTEX_POINT ( 'NONE', #128 ) ;
#273 = APPLICATION_CONTEXT ( 'automotive_design' ) ;
#274 = DIRECTION ( 'NONE',  ( -0.0000000000000000000, -0.0000000000000000000, -1.000000000000000000 ) ) ;
#275 = VERTEX_POINT ( 'NONE', #234 ) ;
#276 =( CONVERSION_BASED_UNIT ( 'INCH', #109 ) LENGTH_UNIT ( ) NAMED_UNIT ( #5 ) );
#277 = PRODUCT_CONTEXT ( 'NONE', #76, 'mechanical' ) ;
#278 = AXIS2_PLACEMENT_3D ( 'NONE', #241, #274, #297 ) ;
#279 = DIRECTION ( 'NONE',  ( 0.0000000000000000000, 0.0000000000000000000, 1.000000000000000000 ) ) ;
#280 = LINE ( 'NONE', #254, #121 ) ;
#281 = CARTESIAN_POINT ( 'NONE',  ( 0.0000000000000000000, 0.0000000000000000000, 0.09999999999999996392 ) ) ;
#282 = UNCERTAINTY_MEASURE_WITH_UNIT (LENGTH_MEASURE( 1.000000000000000082E-05 ), #276, 'distance_accuracy_value', 'NONE');
#283 =( NAMED_UNIT ( * ) SI_UNIT ( $, .STERADIAN. ) SOLID_ANGLE_UNIT ( ) );
#284 = EDGE_CURVE ( 'NONE', #288, #275, #319, .T. ) ;
#285 = DIRECTION ( 'NONE',  ( 0.0000000000000000000, 0.0000000000000000000, 1.000000000000000000 ) ) ;
#286 = CONICAL_SURFACE ( 'NONE', #268, 0.1100000000000004446, 0.7853981633974613796 ) ;
#287 = CARTESIAN_POINT ( 'NONE',  ( 0.0000000000000000000, 0.0000000000000000000, 0.06250000000000001388 ) ) ;
#288 = VERTEX_POINT ( 'NONE', #199 ) ;
#289 = DIRECTION ( 'NONE',  ( -0.0000000000000000000, -0.0000000000000000000, -1.000000000000000000 ) ) ;
#290 = CARTESIAN_POINT ( 'NONE',  ( 0.0000000000000000000, 3.827021247335478772E-18, 1.707404996040164512E-17 ) ) ;
#291 = PRODUCT ( 'Micro_SBM-125-4', 'Micro_SBM-125-4', '', ( #277 ) ) ;
#292 = DIRECTION ( 'NONE',  ( -1.000000000000000000, 0.0000000000000000000, 0.0000000000000000000 ) ) ;
#293 = FACE_OUTER_BOUND ( 'NONE', #224, .T. ) ;
#294 = ORIENTED_EDGE ( 'NONE', *, *, #82, .F. ) ;
#295 = CARTESIAN_POINT ( 'NONE',  ( 0.0000000000000000000, 0.0000000000000000000, 3.000000000000000444 ) ) ;
#296 = AXIS2_PLACEMENT_3D ( 'NONE', #74, #197, #122 ) ;
#297 = DIRECTION ( 'NONE',  ( -1.000000000000000000, 0.0000000000000000000, 0.0000000000000000000 ) ) ;
#298 = VERTEX_POINT ( 'NONE', #39 ) ;
#299 =( NAMED_UNIT ( * ) PLANE_ANGLE_UNIT ( ) SI_UNIT ( $, .RADIAN. ) );
#300 = ORIENTED_EDGE ( 'NONE', *, *, #242, .T. ) ;
#301 = EDGE_LOOP ( 'NONE', ( #186, #16, #246, #67 ) ) ;
#302 = ADVANCED_BREP_SHAPE_REPRESENTATION ( 'Micro_SBM-125-4', ( #101, #204 ), #322 ) ;
#303 = EDGE_CURVE ( 'NONE', #123, #106, #94, .T. ) ;
#304 =( NAMED_UNIT ( * ) PLANE_ANGLE_UNIT ( ) SI_UNIT ( $, .RADIAN. ) );
#305 = ADVANCED_FACE ( 'NONE', ( #71 ), #164, .T. ) ;
#306 = SURFACE_STYLE_USAGE ( .BOTH. , #191 ) ;
#307 =( CONVERSION_BASED_UNIT ( 'INCH', #178 ) LENGTH_UNIT ( ) NAMED_UNIT ( #196 ) );
#308 = ORIENTED_EDGE ( 'NONE', *, *, #251, .F. ) ;
#309 = SPHERICAL_SURFACE ( 'NONE', #271, 0.06250000000000000000 ) ;
#310 = EDGE_LOOP ( 'NONE', ( #1, #201 ) ) ;
#311 = CARTESIAN_POINT ( 'NONE',  ( -0.1250000000000000000, 0.0000000000000000000, 3.000000000000000444 ) ) ;
#312 = CARTESIAN_POINT ( 'NONE',  ( 0.0000000000000000000, 0.0000000000000000000, 1.241666666666664032 ) ) ;
#313 = AXIS2_PLACEMENT_3D ( 'NONE', #9, #285, #45 ) ;
#314 = DIRECTION ( 'NONE',  ( 1.000000000000000000, 0.0000000000000000000, 0.0000000000000000000 ) ) ;
#315 = CARTESIAN_POINT ( 'NONE',  ( 0.0000000000000000000, 0.0000000000000000000, 0.06250000000000001388 ) ) ;
#316 = EDGE_CURVE ( 'NONE', #226, #30, #195, .T. ) ;
#317 = DIRECTION ( 'NONE',  ( -0.0000000000000000000, -0.0000000000000000000, -1.000000000000000000 ) ) ;
#318 = VERTEX_POINT ( 'NONE', #144 ) ;
#319 = CIRCLE ( 'NONE', #335, 0.04999999999999998196 ) ;
#320 = EDGE_CURVE ( 'NONE', #288, #30, #7, .T. ) ;
#321 = FACE_OUTER_BOUND ( 'NONE', #310, .T. ) ;
#322 =( GEOMETRIC_REPRESENTATION_CONTEXT ( 3 ) GLOBAL_UNCERTAINTY_ASSIGNED_CONTEXT ( ( #250 ) ) GLOBAL_UNIT_ASSIGNED_CONTEXT ( ( #68, #304, #69 ) ) REPRESENTATION_CONTEXT ( 'NONE', 'WORKASPACE' ) );
#323 = ORIENTED_EDGE ( 'NONE', *, *, #92, .F. ) ;
#324 = EDGE_LOOP ( 'NONE', ( #108, #187, #6, #42 ) ) ;
#325 = VERTEX_POINT ( 'NONE', #228 ) ;
#326 = ORIENTED_EDGE ( 'NONE', *, *, #66, .F. ) ;
#327 = DIRECTION ( 'NONE',  ( -1.000000000000000000, 0.0000000000000000000, 0.0000000000000000000 ) ) ;
#328 = FACE_OUTER_BOUND ( 'NONE', #214, .T. ) ;
#329 = FILL_AREA_STYLE_COLOUR ( '', #134 ) ;
#330 = DIRECTION ( 'NONE',  ( -0.0000000000000000000, -0.0000000000000000000, -1.000000000000000000 ) ) ;
#331 = CARTESIAN_POINT ( 'NONE',  ( 0.0000000000000000000, 0.0000000000000000000, 3.000000000000000444 ) ) ;
#332 = LINE ( 'NONE', #169, #155 ) ;
#333 = AXIS2_PLACEMENT_3D ( 'NONE', #295, #77, #159 ) ;
#334 = CARTESIAN_POINT ( 'NONE',  ( 0.0000000000000000000, 0.0000000000000000000, 0.09999999999999996392 ) ) ;
#335 = AXIS2_PLACEMENT_3D ( 'NONE', #103, #56, #93 ) ;
#336 = CARTESIAN_POINT ( 'NONE',  ( -0.1250000000000000000, 0.0000000000000000000, 2.985000000000001208 ) ) ;
#337 = EDGE_CURVE ( 'NONE', #272, #174, #280, .T. ) ;
#338 = DIRECTION ( 'NONE',  ( -0.0000000000000000000, -0.0000000000000000000, -1.000000000000000000 ) ) ;
#339 = CIRCLE ( 'NONE', #51, 0.1100000000000004446 ) ;
#340 = SPHERICAL_SURFACE ( 'NONE', #129, 0.06250000000000000000 ) ;
#341 = VECTOR ( 'NONE', #147, 39.37007874015748143 ) ;
#342 = CARTESIAN_POINT ( 'NONE',  ( 0.0000000000000000000, 0.0000000000000000000, 0.06250000000000001388 ) ) ;
#343 = AXIS2_PLACEMENT_3D ( 'NONE', #150, #173, #176 ) ;
#344 = ORIENTED_EDGE ( 'NONE', *, *, #284, .F. ) ;
#345 = ORIENTED_EDGE ( 'NONE', *, *, #82, .T. ) ;
ENDSEC;
END-ISO-10303-21;
