ISO-10303-21;
HEADER;
FILE_DESCRIPTION (( 'STEP AP214' ),
    '1' );
FILE_NAME ('Micro_DM-187-490.STEP',
    '2021-09-02T16:00:18',
    ( '' ),
    ( '' ),
    'SwSTEP 2.0',
    'SolidWorks 2020',
    '' );
FILE_SCHEMA (( 'AUTOMOTIVE_DESIGN' ));
ENDSEC;

DATA;
#1 = DIRECTION ( 'NONE',  ( -0.0000000000000000000, -0.0000000000000000000, -1.000000000000000000 ) ) ;
#2 = PRODUCT_DEFINITION_CONTEXT ( 'detailed design', #76, 'design' ) ;
#3 = EDGE_LOOP ( 'NONE', ( #22, #142, #272, #169 ) ) ;
#4 = DIRECTION ( 'NONE',  ( -1.000000000000000000, 0.0000000000000000000, 0.0000000000000000000 ) ) ;
#5 = PRESENTATION_STYLE_ASSIGNMENT (( #232 ) ) ;
#6 = FILL_AREA_STYLE_COLOUR ( '', #262 ) ;
#7 =( GEOMETRIC_REPRESENTATION_CONTEXT ( 3 ) GLOBAL_UNCERTAINTY_ASSIGNED_CONTEXT ( ( #170 ) ) GLOBAL_UNIT_ASSIGNED_CONTEXT ( ( #298, #328, #79 ) ) REPRESENTATION_CONTEXT ( 'NONE', 'WORKASPACE' ) );
#8 = DIRECTION ( 'NONE',  ( -1.000000000000000000, 0.0000000000000000000, 0.0000000000000000000 ) ) ;
#9 = DIRECTION ( 'NONE',  ( -0.0000000000000000000, -0.0000000000000000000, -1.000000000000000000 ) ) ;
#10 = EDGE_CURVE ( 'NONE', #74, #68, #35, .T. ) ;
#11 = APPLICATION_PROTOCOL_DEFINITION ( 'draft international standard', 'automotive_design', 1998, #76 ) ;
#12 = CARTESIAN_POINT ( 'NONE',  ( -0.07874999999999980627, 0.0000000000000000000, 2.000000000000000000 ) ) ;
#13 = VECTOR ( 'NONE', #82, 39.37007874015748143 ) ;
#14 = ADVANCED_FACE ( 'NONE', ( #69 ), #252, .T. ) ;
#15 = DIRECTION ( 'NONE',  ( -0.0000000000000000000, -0.0000000000000000000, -1.000000000000000000 ) ) ;
#16 = DIRECTION ( 'NONE',  ( 0.7071067811865490160, 0.0000000000000000000, 0.7071067811865460184 ) ) ;
#17 = LINE ( 'NONE', #111, #235 ) ;
#18 = AXIS2_PLACEMENT_3D ( 'NONE', #236, #1, #8 ) ;
#19 = VECTOR ( 'NONE', #281, 39.37007874015748143 ) ;
#20 = DIRECTION ( 'NONE',  ( -0.0000000000000000000, -0.0000000000000000000, -1.000000000000000000 ) ) ;
#21 = EDGE_CURVE ( 'NONE', #226, #216, #240, .T. ) ;
#22 = ORIENTED_EDGE ( 'NONE', *, *, #312, .F. ) ;
#23 = EDGE_LOOP ( 'NONE', ( #175, #64, #254, #95 ) ) ;
#24 = ORIENTED_EDGE ( 'NONE', *, *, #302, .F. ) ;
#25 = EDGE_LOOP ( 'NONE', ( #193, #204, #168, #120 ) ) ;
#26 = CARTESIAN_POINT ( 'NONE',  ( 0.0000000000000000000, 0.0000000000000000000, 0.6250000000000000000 ) ) ;
#27 = ORIENTED_EDGE ( 'NONE', *, *, #21, .F. ) ;
#28 = CARTESIAN_POINT ( 'NONE',  ( 0.07874999999999980627, 9.644093543285380530E-18, 2.000000000000000000 ) ) ;
#29 = CARTESIAN_POINT ( 'NONE',  ( 0.0000000000000000000, 0.0000000000000000000, 2.000000000000000000 ) ) ;
#30 = ADVANCED_FACE ( 'NONE', ( #157 ), #295, .T. ) ;
#31 = VERTEX_POINT ( 'NONE', #106 ) ;
#32 = FILL_AREA_STYLE_COLOUR ( '', #195 ) ;
#33 = CARTESIAN_POINT ( 'NONE',  ( 0.09370000000000008877, 0.0000000000000000000, 0.6250000000000000000 ) ) ;
#34 = FACE_OUTER_BOUND ( 'NONE', #291, .T. ) ;
#35 = CIRCLE ( 'NONE', #184, 0.09375000000000001388 ) ;
#36 = CIRCLE ( 'NONE', #127, 0.09375000000000001388 ) ;
#37 = FACE_OUTER_BOUND ( 'NONE', #165, .T. ) ;
#38 = FACE_OUTER_BOUND ( 'NONE', #117, .T. ) ;
#39 = CONICAL_SURFACE ( 'NONE', #77, 0.07874999999999980627, 0.7853981633974466137 ) ;
#40 = CIRCLE ( 'NONE', #115, 0.09375000000000001388 ) ;
#41 = LINE ( 'NONE', #12, #13 ) ;
#42 = DIRECTION ( 'NONE',  ( -1.000000000000000000, 0.0000000000000000000, 0.0000000000000000000 ) ) ;
#43 = CARTESIAN_POINT ( 'NONE',  ( 0.0000000000000000000, 0.0000000000000000000, 2.000000000000000000 ) ) ;
#44 = EDGE_CURVE ( 'NONE', #269, #327, #83, .T. ) ;
#45 = EDGE_LOOP ( 'NONE', ( #248, #221, #122, #148 ) ) ;
#46 = AXIS2_PLACEMENT_3D ( 'NONE', #60, #20, #163 ) ;
#47 = CARTESIAN_POINT ( 'NONE',  ( 0.0000000000000000000, 0.0000000000000000000, 0.0000000000000000000 ) ) ;
#48 = ORIENTED_EDGE ( 'NONE', *, *, #239, .T. ) ;
#49 = EDGE_CURVE ( 'NONE', #144, #249, #223, .T. ) ;
#50 = LENGTH_MEASURE_WITH_UNIT ( LENGTH_MEASURE( 0.02539999999999999897 ), #271 );
#51 = ORIENTED_EDGE ( 'NONE', *, *, #166, .T. ) ;
#52 = CARTESIAN_POINT ( 'NONE',  ( 0.09375000000000001388, 1.148106374200643863E-17, 2.000000000000000000 ) ) ;
#53 = CARTESIAN_POINT ( 'NONE',  ( 0.0000000000000000000, 0.0000000000000000000, 1.707404996040164512E-17 ) ) ;
#54 = AXIS2_PLACEMENT_3D ( 'NONE', #85, #192, #188 ) ;
#55 = CYLINDRICAL_SURFACE ( 'NONE', #290, 0.09375000000000001388 ) ;
#56 = CARTESIAN_POINT ( 'NONE',  ( 0.007499999999999999722, 0.0000000000000000000, 1.707404996040164512E-17 ) ) ;
#57 = ADVANCED_FACE ( 'NONE', ( #126 ), #133, .T. ) ;
#58 = DIRECTION ( 'NONE',  ( 0.0000000000000000000, 0.0000000000000000000, 1.000000000000000000 ) ) ;
#59 = CIRCLE ( 'NONE', #250, 0.09370000000000001938 ) ;
#60 = CARTESIAN_POINT ( 'NONE',  ( 0.0000000000000000000, 0.0000000000000000000, 0.0000000000000000000 ) ) ;
#61 = DIRECTION ( 'NONE',  ( -0.7071067811865490160, 8.659560562354951347E-17, 0.7071067811865460184 ) ) ;
#62 = ADVANCED_FACE ( 'NONE', ( #34 ), #39, .T. ) ;
#63 = VECTOR ( 'NONE', #318, 39.37007874015748143 ) ;
#64 = ORIENTED_EDGE ( 'NONE', *, *, #289, .T. ) ;
#65 = VERTEX_POINT ( 'NONE', #234 ) ;
#66 = EDGE_LOOP ( 'NONE', ( #90, #51, #151, #140 ) ) ;
#67 = MECHANICAL_DESIGN_GEOMETRIC_PRESENTATION_REPRESENTATION (  '', ( #215 ), #112 ) ;
#68 = VERTEX_POINT ( 'NONE', #71 ) ;
#69 = FACE_OUTER_BOUND ( 'NONE', #66, .T. ) ;
#70 = SURFACE_STYLE_FILL_AREA ( #326 ) ;
#71 = CARTESIAN_POINT ( 'NONE',  ( 0.09375000000000001388, 1.148106374200643863E-17, 0.6250000000000000000 ) ) ;
#72 = EDGE_LOOP ( 'NONE', ( #94, #118, #217, #324 ) ) ;
#73 = PRODUCT_CONTEXT ( 'NONE', #319, 'mechanical' ) ;
#74 = VERTEX_POINT ( 'NONE', #256 ) ;
#75 =( CONVERSION_BASED_UNIT ( 'INCH', #99 ) LENGTH_UNIT ( ) NAMED_UNIT ( #225 ) );
#76 = APPLICATION_CONTEXT ( 'automotive_design' ) ;
#77 = AXIS2_PLACEMENT_3D ( 'NONE', #29, #105, #154 ) ;
#78 = FACE_OUTER_BOUND ( 'NONE', #322, .T. ) ;
#79 =( NAMED_UNIT ( * ) SI_UNIT ( $, .STERADIAN. ) SOLID_ANGLE_UNIT ( ) );
#80 =( NAMED_UNIT ( * ) PLANE_ANGLE_UNIT ( ) SI_UNIT ( $, .RADIAN. ) );
#81 = SHAPE_DEFINITION_REPRESENTATION ( #121, #143 ) ;
#82 = DIRECTION ( 'NONE',  ( -0.7071067811865463515, 0.0000000000000000000, -0.7071067811865486830 ) ) ;
#83 = CIRCLE ( 'NONE', #18, 0.09370000000000008877 ) ;
#84 = CARTESIAN_POINT ( 'NONE',  ( 0.0000000000000000000, 0.0000000000000000000, 0.08619999999999966578 ) ) ;
#85 = CARTESIAN_POINT ( 'NONE',  ( 0.0000000000000000000, 0.0000000000000000000, 2.000000000000000000 ) ) ;
#86 = DIRECTION ( 'NONE',  ( 0.0000000000000000000, 0.0000000000000000000, 1.000000000000000000 ) ) ;
#87 = CARTESIAN_POINT ( 'NONE',  ( 0.0000000000000000000, 0.0000000000000000000, 0.6250000000000000000 ) ) ;
#88 = ADVANCED_FACE ( 'NONE', ( #207, #78 ), #97, .T. ) ;
#89 = MANIFOLD_SOLID_BREP ( 'Cut-Revolve4', #194 ) ;
#90 = ORIENTED_EDGE ( 'NONE', *, *, #103, .F. ) ;
#91 = PRESENTATION_LAYER_ASSIGNMENT (  '', '', ( #185 ) ) ;
#92 = ORIENTED_EDGE ( 'NONE', *, *, #10, .T. ) ;
#93 =( LENGTH_UNIT ( ) NAMED_UNIT ( * ) SI_UNIT ( $, .METRE. ) );
#94 = ORIENTED_EDGE ( 'NONE', *, *, #302, .T. ) ;
#95 = ORIENTED_EDGE ( 'NONE', *, *, #257, .F. ) ;
#96 = DIRECTION ( 'NONE',  ( 0.7071067811865463515, 8.659560562354916834E-17, -0.7071067811865486830 ) ) ;
#97 = PLANE ( 'NONE',  #178 ) ;
#98 = ORIENTED_EDGE ( 'NONE', *, *, #312, .T. ) ;
#99 = LENGTH_MEASURE_WITH_UNIT ( LENGTH_MEASURE( 0.02539999999999999897 ), #93 );
#100 = EDGE_CURVE ( 'NONE', #327, #249, #152, .T. ) ;
#101 = CARTESIAN_POINT ( 'NONE',  ( 0.0000000000000000000, 0.0000000000000000000, 2.000000000000000000 ) ) ;
#102 = CIRCLE ( 'NONE', #245, 0.09375000000000001388 ) ;
#103 = EDGE_CURVE ( 'NONE', #229, #68, #183, .T. ) ;
#104 = PRESENTATION_STYLE_ASSIGNMENT (( #310 ) ) ;
#105 = DIRECTION ( 'NONE',  ( 0.0000000000000000000, 0.0000000000000000000, -1.000000000000000000 ) ) ;
#106 = CARTESIAN_POINT ( 'NONE',  ( -0.09375000000000001388, 0.0000000000000000000, 1.984999999999999654 ) ) ;
#107 = ADVANCED_FACE ( 'NONE', ( #280 ), #129, .T. ) ;
#108 = CARTESIAN_POINT ( 'NONE',  ( 0.0000000000000000000, 0.0000000000000000000, 2.000000000000000000 ) ) ;
#109 = DIRECTION ( 'NONE',  ( -1.000000000000000000, 0.0000000000000000000, 0.0000000000000000000 ) ) ;
#110 = LINE ( 'NONE', #213, #63 ) ;
#111 = CARTESIAN_POINT ( 'NONE',  ( -0.007499999999999999722, 9.184850993605147975E-19, 1.707404996040164512E-17 ) ) ;
#112 =( GEOMETRIC_REPRESENTATION_CONTEXT ( 3 ) GLOBAL_UNCERTAINTY_ASSIGNED_CONTEXT ( ( #276 ) ) GLOBAL_UNIT_ASSIGNED_CONTEXT ( ( #75, #277, #153 ) ) REPRESENTATION_CONTEXT ( 'NONE', 'WORKASPACE' ) );
#113 = ORIENTED_EDGE ( 'NONE', *, *, #289, .F. ) ;
#114 = ADVANCED_FACE ( 'NONE', ( #190 ), #282, .T. ) ;
#115 = AXIS2_PLACEMENT_3D ( 'NONE', #244, #251, #230 ) ;
#116 = EDGE_LOOP ( 'NONE', ( #219, #294 ) ) ;
#117 = EDGE_LOOP ( 'NONE', ( #196, #48 ) ) ;
#118 = ORIENTED_EDGE ( 'NONE', *, *, #103, .T. ) ;
#119 = DIRECTION ( 'NONE',  ( -0.0000000000000000000, -0.0000000000000000000, -1.000000000000000000 ) ) ;
#120 = ORIENTED_EDGE ( 'NONE', *, *, #100, .F. ) ;
#121 = PRODUCT_DEFINITION_SHAPE ( 'NONE', 'NONE',  #197 ) ;
#122 = ORIENTED_EDGE ( 'NONE', *, *, #100, .T. ) ;
#123 = SURFACE_SIDE_STYLE ('',( #70 ) ) ;
#124 = SURFACE_SIDE_STYLE ('',( #203 ) ) ;
#125 = DIRECTION ( 'NONE',  ( -1.000000000000000000, 0.0000000000000000000, 0.0000000000000000000 ) ) ;
#126 = FACE_OUTER_BOUND ( 'NONE', #3, .T. ) ;
#127 = AXIS2_PLACEMENT_3D ( 'NONE', #186, #131, #265 ) ;
#128 = DIRECTION ( 'NONE',  ( 1.000000000000000000, 0.0000000000000000000, 0.0000000000000000000 ) ) ;
#129 = PLANE ( 'NONE',  #263 ) ;
#130 = ADVANCED_FACE ( 'NONE', ( #37 ), #209, .T. ) ;
#131 = DIRECTION ( 'NONE',  ( 0.0000000000000000000, 0.0000000000000000000, -1.000000000000000000 ) ) ;
#132 = DIRECTION ( 'NONE',  ( 1.000000000000000000, 0.0000000000000000000, 0.0000000000000000000 ) ) ;
#133 = CONICAL_SURFACE ( 'NONE', #258, 0.07874999999999980627, 0.7853981633974466137 ) ;
#134 = VECTOR ( 'NONE', #313, 39.37007874015748143 ) ;
#135 = CARTESIAN_POINT ( 'NONE',  ( -0.007499999999999999722, 6.196712803685606757E-18, 1.707404996040164512E-17 ) ) ;
#136 = DIRECTION ( 'NONE',  ( 0.0000000000000000000, 0.0000000000000000000, 1.000000000000000000 ) ) ;
#137 = DIRECTION ( 'NONE',  ( -0.0000000000000000000, -0.0000000000000000000, -1.000000000000000000 ) ) ;
#138 = MECHANICAL_DESIGN_GEOMETRIC_PRESENTATION_REPRESENTATION (  '', ( #185 ), #191 ) ;
#139 = AXIS2_PLACEMENT_3D ( 'NONE', #172, #237, #205 ) ;
#140 = ORIENTED_EDGE ( 'NONE', *, *, #211, .F. ) ;
#141 = ADVANCED_FACE ( 'NONE', ( #210 ), #55, .T. ) ;
#142 = ORIENTED_EDGE ( 'NONE', *, *, #201, .F. ) ;
#143 = ADVANCED_BREP_SHAPE_REPRESENTATION ( 'Micro_DM-187-490', ( #89, #296 ), #7 ) ;
#144 = VERTEX_POINT ( 'NONE', #264 ) ;
#145 = AXIS2_PLACEMENT_3D ( 'NONE', #26, #279, #253 ) ;
#146 = PRODUCT_RELATED_PRODUCT_CATEGORY ( 'part', '', ( #174 ) ) ;
#147 = DIRECTION ( 'NONE',  ( 0.0000000000000000000, 0.0000000000000000000, 1.000000000000000000 ) ) ;
#148 = ORIENTED_EDGE ( 'NONE', *, *, #49, .F. ) ;
#149 = CARTESIAN_POINT ( 'NONE',  ( 0.0000000000000000000, 0.0000000000000000000, 1.707404996040164512E-17 ) ) ;
#150 = AXIS2_PLACEMENT_3D ( 'NONE', #43, #58, #132 ) ;
#151 = ORIENTED_EDGE ( 'NONE', *, *, #268, .T. ) ;
#152 = LINE ( 'NONE', #231, #308 ) ;
#153 =( NAMED_UNIT ( * ) SI_UNIT ( $, .STERADIAN. ) SOLID_ANGLE_UNIT ( ) );
#154 = DIRECTION ( 'NONE',  ( -1.000000000000000000, 0.0000000000000000000, 0.0000000000000000000 ) ) ;
#155 = CARTESIAN_POINT ( 'NONE',  ( 0.0000000000000000000, 0.0000000000000000000, 0.0000000000000000000 ) ) ;
#156 = AXIS2_PLACEMENT_3D ( 'NONE', #149, #299, #128 ) ;
#157 = FACE_OUTER_BOUND ( 'NONE', #23, .T. ) ;
#158 = DIRECTION ( 'NONE',  ( 1.000000000000000000, 0.0000000000000000000, 0.0000000000000000000 ) ) ;
#159 = DIRECTION ( 'NONE',  ( -0.0000000000000000000, -0.0000000000000000000, -1.000000000000000000 ) ) ;
#160 = LINE ( 'NONE', #242, #161 ) ;
#161 = VECTOR ( 'NONE', #16, 39.37007874015748143 ) ;
#162 = AXIS2_PLACEMENT_3D ( 'NONE', #155, #119, #125 ) ;
#163 = DIRECTION ( 'NONE',  ( -1.000000000000000000, 0.0000000000000000000, 0.0000000000000000000 ) ) ;
#164 = CARTESIAN_POINT ( 'NONE',  ( -0.07874999999999980627, 0.0000000000000000000, 2.000000000000000000 ) ) ;
#165 = EDGE_LOOP ( 'NONE', ( #113, #27, #288, #323 ) ) ;
#166 = EDGE_CURVE ( 'NONE', #229, #31, #36, .T. ) ;
#167 = VECTOR ( 'NONE', #96, 39.37007874015748143 ) ;
#168 = ORIENTED_EDGE ( 'NONE', *, *, #224, .F. ) ;
#169 = ORIENTED_EDGE ( 'NONE', *, *, #166, .F. ) ;
#170 = UNCERTAINTY_MEASURE_WITH_UNIT (LENGTH_MEASURE( 1.000000000000000082E-05 ), #298, 'distance_accuracy_value', 'NONE');
#171 = ORIENTED_EDGE ( 'NONE', *, *, #233, .F. ) ;
#172 = CARTESIAN_POINT ( 'NONE',  ( 0.0000000000000000000, 0.0000000000000000000, 2.000000000000000000 ) ) ;
#173 = EDGE_CURVE ( 'NONE', #269, #144, #238, .T. ) ;
#174 = PRODUCT ( 'Micro_DM-187-490', 'Micro_DM-187-490', '', ( #73 ) ) ;
#175 = ORIENTED_EDGE ( 'NONE', *, *, #239, .F. ) ;
#176 = CYLINDRICAL_SURFACE ( 'NONE', #162, 0.09370000000000004714 ) ;
#177 =( CONVERSION_BASED_UNIT ( 'INCH', #50 ) LENGTH_UNIT ( ) NAMED_UNIT ( #293 ) );
#178 = AXIS2_PLACEMENT_3D ( 'NONE', #33, #182, #311 ) ;
#179 = AXIS2_PLACEMENT_3D ( 'NONE', #243, #15, #316 ) ;
#180 =( LENGTH_UNIT ( ) NAMED_UNIT ( * ) SI_UNIT ( $, .METRE. ) );
#181 = DIRECTION ( 'NONE',  ( -0.0000000000000000000, -0.0000000000000000000, -1.000000000000000000 ) ) ;
#182 = DIRECTION ( 'NONE',  ( -0.0000000000000000000, 0.0000000000000000000, -1.000000000000000000 ) ) ;
#183 = LINE ( 'NONE', #52, #19 ) ;
#184 = AXIS2_PLACEMENT_3D ( 'NONE', #199, #270, #297 ) ;
#185 = STYLED_ITEM ( 'NONE', ( #104 ), #89 ) ;
#186 = CARTESIAN_POINT ( 'NONE',  ( 0.0000000000000000000, 0.0000000000000000000, 1.984999999999999654 ) ) ;
#187 = CARTESIAN_POINT ( 'NONE',  ( 0.0000000000000000000, 0.0000000000000000000, 0.0000000000000000000 ) ) ;
#188 = DIRECTION ( 'NONE',  ( 1.000000000000000000, 0.0000000000000000000, 0.0000000000000000000 ) ) ;
#189 = EDGE_CURVE ( 'NONE', #300, #31, #41, .T. ) ;
#190 = FACE_OUTER_BOUND ( 'NONE', #45, .T. ) ;
#191 =( GEOMETRIC_REPRESENTATION_CONTEXT ( 3 ) GLOBAL_UNCERTAINTY_ASSIGNED_CONTEXT ( ( #259 ) ) GLOBAL_UNIT_ASSIGNED_CONTEXT ( ( #177, #80, #274 ) ) REPRESENTATION_CONTEXT ( 'NONE', 'WORKASPACE' ) );
#192 = DIRECTION ( 'NONE',  ( 0.0000000000000000000, 0.0000000000000000000, 1.000000000000000000 ) ) ;
#193 = ORIENTED_EDGE ( 'NONE', *, *, #314, .T. ) ;
#194 = CLOSED_SHELL ( 'NONE', ( #317, #30, #62, #141, #14, #107, #57, #88, #130, #114, #228 ) ) ;
#195 = COLOUR_RGB ( '',0.7921568627450980005, 0.8196078431372548767, 0.9333333333333333481 ) ;
#196 = ORIENTED_EDGE ( 'NONE', *, *, #21, .T. ) ;
#197 = PRODUCT_DEFINITION ( 'UNKNOWN', '', #267, #2 ) ;
#198 = CIRCLE ( 'NONE', #54, 0.07874999999999980627 ) ;
#199 = CARTESIAN_POINT ( 'NONE',  ( 0.0000000000000000000, 0.0000000000000000000, 0.6250000000000000000 ) ) ;
#200 = DIRECTION ( 'NONE',  ( 1.000000000000000000, 0.0000000000000000000, 0.0000000000000000000 ) ) ;
#201 = EDGE_CURVE ( 'NONE', #300, #65, #198, .T. ) ;
#202 = EDGE_LOOP ( 'NONE', ( #329, #247 ) ) ;
#203 = SURFACE_STYLE_FILL_AREA ( #227 ) ;
#204 = ORIENTED_EDGE ( 'NONE', *, *, #173, .T. ) ;
#205 = DIRECTION ( 'NONE',  ( -1.000000000000000000, 0.0000000000000000000, 0.0000000000000000000 ) ) ;
#206 = DIRECTION ( 'NONE',  ( -0.0000000000000000000, -0.0000000000000000000, -1.000000000000000000 ) ) ;
#207 = FACE_BOUND ( 'NONE', #202, .T. ) ;
#208 = CARTESIAN_POINT ( 'NONE',  ( 0.09370000000000004714, 1.147494050801070527E-17, 0.0000000000000000000 ) ) ;
#209 = CONICAL_SURFACE ( 'NONE', #325, 0.007499999999999999722, 0.7853981633974503884 ) ;
#210 = FACE_OUTER_BOUND ( 'NONE', #72, .T. ) ;
#211 = EDGE_CURVE ( 'NONE', #68, #74, #102, .T. ) ;
#212 = CARTESIAN_POINT ( 'NONE',  ( 0.0000000000000000000, 0.0000000000000000000, 1.707404996040164512E-17 ) ) ;
#213 = CARTESIAN_POINT ( 'NONE',  ( -0.09375000000000001388, 0.0000000000000000000, 2.000000000000000000 ) ) ;
#214 = CARTESIAN_POINT ( 'NONE',  ( 0.0000000000000000000, 0.0000000000000000000, 2.000000000000000000 ) ) ;
#215 = STYLED_ITEM ( 'NONE', ( #5 ), #143 ) ;
#216 = VERTEX_POINT ( 'NONE', #135 ) ;
#217 = ORIENTED_EDGE ( 'NONE', *, *, #10, .F. ) ;
#218 = AXIS2_PLACEMENT_3D ( 'NONE', #187, #136, #283 ) ;
#219 = ORIENTED_EDGE ( 'NONE', *, *, #201, .T. ) ;
#220 = LENGTH_MEASURE_WITH_UNIT ( LENGTH_MEASURE( 0.02539999999999999897 ), #180 );
#221 = ORIENTED_EDGE ( 'NONE', *, *, #44, .T. ) ;
#222 = FACE_OUTER_BOUND ( 'NONE', #25, .T. ) ;
#223 = CIRCLE ( 'NONE', #266, 0.09370000000000001938 ) ;
#224 = EDGE_CURVE ( 'NONE', #249, #144, #59, .T. ) ;
#225 = DIMENSIONAL_EXPONENTS ( 1.000000000000000000, 0.0000000000000000000, 0.0000000000000000000, 0.0000000000000000000, 0.0000000000000000000, 0.0000000000000000000, 0.0000000000000000000 ) ;
#226 = VERTEX_POINT ( 'NONE', #56 ) ;
#227 = FILL_AREA_STYLE ('',( #6 ) ) ;
#228 = ADVANCED_FACE ( 'NONE', ( #38 ), #321, .F. ) ;
#229 = VERTEX_POINT ( 'NONE', #241 ) ;
#230 = DIRECTION ( 'NONE',  ( 1.000000000000000000, 0.0000000000000000000, 0.0000000000000000000 ) ) ;
#231 = CARTESIAN_POINT ( 'NONE',  ( -0.09370000000000004714, 0.0000000000000000000, 0.0000000000000000000 ) ) ;
#232 = SURFACE_STYLE_USAGE ( .BOTH. , #123 ) ;
#233 = EDGE_CURVE ( 'NONE', #65, #300, #275, .T. ) ;
#234 = CARTESIAN_POINT ( 'NONE',  ( 0.07874999999999980627, 1.056257864264590573E-17, 2.000000000000000000 ) ) ;
#235 = VECTOR ( 'NONE', #61, 39.37007874015748143 ) ;
#236 = CARTESIAN_POINT ( 'NONE',  ( 0.0000000000000000000, 0.0000000000000000000, 0.6250000000000000000 ) ) ;
#237 = DIRECTION ( 'NONE',  ( -0.0000000000000000000, -0.0000000000000000000, -1.000000000000000000 ) ) ;
#238 = LINE ( 'NONE', #208, #134 ) ;
#239 = EDGE_CURVE ( 'NONE', #216, #226, #309, .T. ) ;
#240 = CIRCLE ( 'NONE', #246, 0.007499999999999999722 ) ;
#241 = CARTESIAN_POINT ( 'NONE',  ( 0.09375000000000001388, 1.148106374200643863E-17, 1.984999999999999654 ) ) ;
#242 = CARTESIAN_POINT ( 'NONE',  ( 0.007499999999999999722, 0.0000000000000000000, 1.707404996040164512E-17 ) ) ;
#243 = CARTESIAN_POINT ( 'NONE',  ( 0.0000000000000000000, 0.0000000000000000000, 1.707404996040164512E-17 ) ) ;
#244 = CARTESIAN_POINT ( 'NONE',  ( 0.0000000000000000000, 0.0000000000000000000, 1.984999999999999654 ) ) ;
#245 = AXIS2_PLACEMENT_3D ( 'NONE', #87, #315, #261 ) ;
#246 = AXIS2_PLACEMENT_3D ( 'NONE', #53, #9, #303 ) ;
#247 = ORIENTED_EDGE ( 'NONE', *, *, #44, .F. ) ;
#248 = ORIENTED_EDGE ( 'NONE', *, *, #173, .F. ) ;
#249 = VERTEX_POINT ( 'NONE', #284 ) ;
#250 = AXIS2_PLACEMENT_3D ( 'NONE', #84, #137, #109 ) ;
#251 = DIRECTION ( 'NONE',  ( 0.0000000000000000000, 0.0000000000000000000, -1.000000000000000000 ) ) ;
#252 = CYLINDRICAL_SURFACE ( 'NONE', #139, 0.09375000000000001388 ) ;
#253 = DIRECTION ( 'NONE',  ( -1.000000000000000000, 0.0000000000000000000, 0.0000000000000000000 ) ) ;
#254 = ORIENTED_EDGE ( 'NONE', *, *, #224, .T. ) ;
#255 = DIRECTION ( 'NONE',  ( 0.0000000000000000000, 0.0000000000000000000, -1.000000000000000000 ) ) ;
#256 = CARTESIAN_POINT ( 'NONE',  ( -0.09375000000000001388, 0.0000000000000000000, 0.6250000000000000000 ) ) ;
#257 = EDGE_CURVE ( 'NONE', #226, #144, #160, .T. ) ;
#258 = AXIS2_PLACEMENT_3D ( 'NONE', #101, #255, #278 ) ;
#259 = UNCERTAINTY_MEASURE_WITH_UNIT (LENGTH_MEASURE( 1.000000000000000082E-05 ), #177, 'distance_accuracy_value', 'NONE');
#260 = DIRECTION ( 'NONE',  ( 1.000000000000000000, 0.0000000000000000000, -0.0000000000000000000 ) ) ;
#261 = DIRECTION ( 'NONE',  ( -1.000000000000000000, 0.0000000000000000000, 0.0000000000000000000 ) ) ;
#262 = COLOUR_RGB ( '',0.7921568627450980005, 0.8196078431372548767, 0.9333333333333333481 ) ;
#263 = AXIS2_PLACEMENT_3D ( 'NONE', #108, #86, #260 ) ;
#264 = CARTESIAN_POINT ( 'NONE',  ( 0.09370000000000001938, 0.0000000000000000000, 0.08619999999999966578 ) ) ;
#265 = DIRECTION ( 'NONE',  ( 1.000000000000000000, 0.0000000000000000000, 0.0000000000000000000 ) ) ;
#266 = AXIS2_PLACEMENT_3D ( 'NONE', #307, #206, #4 ) ;
#267 = PRODUCT_DEFINITION_FORMATION_WITH_SPECIFIED_SOURCE ( 'ANY', '', #174, .NOT_KNOWN. ) ;
#268 = EDGE_CURVE ( 'NONE', #31, #74, #110, .T. ) ;
#269 = VERTEX_POINT ( 'NONE', #286 ) ;
#270 = DIRECTION ( 'NONE',  ( -0.0000000000000000000, -0.0000000000000000000, -1.000000000000000000 ) ) ;
#271 =( LENGTH_UNIT ( ) NAMED_UNIT ( * ) SI_UNIT ( $, .METRE. ) );
#272 = ORIENTED_EDGE ( 'NONE', *, *, #189, .T. ) ;
#273 = CARTESIAN_POINT ( 'NONE',  ( -0.09370000000000008877, 0.0000000000000000000, 0.6250000000000000000 ) ) ;
#274 =( NAMED_UNIT ( * ) SI_UNIT ( $, .STERADIAN. ) SOLID_ANGLE_UNIT ( ) );
#275 = CIRCLE ( 'NONE', #150, 0.07874999999999980627 ) ;
#276 = UNCERTAINTY_MEASURE_WITH_UNIT (LENGTH_MEASURE( 1.000000000000000082E-05 ), #75, 'distance_accuracy_value', 'NONE');
#277 =( NAMED_UNIT ( * ) PLANE_ANGLE_UNIT ( ) SI_UNIT ( $, .RADIAN. ) );
#278 = DIRECTION ( 'NONE',  ( -1.000000000000000000, 0.0000000000000000000, 0.0000000000000000000 ) ) ;
#279 = DIRECTION ( 'NONE',  ( -0.0000000000000000000, -0.0000000000000000000, -1.000000000000000000 ) ) ;
#280 = FACE_OUTER_BOUND ( 'NONE', #116, .T. ) ;
#281 = DIRECTION ( 'NONE',  ( -0.0000000000000000000, -0.0000000000000000000, -1.000000000000000000 ) ) ;
#282 = CYLINDRICAL_SURFACE ( 'NONE', #46, 0.09370000000000004714 ) ;
#283 = DIRECTION ( 'NONE',  ( 1.000000000000000000, 0.0000000000000000000, -0.0000000000000000000 ) ) ;
#284 = CARTESIAN_POINT ( 'NONE',  ( -0.09370000000000001938, 1.147494050801070064E-17, 0.08619999999999966578 ) ) ;
#285 = CIRCLE ( 'NONE', #145, 0.09370000000000008877 ) ;
#286 = CARTESIAN_POINT ( 'NONE',  ( 0.09370000000000008877, 1.147494050801071143E-17, 0.6250000000000000000 ) ) ;
#287 = DIRECTION ( 'NONE',  ( 0.0000000000000000000, 0.0000000000000000000, 1.000000000000000000 ) ) ;
#288 = ORIENTED_EDGE ( 'NONE', *, *, #257, .T. ) ;
#289 = EDGE_CURVE ( 'NONE', #216, #249, #17, .T. ) ;
#290 = AXIS2_PLACEMENT_3D ( 'NONE', #214, #159, #42 ) ;
#291 = EDGE_LOOP ( 'NONE', ( #171, #98, #24, #292 ) ) ;
#292 = ORIENTED_EDGE ( 'NONE', *, *, #189, .F. ) ;
#293 = DIMENSIONAL_EXPONENTS ( 1.000000000000000000, 0.0000000000000000000, 0.0000000000000000000, 0.0000000000000000000, 0.0000000000000000000, 0.0000000000000000000, 0.0000000000000000000 ) ;
#294 = ORIENTED_EDGE ( 'NONE', *, *, #233, .T. ) ;
#295 = CONICAL_SURFACE ( 'NONE', #156, 0.007499999999999999722, 0.7853981633974503884 ) ;
#296 = AXIS2_PLACEMENT_3D ( 'NONE', #47, #147, #200 ) ;
#297 = DIRECTION ( 'NONE',  ( -1.000000000000000000, 0.0000000000000000000, 0.0000000000000000000 ) ) ;
#298 =( CONVERSION_BASED_UNIT ( 'INCH', #220 ) LENGTH_UNIT ( ) NAMED_UNIT ( #306 ) );
#299 = DIRECTION ( 'NONE',  ( 0.0000000000000000000, 0.0000000000000000000, 1.000000000000000000 ) ) ;
#300 = VERTEX_POINT ( 'NONE', #164 ) ;
#301 = APPLICATION_PROTOCOL_DEFINITION ( 'draft international standard', 'automotive_design', 1998, #319 ) ;
#302 = EDGE_CURVE ( 'NONE', #31, #229, #40, .T. ) ;
#303 = DIRECTION ( 'NONE',  ( -1.000000000000000000, 0.0000000000000000000, 0.0000000000000000000 ) ) ;
#304 = ORIENTED_EDGE ( 'NONE', *, *, #211, .T. ) ;
#305 = LINE ( 'NONE', #28, #167 ) ;
#306 = DIMENSIONAL_EXPONENTS ( 1.000000000000000000, 0.0000000000000000000, 0.0000000000000000000, 0.0000000000000000000, 0.0000000000000000000, 0.0000000000000000000, 0.0000000000000000000 ) ;
#307 = CARTESIAN_POINT ( 'NONE',  ( 0.0000000000000000000, 0.0000000000000000000, 0.08619999999999966578 ) ) ;
#308 = VECTOR ( 'NONE', #181, 39.37007874015748143 ) ;
#309 = CIRCLE ( 'NONE', #179, 0.007499999999999999722 ) ;
#310 = SURFACE_STYLE_USAGE ( .BOTH. , #124 ) ;
#311 = DIRECTION ( 'NONE',  ( -1.000000000000000000, 0.0000000000000000000, 0.0000000000000000000 ) ) ;
#312 = EDGE_CURVE ( 'NONE', #65, #229, #305, .T. ) ;
#313 = DIRECTION ( 'NONE',  ( -0.0000000000000000000, -0.0000000000000000000, -1.000000000000000000 ) ) ;
#314 = EDGE_CURVE ( 'NONE', #327, #269, #285, .T. ) ;
#315 = DIRECTION ( 'NONE',  ( -0.0000000000000000000, -0.0000000000000000000, -1.000000000000000000 ) ) ;
#316 = DIRECTION ( 'NONE',  ( -1.000000000000000000, 0.0000000000000000000, 0.0000000000000000000 ) ) ;
#317 = ADVANCED_FACE ( 'NONE', ( #222 ), #176, .T. ) ;
#318 = DIRECTION ( 'NONE',  ( -0.0000000000000000000, -0.0000000000000000000, -1.000000000000000000 ) ) ;
#319 = APPLICATION_CONTEXT ( 'automotive_design' ) ;
#320 = PRESENTATION_LAYER_ASSIGNMENT (  '', '', ( #215 ) ) ;
#321 = PLANE ( 'NONE',  #218 ) ;
#322 = EDGE_LOOP ( 'NONE', ( #92, #304 ) ) ;
#323 = ORIENTED_EDGE ( 'NONE', *, *, #49, .T. ) ;
#324 = ORIENTED_EDGE ( 'NONE', *, *, #268, .F. ) ;
#325 = AXIS2_PLACEMENT_3D ( 'NONE', #212, #287, #158 ) ;
#326 = FILL_AREA_STYLE ('',( #32 ) ) ;
#327 = VERTEX_POINT ( 'NONE', #273 ) ;
#328 =( NAMED_UNIT ( * ) PLANE_ANGLE_UNIT ( ) SI_UNIT ( $, .RADIAN. ) );
#329 = ORIENTED_EDGE ( 'NONE', *, *, #314, .F. ) ;
ENDSEC;
END-ISO-10303-21;
