ISO-10303-21;
HEADER;
FILE_DESCRIPTION (( 'STEP AP214' ),
    '1' );
FILE_NAME ('44107W.STEP',
    '2023-06-22T19:21:06',
    ( '' ),
    ( '' ),
    'SwSTEP 2.0',
    'SolidWorks 2023',
    '' );
FILE_SCHEMA (( 'AUTOMOTIVE_DESIGN' ));
ENDSEC;

DATA;
#1 = AXIS2_PLACEMENT_3D ( 'NONE', #156, #194, #278 ) ;
#2 =( GEOMETRIC_REPRESENTATION_CONTEXT ( 3 ) GLOBAL_UNCERTAINTY_ASSIGNED_CONTEXT ( ( #56 ) ) GLOBAL_UNIT_ASSIGNED_CONTEXT ( ( #308, #101, #49 ) ) REPRESENTATION_CONTEXT ( 'NONE', 'WORKASPACE' ) );
#3 = LENGTH_MEASURE_WITH_UNIT ( LENGTH_MEASURE( 0.02539999999999999897 ), #88 );
#4 = FILL_AREA_STYLE ('',( #10 ) ) ;
#5 = PRODUCT_DEFINITION ( 'UNKNOWN', '', #241, #234 ) ;
#6 = AXIS2_PLACEMENT_3D ( 'NONE', #141, #229, #118 ) ;
#7 = UNCERTAINTY_MEASURE_WITH_UNIT (LENGTH_MEASURE( 1.000000000000000082E-05 ), #259, 'distance_accuracy_value', 'NONE');
#8 = EDGE_CURVE ( 'NONE', #272, #71, #38, .T. ) ;
#9 = DIRECTION ( 'NONE',  ( -0.000000000000000000, -1.000000000000000000, -0.000000000000000000 ) ) ;
#10 = FILL_AREA_STYLE_COLOUR ( '', #55 ) ;
#11 = ORIENTED_EDGE ( 'NONE', *, *, #161, .T. ) ;
#12 = DIRECTION ( 'NONE',  ( -2.260886398425882692E-16, -1.000000000000000000, 0.000000000000000000 ) ) ;
#13 = DIMENSIONAL_EXPONENTS ( 1.000000000000000000, 0.000000000000000000, 0.000000000000000000, 0.000000000000000000, 0.000000000000000000, 0.000000000000000000, 0.000000000000000000 ) ;
#14 = PRESENTATION_STYLE_ASSIGNMENT (( #133 ) ) ;
#15 = AXIS2_PLACEMENT_3D ( 'NONE', #183, #95, #163 ) ;
#16 = CARTESIAN_POINT ( 'NONE',  ( 1.530808498934191817E-17, 0.000000000000000000, 0.1250000000000000278 ) ) ;
#17 = FILL_AREA_STYLE ('',( #138 ) ) ;
#18 = DIRECTION ( 'NONE',  ( -0.000000000000000000, -1.000000000000000000, -0.000000000000000000 ) ) ;
#19 = DIRECTION ( 'NONE',  ( 0.000000000000000000, 0.000000000000000000, -1.000000000000000000 ) ) ;
#20 = DIMENSIONAL_EXPONENTS ( 1.000000000000000000, 0.000000000000000000, 0.000000000000000000, 0.000000000000000000, 0.000000000000000000, 0.000000000000000000, 0.000000000000000000 ) ;
#21 = EDGE_LOOP ( 'NONE', ( #197, #157 ) ) ;
#22 = STYLED_ITEM ( 'NONE', ( #292 ), #237 ) ;
#23 = SURFACE_SIDE_STYLE ('',( #45 ) ) ;
#24 = ADVANCED_FACE ( 'NONE', ( #248 ), #134, .T. ) ;
#25 = APPLICATION_CONTEXT ( 'automotive_design' ) ;
#26 = CARTESIAN_POINT ( 'NONE',  ( 0.000000000000000000, 0.3749999999999999445, 0.000000000000000000 ) ) ;
#27 = DIRECTION ( 'NONE',  ( -1.000000000000000000, 0.000000000000000000, 0.000000000000000000 ) ) ;
#28 = AXIS2_PLACEMENT_3D ( 'NONE', #221, #219, #19 ) ;
#29 = SURFACE_SIDE_STYLE ('',( #258 ) ) ;
#30 = EDGE_CURVE ( 'NONE', #34, #109, #175, .T. ) ;
#31 = AXIS2_PLACEMENT_3D ( 'NONE', #264, #58, #108 ) ;
#32 = CIRCLE ( 'NONE', #149, 0.1250000000000000278 ) ;
#33 = FACE_OUTER_BOUND ( 'NONE', #220, .T. ) ;
#34 = VERTEX_POINT ( 'NONE', #275 ) ;
#35 = PRESENTATION_STYLE_ASSIGNMENT (( #72 ) ) ;
#36 = CARTESIAN_POINT ( 'NONE',  ( 1.530808498934191817E-17, 0.000000000000000000, 0.1250000000000000278 ) ) ;
#37 = APPLICATION_CONTEXT ( 'automotive_design' ) ;
#38 = LINE ( 'NONE', #16, #199 ) ;
#39 = DIMENSIONAL_EXPONENTS ( 1.000000000000000000, 0.000000000000000000, 0.000000000000000000, 0.000000000000000000, 0.000000000000000000, 0.000000000000000000, 0.000000000000000000 ) ;
#40 = CARTESIAN_POINT ( 'NONE',  ( 0.000000000000000000, 0.000000000000000000, 0.000000000000000000 ) ) ;
#41 = AXIS2_PLACEMENT_3D ( 'NONE', #284, #168, #119 ) ;
#42 = PLANE ( 'NONE',  #160 ) ;
#43 = EDGE_LOOP ( 'NONE', ( #279, #299 ) ) ;
#44 = MANIFOLD_SOLID_BREP ( 'Revolve - Cutting Edge', #169 ) ;
#45 = SURFACE_STYLE_FILL_AREA ( #4 ) ;
#46 = EDGE_LOOP ( 'NONE', ( #158, #86, #181, #130 ) ) ;
#47 = CARTESIAN_POINT ( 'NONE',  ( 1.530808498934191817E-17, 0.3749999999999999445, 0.1250000000000000278 ) ) ;
#48 = CARTESIAN_POINT ( 'NONE',  ( 0.000000000000000000, 0.000000000000000000, 0.000000000000000000 ) ) ;
#49 =( NAMED_UNIT ( * ) SI_UNIT ( $, .STERADIAN. ) SOLID_ANGLE_UNIT ( ) );
#50 =( GEOMETRIC_REPRESENTATION_CONTEXT ( 3 ) GLOBAL_UNCERTAINTY_ASSIGNED_CONTEXT ( ( #7 ) ) GLOBAL_UNIT_ASSIGNED_CONTEXT ( ( #259, #265, #123 ) ) REPRESENTATION_CONTEXT ( 'NONE', 'WORKASPACE' ) );
#51 = EDGE_CURVE ( 'NONE', #68, #83, #240, .T. ) ;
#52 =( NAMED_UNIT ( * ) SI_UNIT ( $, .STERADIAN. ) SOLID_ANGLE_UNIT ( ) );
#53 = SURFACE_STYLE_FILL_AREA ( #257 ) ;
#54 = EDGE_CURVE ( 'NONE', #68, #250, #121, .T. ) ;
#55 = COLOUR_RGB ( '',1.000000000000000000, 0.000000000000000000, 0.000000000000000000 ) ;
#56 = UNCERTAINTY_MEASURE_WITH_UNIT (LENGTH_MEASURE( 1.000000000000000082E-05 ), #308, 'distance_accuracy_value', 'NONE');
#57 = PRESENTATION_LAYER_ASSIGNMENT (  '', '', ( #290 ) ) ;
#58 = DIRECTION ( 'NONE',  ( 0.000000000000000000, -1.000000000000000000, -0.000000000000000000 ) ) ;
#59 = COLOUR_RGB ( '',0.7921568627450980005, 0.8196078431372548767, 0.9333333333333333481 ) ;
#60 = LINE ( 'NONE', #242, #266 ) ;
#61 = ADVANCED_BREP_SHAPE_REPRESENTATION ( '44107W', ( #44, #146, #211 ), #2 ) ;
#62 = SURFACE_SIDE_STYLE ('',( #267 ) ) ;
#63 = EDGE_LOOP ( 'NONE', ( #137, #227 ) ) ;
#64 = LENGTH_MEASURE_WITH_UNIT ( LENGTH_MEASURE( 0.02539999999999999897 ), #223 );
#65 = DIRECTION ( 'NONE',  ( -0.000000000000000000, -1.000000000000000000, -0.000000000000000000 ) ) ;
#66 = DIRECTION ( 'NONE',  ( 2.260886398425882692E-16, 1.000000000000000000, -0.000000000000000000 ) ) ;
#67 = COLOUR_RGB ( '',1.000000000000000000, 0.000000000000000000, 0.000000000000000000 ) ;
#68 = VERTEX_POINT ( 'NONE', #136 ) ;
#69 = DIRECTION ( 'NONE',  ( 1.000000000000000000, -2.260886398425882692E-16, 0.000000000000000000 ) ) ;
#70 =( GEOMETRIC_REPRESENTATION_CONTEXT ( 3 ) GLOBAL_UNCERTAINTY_ASSIGNED_CONTEXT ( ( #100 ) ) GLOBAL_UNIT_ASSIGNED_CONTEXT ( ( #135, #280, #87 ) ) REPRESENTATION_CONTEXT ( 'NONE', 'WORKASPACE' ) );
#71 = VERTEX_POINT ( 'NONE', #36 ) ;
#72 = SURFACE_STYLE_USAGE ( .BOTH. , #244 ) ;
#73 = DIRECTION ( 'NONE',  ( -0.000000000000000000, -1.000000000000000000, -0.000000000000000000 ) ) ;
#74 = CYLINDRICAL_SURFACE ( 'NONE', #28, 0.1250000000000000278 ) ;
#75 =( GEOMETRIC_REPRESENTATION_CONTEXT ( 3 ) GLOBAL_UNCERTAINTY_ASSIGNED_CONTEXT ( ( #148 ) ) GLOBAL_UNIT_ASSIGNED_CONTEXT ( ( #256, #230, #52 ) ) REPRESENTATION_CONTEXT ( 'NONE', 'WORKASPACE' ) );
#76 =( CONVERSION_BASED_UNIT ( 'INCH', #144 ) LENGTH_UNIT ( ) NAMED_UNIT ( #159 ) );
#77 = UNCERTAINTY_MEASURE_WITH_UNIT (LENGTH_MEASURE( 1.000000000000000082E-05 ), #236, 'distance_accuracy_value', 'NONE');
#78 = STYLED_ITEM ( 'NONE', ( #282 ), #151 ) ;
#79 = UNCERTAINTY_MEASURE_WITH_UNIT (LENGTH_MEASURE( 1.000000000000000082E-05 ), #91, 'distance_accuracy_value', 'NONE');
#80 = SURFACE_STYLE_USAGE ( .BOTH. , #300 ) ;
#81 = PRESENTATION_LAYER_ASSIGNMENT (  '', '', ( #210 ) ) ;
#82 = FILL_AREA_STYLE ('',( #105 ) ) ;
#83 = VERTEX_POINT ( 'NONE', #296 ) ;
#84 = LENGTH_MEASURE_WITH_UNIT ( LENGTH_MEASURE( 0.02539999999999999897 ), #273 );
#85 = FILL_AREA_STYLE_COLOUR ( '', #59 ) ;
#86 = ORIENTED_EDGE ( 'NONE', *, *, #51, .T. ) ;
#87 =( NAMED_UNIT ( * ) SI_UNIT ( $, .STERADIAN. ) SOLID_ANGLE_UNIT ( ) );
#88 =( LENGTH_UNIT ( ) NAMED_UNIT ( * ) SI_UNIT ( $, .METRE. ) );
#89 = EDGE_LOOP ( 'NONE', ( #243, #11, #226, #93 ) ) ;
#90 = FACE_OUTER_BOUND ( 'NONE', #43, .T. ) ;
#91 =( CONVERSION_BASED_UNIT ( 'INCH', #64 ) LENGTH_UNIT ( ) NAMED_UNIT ( #39 ) );
#92 = VECTOR ( 'NONE', #178, 39.37007874015748143 ) ;
#93 = ORIENTED_EDGE ( 'NONE', *, *, #114, .F. ) ;
#94 = ADVANCED_FACE ( 'NONE', ( #33 ), #247, .T. ) ;
#95 = DIRECTION ( 'NONE',  ( 0.000000000000000000, 1.000000000000000000, 0.000000000000000000 ) ) ;
#96 = SHAPE_DEFINITION_REPRESENTATION ( #281, #61 ) ;
#97 = CYLINDRICAL_SURFACE ( 'NONE', #6, 0.1249999999999998473 ) ;
#98 = CIRCLE ( 'NONE', #102, 0.1249999999999996531 ) ;
#99 = FILL_AREA_STYLE_COLOUR ( '', #116 ) ;
#100 = UNCERTAINTY_MEASURE_WITH_UNIT (LENGTH_MEASURE( 1.000000000000000082E-05 ), #135, 'distance_accuracy_value', 'NONE');
#101 =( NAMED_UNIT ( * ) PLANE_ANGLE_UNIT ( ) SI_UNIT ( $, .RADIAN. ) );
#102 = AXIS2_PLACEMENT_3D ( 'NONE', #115, #200, #309 ) ;
#103 = EDGE_CURVE ( 'NONE', #250, #68, #32, .T. ) ;
#104 =( LENGTH_UNIT ( ) NAMED_UNIT ( * ) SI_UNIT ( $, .METRE. ) );
#105 = FILL_AREA_STYLE_COLOUR ( '', #222 ) ;
#106 = ORIENTED_EDGE ( 'NONE', *, *, #214, .T. ) ;
#107 = MECHANICAL_DESIGN_GEOMETRIC_PRESENTATION_REPRESENTATION (  '', ( #78 ), #152 ) ;
#108 = DIRECTION ( 'NONE',  ( 0.000000000000000000, 0.000000000000000000, -1.000000000000000000 ) ) ;
#109 = VERTEX_POINT ( 'NONE', #216 ) ;
#110 = ORIENTED_EDGE ( 'NONE', *, *, #205, .F. ) ;
#111 = CYLINDRICAL_SURFACE ( 'NONE', #285, 0.1250000000000000278 ) ;
#112 = SURFACE_STYLE_FILL_AREA ( #193 ) ;
#113 = DIRECTION ( 'NONE',  ( -0.000000000000000000, -1.000000000000000000, -0.000000000000000000 ) ) ;
#114 = EDGE_CURVE ( 'NONE', #71, #109, #192, .T. ) ;
#115 = CARTESIAN_POINT ( 'NONE',  ( 3.673940397442059375E-16, 2.000000000000000000, 0.000000000000000000 ) ) ;
#116 = COLOUR_RGB ( '',1.000000000000000000, 0.000000000000000000, 0.000000000000000000 ) ;
#117 = CARTESIAN_POINT ( 'NONE',  ( 0.000000000000000000, 0.000000000000000000, 0.000000000000000000 ) ) ;
#118 = DIRECTION ( 'NONE',  ( -1.000000000000000000, 0.000000000000000000, 0.000000000000000000 ) ) ;
#119 = DIRECTION ( 'NONE',  ( 0.000000000000000000, 0.000000000000000000, -1.000000000000000000 ) ) ;
#120 = CARTESIAN_POINT ( 'NONE',  ( 0.000000000000000000, 0.000000000000000000, 0.000000000000000000 ) ) ;
#121 = CIRCLE ( 'NONE', #277, 0.1250000000000000278 ) ;
#122 = FACE_OUTER_BOUND ( 'NONE', #174, .T. ) ;
#123 =( NAMED_UNIT ( * ) SI_UNIT ( $, .STERADIAN. ) SOLID_ANGLE_UNIT ( ) );
#124 = EDGE_CURVE ( 'NONE', #250, #301, #60, .T. ) ;
#125 = CLOSED_SHELL ( 'NONE', ( #212, #270, #94, #239 ) ) ;
#126 = VECTOR ( 'NONE', #18, 39.37007874015748143 ) ;
#127 = DIRECTION ( 'NONE',  ( -1.000000000000000000, 0.000000000000000000, 0.000000000000000000 ) ) ;
#128 = PRESENTATION_STYLE_ASSIGNMENT (( #80 ) ) ;
#129 = DIRECTION ( 'NONE',  ( 2.260886398425882692E-16, 1.000000000000000000, -0.000000000000000000 ) ) ;
#130 = ORIENTED_EDGE ( 'NONE', *, *, #124, .F. ) ;
#131 = DIMENSIONAL_EXPONENTS ( 1.000000000000000000, 0.000000000000000000, 0.000000000000000000, 0.000000000000000000, 0.000000000000000000, 0.000000000000000000, 0.000000000000000000 ) ;
#132 = CIRCLE ( 'NONE', #41, 0.1250000000000000278 ) ;
#133 = SURFACE_STYLE_USAGE ( .BOTH. , #62 ) ;
#134 = PLANE ( 'NONE',  #31 ) ;
#135 =( CONVERSION_BASED_UNIT ( 'INCH', #84 ) LENGTH_UNIT ( ) NAMED_UNIT ( #302 ) );
#136 = CARTESIAN_POINT ( 'NONE',  ( 0.1250000000000000555, 0.3749999999999999445, 1.530808498934190893E-17 ) ) ;
#137 = ORIENTED_EDGE ( 'NONE', *, *, #205, .T. ) ;
#138 = FILL_AREA_STYLE_COLOUR ( '', #67 ) ;
#139 = ORIENTED_EDGE ( 'NONE', *, *, #8, .T. ) ;
#140 = SURFACE_STYLE_FILL_AREA ( #17 ) ;
#141 = CARTESIAN_POINT ( 'NONE',  ( 3.673940397442059375E-16, 2.000000000000000000, 0.000000000000000000 ) ) ;
#142 = COLOUR_RGB ( '',1.000000000000000000, 0.000000000000000000, 0.000000000000000000 ) ;
#143 = CIRCLE ( 'NONE', #184, 0.1250000000000000278 ) ;
#144 = LENGTH_MEASURE_WITH_UNIT ( LENGTH_MEASURE( 0.02539999999999999897 ), #254 );
#145 = DIRECTION ( 'NONE',  ( 0.000000000000000000, 0.000000000000000000, 1.000000000000000000 ) ) ;
#146 = MANIFOLD_SOLID_BREP ( 'Revolve - Tool Body (Straight Shanked)', #125 ) ;
#147 = SURFACE_SIDE_STYLE ('',( #53 ) ) ;
#148 = UNCERTAINTY_MEASURE_WITH_UNIT (LENGTH_MEASURE( 1.000000000000000082E-05 ), #256, 'distance_accuracy_value', 'NONE');
#149 = AXIS2_PLACEMENT_3D ( 'NONE', #225, #245, #127 ) ;
#150 =( LENGTH_UNIT ( ) NAMED_UNIT ( * ) SI_UNIT ( $, .METRE. ) );
#151 = ADVANCED_FACE ( 'NONE', ( #122 ), #307, .T. ) ;
#152 =( GEOMETRIC_REPRESENTATION_CONTEXT ( 3 ) GLOBAL_UNCERTAINTY_ASSIGNED_CONTEXT ( ( #206 ) ) GLOBAL_UNIT_ASSIGNED_CONTEXT ( ( #76, #288, #252 ) ) REPRESENTATION_CONTEXT ( 'NONE', 'WORKASPACE' ) );
#153 = EDGE_CURVE ( 'NONE', #301, #83, #98, .T. ) ;
#154 = CARTESIAN_POINT ( 'NONE',  ( 0.000000000000000000, 0.3749999999999999445, 0.000000000000000000 ) ) ;
#155 = CIRCLE ( 'NONE', #255, 0.1249999999999996531 ) ;
#156 = CARTESIAN_POINT ( 'NONE',  ( 3.673940397442059375E-16, 2.000000000000000000, 0.000000000000000000 ) ) ;
#157 = ORIENTED_EDGE ( 'NONE', *, *, #167, .T. ) ;
#158 = ORIENTED_EDGE ( 'NONE', *, *, #103, .T. ) ;
#159 = DIMENSIONAL_EXPONENTS ( 1.000000000000000000, 0.000000000000000000, 0.000000000000000000, 0.000000000000000000, 0.000000000000000000, 0.000000000000000000, 0.000000000000000000 ) ;
#160 = AXIS2_PLACEMENT_3D ( 'NONE', #251, #12, #69 ) ;
#161 = EDGE_CURVE ( 'NONE', #272, #34, #143, .T. ) ;
#162 = DIRECTION ( 'NONE',  ( 2.260886398425882692E-16, 1.000000000000000000, -0.000000000000000000 ) ) ;
#163 = DIRECTION ( 'NONE',  ( 0.000000000000000000, -0.000000000000000000, 1.000000000000000000 ) ) ;
#164 = DIRECTION ( 'NONE',  ( -1.000000000000000000, 2.260886398425882692E-16, 0.000000000000000000 ) ) ;
#165 = FACE_OUTER_BOUND ( 'NONE', #46, .T. ) ;
#166 = DIRECTION ( 'NONE',  ( 1.000000000000000000, 0.000000000000000000, 0.000000000000000000 ) ) ;
#167 = EDGE_CURVE ( 'NONE', #83, #301, #155, .T. ) ;
#168 = DIRECTION ( 'NONE',  ( -0.000000000000000000, -1.000000000000000000, -0.000000000000000000 ) ) ;
#169 = CLOSED_SHELL ( 'NONE', ( #262, #151, #237, #24 ) ) ;
#170 = STYLED_ITEM ( 'NONE', ( #14 ), #146 ) ;
#171 = LENGTH_MEASURE_WITH_UNIT ( LENGTH_MEASURE( 0.02539999999999999897 ), #104 );
#172 =( NAMED_UNIT ( * ) PLANE_ANGLE_UNIT ( ) SI_UNIT ( $, .RADIAN. ) );
#173 = DIRECTION ( 'NONE',  ( 0.000000000000000000, 0.000000000000000000, -1.000000000000000000 ) ) ;
#174 = EDGE_LOOP ( 'NONE', ( #218, #176 ) ) ;
#175 = LINE ( 'NONE', #189, #126 ) ;
#176 = ORIENTED_EDGE ( 'NONE', *, *, #161, .F. ) ;
#177 = FACE_OUTER_BOUND ( 'NONE', #268, .T. ) ;
#178 = DIRECTION ( 'NONE',  ( 2.260886398425882692E-16, 1.000000000000000000, -0.000000000000000000 ) ) ;
#179 = ORIENTED_EDGE ( 'NONE', *, *, #124, .T. ) ;
#180 = PRESENTATION_LAYER_ASSIGNMENT (  '', '', ( #170 ) ) ;
#181 = ORIENTED_EDGE ( 'NONE', *, *, #153, .F. ) ;
#182 = DIRECTION ( 'NONE',  ( -0.000000000000000000, -1.000000000000000000, -0.000000000000000000 ) ) ;
#183 = CARTESIAN_POINT ( 'NONE',  ( 0.000000000000000000, 0.3749999999999999445, 0.000000000000000000 ) ) ;
#184 = AXIS2_PLACEMENT_3D ( 'NONE', #26, #182, #231 ) ;
#185 = MECHANICAL_DESIGN_GEOMETRIC_PRESENTATION_REPRESENTATION (  '', ( #305 ), #70 ) ;
#186 = DIRECTION ( 'NONE',  ( 0.000000000000000000, 0.000000000000000000, -1.000000000000000000 ) ) ;
#187 = MECHANICAL_DESIGN_GEOMETRIC_PRESENTATION_REPRESENTATION (  '', ( #22 ), #50 ) ;
#188 = PRESENTATION_STYLE_ASSIGNMENT (( #207 ) ) ;
#189 = CARTESIAN_POINT ( 'NONE',  ( 0.000000000000000000, 0.000000000000000000, -0.1250000000000000278 ) ) ;
#190 = CARTESIAN_POINT ( 'NONE',  ( 0.1250000000000002220, 2.000000000000000000, 1.530808498934189660E-17 ) ) ;
#191 = ORIENTED_EDGE ( 'NONE', *, *, #54, .T. ) ;
#192 = CIRCLE ( 'NONE', #298, 0.1250000000000000278 ) ;
#193 = FILL_AREA_STYLE ('',( #85 ) ) ;
#194 = DIRECTION ( 'NONE',  ( 2.260886398425882692E-16, 1.000000000000000000, -0.000000000000000000 ) ) ;
#195 = ORIENTED_EDGE ( 'NONE', *, *, #51, .F. ) ;
#196 = DIRECTION ( 'NONE',  ( 0.000000000000000000, 0.000000000000000000, -1.000000000000000000 ) ) ;
#197 = ORIENTED_EDGE ( 'NONE', *, *, #153, .T. ) ;
#198 = CARTESIAN_POINT ( 'NONE',  ( 3.194754566616975600E-33, 0.3749999999999999445, 0.000000000000000000 ) ) ;
#199 = VECTOR ( 'NONE', #65, 39.37007874015748143 ) ;
#200 = DIRECTION ( 'NONE',  ( 2.260886398425882692E-16, 1.000000000000000000, -0.000000000000000000 ) ) ;
#201 = DIRECTION ( 'NONE',  ( 2.260886398425882692E-16, 1.000000000000000000, -0.000000000000000000 ) ) ;
#202 = CARTESIAN_POINT ( 'NONE',  ( 3.673940397442059375E-16, 2.000000000000000000, 0.000000000000000000 ) ) ;
#203 = FACE_OUTER_BOUND ( 'NONE', #89, .T. ) ;
#204 = PRESENTATION_LAYER_ASSIGNMENT (  '', '', ( #22 ) ) ;
#205 = EDGE_CURVE ( 'NONE', #109, #71, #213, .T. ) ;
#206 = UNCERTAINTY_MEASURE_WITH_UNIT (LENGTH_MEASURE( 1.000000000000000082E-05 ), #76, 'distance_accuracy_value', 'NONE');
#207 = SURFACE_STYLE_USAGE ( .BOTH. , #29 ) ;
#208 = SURFACE_STYLE_USAGE ( .BOTH. , #147 ) ;
#209 = MECHANICAL_DESIGN_GEOMETRIC_PRESENTATION_REPRESENTATION (  '', ( #210 ), #233 ) ;
#210 = STYLED_ITEM ( 'NONE', ( #188 ), #24 ) ;
#211 = AXIS2_PLACEMENT_3D ( 'NONE', #120, #145, #166 ) ;
#212 = ADVANCED_FACE ( 'NONE', ( #165 ), #97, .T. ) ;
#213 = CIRCLE ( 'NONE', #263, 0.1250000000000000278 ) ;
#214 = EDGE_CURVE ( 'NONE', #34, #272, #132, .T. ) ;
#215 = PRESENTATION_LAYER_ASSIGNMENT (  '', '', ( #305 ) ) ;
#216 = CARTESIAN_POINT ( 'NONE',  ( 0.000000000000000000, 0.000000000000000000, -0.1250000000000000278 ) ) ;
#217 =( NAMED_UNIT ( * ) SI_UNIT ( $, .STERADIAN. ) SOLID_ANGLE_UNIT ( ) );
#218 = ORIENTED_EDGE ( 'NONE', *, *, #214, .F. ) ;
#219 = DIRECTION ( 'NONE',  ( -0.000000000000000000, -1.000000000000000000, -0.000000000000000000 ) ) ;
#220 = EDGE_LOOP ( 'NONE', ( #195, #191, #179, #303 ) ) ;
#221 = CARTESIAN_POINT ( 'NONE',  ( 0.000000000000000000, 0.000000000000000000, 0.000000000000000000 ) ) ;
#222 = COLOUR_RGB ( '',0.7921568627450980005, 0.8196078431372548767, 0.9333333333333333481 ) ;
#223 =( LENGTH_UNIT ( ) NAMED_UNIT ( * ) SI_UNIT ( $, .METRE. ) );
#224 = FILL_AREA_STYLE_COLOUR ( '', #142 ) ;
#225 = CARTESIAN_POINT ( 'NONE',  ( 0.000000000000000000, 0.3749999999999999445, 0.000000000000000000 ) ) ;
#226 = ORIENTED_EDGE ( 'NONE', *, *, #30, .T. ) ;
#227 = ORIENTED_EDGE ( 'NONE', *, *, #114, .T. ) ;
#228 = PRODUCT_RELATED_PRODUCT_CATEGORY ( 'part', '', ( #289 ) ) ;
#229 = DIRECTION ( 'NONE',  ( 2.260886398425882692E-16, 1.000000000000000000, -0.000000000000000000 ) ) ;
#230 =( NAMED_UNIT ( * ) PLANE_ANGLE_UNIT ( ) SI_UNIT ( $, .RADIAN. ) );
#231 = DIRECTION ( 'NONE',  ( 0.000000000000000000, 0.000000000000000000, -1.000000000000000000 ) ) ;
#232 = LENGTH_MEASURE_WITH_UNIT ( LENGTH_MEASURE( 0.02539999999999999897 ), #150 );
#233 =( GEOMETRIC_REPRESENTATION_CONTEXT ( 3 ) GLOBAL_UNCERTAINTY_ASSIGNED_CONTEXT ( ( #77 ) ) GLOBAL_UNIT_ASSIGNED_CONTEXT ( ( #236, #172, #293 ) ) REPRESENTATION_CONTEXT ( 'NONE', 'WORKASPACE' ) );
#234 = PRODUCT_DEFINITION_CONTEXT ( 'detailed design', #37, 'design' ) ;
#235 = LENGTH_MEASURE_WITH_UNIT ( LENGTH_MEASURE( 0.02539999999999999897 ), #294 );
#236 =( CONVERSION_BASED_UNIT ( 'INCH', #171 ) LENGTH_UNIT ( ) NAMED_UNIT ( #13 ) );
#237 = ADVANCED_FACE ( 'NONE', ( #203 ), #74, .T. ) ;
#238 = PRESENTATION_LAYER_ASSIGNMENT (  '', '', ( #78 ) ) ;
#239 = ADVANCED_FACE ( 'NONE', ( #246 ), #42, .F. ) ;
#240 = LINE ( 'NONE', #190, #92 ) ;
#241 = PRODUCT_DEFINITION_FORMATION_WITH_SPECIFIED_SOURCE ( 'ANY', '', #289, .NOT_KNOWN. ) ;
#242 = CARTESIAN_POINT ( 'NONE',  ( -0.1249999999999994726, 2.000000000000000000, 0.000000000000000000 ) ) ;
#243 = ORIENTED_EDGE ( 'NONE', *, *, #8, .F. ) ;
#244 = SURFACE_SIDE_STYLE ('',( #140 ) ) ;
#245 = DIRECTION ( 'NONE',  ( 2.260886398425882692E-16, 1.000000000000000000, -0.000000000000000000 ) ) ;
#246 = FACE_OUTER_BOUND ( 'NONE', #21, .T. ) ;
#247 = CYLINDRICAL_SURFACE ( 'NONE', #1, 0.1249999999999998473 ) ;
#248 = FACE_OUTER_BOUND ( 'NONE', #63, .T. ) ;
#249 = MECHANICAL_DESIGN_GEOMETRIC_PRESENTATION_REPRESENTATION (  '', ( #170 ), #75 ) ;
#250 = VERTEX_POINT ( 'NONE', #269 ) ;
#251 = CARTESIAN_POINT ( 'NONE',  ( 0.1250000000000000278, 2.000000000000000000, 0.000000000000000000 ) ) ;
#252 =( NAMED_UNIT ( * ) SI_UNIT ( $, .STERADIAN. ) SOLID_ANGLE_UNIT ( ) );
#253 = ORIENTED_EDGE ( 'NONE', *, *, #30, .F. ) ;
#254 =( LENGTH_UNIT ( ) NAMED_UNIT ( * ) SI_UNIT ( $, .METRE. ) );
#255 = AXIS2_PLACEMENT_3D ( 'NONE', #202, #201, #27 ) ;
#256 =( CONVERSION_BASED_UNIT ( 'INCH', #3 ) LENGTH_UNIT ( ) NAMED_UNIT ( #131 ) );
#257 = FILL_AREA_STYLE ('',( #99 ) ) ;
#258 = SURFACE_STYLE_FILL_AREA ( #283 ) ;
#259 =( CONVERSION_BASED_UNIT ( 'INCH', #235 ) LENGTH_UNIT ( ) NAMED_UNIT ( #274 ) );
#260 = AXIS2_PLACEMENT_3D ( 'NONE', #198, #162, #164 ) ;
#261 = APPLICATION_PROTOCOL_DEFINITION ( 'draft international standard', 'automotive_design', 1998, #37 ) ;
#262 = ADVANCED_FACE ( 'NONE', ( #177 ), #111, .T. ) ;
#263 = AXIS2_PLACEMENT_3D ( 'NONE', #48, #73, #186 ) ;
#264 = CARTESIAN_POINT ( 'NONE',  ( 0.000000000000000000, 0.000000000000000000, 0.000000000000000000 ) ) ;
#265 =( NAMED_UNIT ( * ) PLANE_ANGLE_UNIT ( ) SI_UNIT ( $, .RADIAN. ) );
#266 = VECTOR ( 'NONE', #129, 39.37007874015748143 ) ;
#267 = SURFACE_STYLE_FILL_AREA ( #82 ) ;
#268 = EDGE_LOOP ( 'NONE', ( #106, #139, #110, #253 ) ) ;
#269 = CARTESIAN_POINT ( 'NONE',  ( -0.1250000000000000278, 0.3749999999999999445, 0.000000000000000000 ) ) ;
#270 = ADVANCED_FACE ( 'NONE', ( #90 ), #276, .F. ) ;
#271 =( NAMED_UNIT ( * ) PLANE_ANGLE_UNIT ( ) SI_UNIT ( $, .RADIAN. ) );
#272 = VERTEX_POINT ( 'NONE', #47 ) ;
#273 =( LENGTH_UNIT ( ) NAMED_UNIT ( * ) SI_UNIT ( $, .METRE. ) );
#274 = DIMENSIONAL_EXPONENTS ( 1.000000000000000000, 0.000000000000000000, 0.000000000000000000, 0.000000000000000000, 0.000000000000000000, 0.000000000000000000, 0.000000000000000000 ) ;
#275 = CARTESIAN_POINT ( 'NONE',  ( 0.000000000000000000, 0.3749999999999999445, -0.1250000000000000278 ) ) ;
#276 = PLANE ( 'NONE',  #260 ) ;
#277 = AXIS2_PLACEMENT_3D ( 'NONE', #154, #66, #297 ) ;
#278 = DIRECTION ( 'NONE',  ( -1.000000000000000000, 0.000000000000000000, 0.000000000000000000 ) ) ;
#279 = ORIENTED_EDGE ( 'NONE', *, *, #103, .F. ) ;
#280 =( NAMED_UNIT ( * ) PLANE_ANGLE_UNIT ( ) SI_UNIT ( $, .RADIAN. ) );
#281 = PRODUCT_DEFINITION_SHAPE ( 'NONE', 'NONE',  #5 ) ;
#282 = PRESENTATION_STYLE_ASSIGNMENT (( #286 ) ) ;
#283 = FILL_AREA_STYLE ('',( #224 ) ) ;
#284 = CARTESIAN_POINT ( 'NONE',  ( 0.000000000000000000, 0.3749999999999999445, 0.000000000000000000 ) ) ;
#285 = AXIS2_PLACEMENT_3D ( 'NONE', #117, #113, #196 ) ;
#286 = SURFACE_STYLE_USAGE ( .BOTH. , #23 ) ;
#287 = PRODUCT_CONTEXT ( 'NONE', #25, 'mechanical' ) ;
#288 =( NAMED_UNIT ( * ) PLANE_ANGLE_UNIT ( ) SI_UNIT ( $, .RADIAN. ) );
#289 = PRODUCT ( '44107W', '44107W', '', ( #287 ) ) ;
#290 = STYLED_ITEM ( 'NONE', ( #128 ), #44 ) ;
#291 = APPLICATION_PROTOCOL_DEFINITION ( 'draft international standard', 'automotive_design', 1998, #25 ) ;
#292 = PRESENTATION_STYLE_ASSIGNMENT (( #208 ) ) ;
#293 =( NAMED_UNIT ( * ) SI_UNIT ( $, .STERADIAN. ) SOLID_ANGLE_UNIT ( ) );
#294 =( LENGTH_UNIT ( ) NAMED_UNIT ( * ) SI_UNIT ( $, .METRE. ) );
#295 =( GEOMETRIC_REPRESENTATION_CONTEXT ( 3 ) GLOBAL_UNCERTAINTY_ASSIGNED_CONTEXT ( ( #79 ) ) GLOBAL_UNIT_ASSIGNED_CONTEXT ( ( #91, #271, #217 ) ) REPRESENTATION_CONTEXT ( 'NONE', 'WORKASPACE' ) );
#296 = CARTESIAN_POINT ( 'NONE',  ( 0.1250000000000000555, 2.000000000000000000, 1.530808498934190893E-17 ) ) ;
#297 = DIRECTION ( 'NONE',  ( -1.000000000000000000, 0.000000000000000000, 0.000000000000000000 ) ) ;
#298 = AXIS2_PLACEMENT_3D ( 'NONE', #40, #9, #173 ) ;
#299 = ORIENTED_EDGE ( 'NONE', *, *, #54, .F. ) ;
#300 = SURFACE_SIDE_STYLE ('',( #112 ) ) ;
#301 = VERTEX_POINT ( 'NONE', #306 ) ;
#302 = DIMENSIONAL_EXPONENTS ( 1.000000000000000000, 0.000000000000000000, 0.000000000000000000, 0.000000000000000000, 0.000000000000000000, 0.000000000000000000, 0.000000000000000000 ) ;
#303 = ORIENTED_EDGE ( 'NONE', *, *, #167, .F. ) ;
#304 = MECHANICAL_DESIGN_GEOMETRIC_PRESENTATION_REPRESENTATION (  '', ( #290 ), #295 ) ;
#305 = STYLED_ITEM ( 'NONE', ( #35 ), #262 ) ;
#306 = CARTESIAN_POINT ( 'NONE',  ( -0.1249999999999992784, 2.000000000000000000, 0.000000000000000000 ) ) ;
#307 = PLANE ( 'NONE',  #15 ) ;
#308 =( CONVERSION_BASED_UNIT ( 'INCH', #232 ) LENGTH_UNIT ( ) NAMED_UNIT ( #20 ) );
#309 = DIRECTION ( 'NONE',  ( -1.000000000000000000, 0.000000000000000000, 0.000000000000000000 ) ) ;
ENDSEC;
END-ISO-10303-21;
