ISO-10303-21;
HEADER;
FILE_DESCRIPTION (( 'STEP AP214' ),
    '1' );
FILE_NAME ('Micro_DT-250-030-010X.STEP',
    '2021-09-02T21:17:54',
    ( '' ),
    ( '' ),
    'SwSTEP 2.0',
    'SolidWorks 2020',
    '' );
FILE_SCHEMA (( 'AUTOMOTIVE_DESIGN' ));
ENDSEC;

DATA;
#1 = AXIS2_PLACEMENT_3D ( 'NONE', #173, #146, #193 ) ;
#2 = EDGE_CURVE ( 'NONE', #112, #132, #75, .T. ) ;
#3 = COLOUR_RGB ( '',0.7921568627450980005, 0.8196078431372548767, 0.9333333333333333481 ) ;
#4 = UNCERTAINTY_MEASURE_WITH_UNIT (LENGTH_MEASURE( 1.000000000000000082E-05 ), #199, 'distance_accuracy_value', 'NONE');
#5 = ORIENTED_EDGE ( 'NONE', *, *, #156, .F. ) ;
#6 = VERTEX_POINT ( 'NONE', #131 ) ;
#7 = FILL_AREA_STYLE ('',( #47 ) ) ;
#8 = FACE_OUTER_BOUND ( 'NONE', #142, .T. ) ;
#9 = DIRECTION ( 'NONE',  ( 1.000000000000000000, 0.0000000000000000000, 0.0000000000000000000 ) ) ;
#10 = LENGTH_MEASURE_WITH_UNIT ( LENGTH_MEASURE( 0.02539999999999999897 ), #184 );
#11 = CARTESIAN_POINT ( 'NONE',  ( 0.1250000000000000000, 1.530808498934191509E-17, 0.0000000000000000000 ) ) ;
#12 =( NAMED_UNIT ( * ) PLANE_ANGLE_UNIT ( ) SI_UNIT ( $, .RADIAN. ) );
#13 = EDGE_CURVE ( 'NONE', #19, #132, #28, .T. ) ;
#14 = SURFACE_STYLE_FILL_AREA ( #196 ) ;
#15 = MANIFOLD_SOLID_BREP ( 'Chamfer', #77 ) ;
#16 = ORIENTED_EDGE ( 'NONE', *, *, #58, .F. ) ;
#17 =( GEOMETRIC_REPRESENTATION_CONTEXT ( 3 ) GLOBAL_UNCERTAINTY_ASSIGNED_CONTEXT ( ( #4 ) ) GLOBAL_UNIT_ASSIGNED_CONTEXT ( ( #199, #12, #43 ) ) REPRESENTATION_CONTEXT ( 'NONE', 'WORKASPACE' ) );
#18 = ORIENTED_EDGE ( 'NONE', *, *, #27, .T. ) ;
#19 = VERTEX_POINT ( 'NONE', #111 ) ;
#20 = CIRCLE ( 'NONE', #40, 0.1100000000000001948 ) ;
#21 = PRODUCT_DEFINITION_FORMATION_WITH_SPECIFIED_SOURCE ( 'ANY', '', #93, .NOT_KNOWN. ) ;
#22 = CARTESIAN_POINT ( 'NONE',  ( 0.0000000000000000000, 0.0000000000000000000, 0.0000000000000000000 ) ) ;
#23 = DIRECTION ( 'NONE',  ( 0.0000000000000000000, 0.0000000000000000000, 1.000000000000000000 ) ) ;
#24 = CARTESIAN_POINT ( 'NONE',  ( 0.0000000000000000000, 0.0000000000000000000, 0.0000000000000000000 ) ) ;
#25 = PRESENTATION_LAYER_ASSIGNMENT (  '', '', ( #113 ) ) ;
#26 = CARTESIAN_POINT ( 'NONE',  ( 0.0000000000000000000, 0.0000000000000000000, 2.500000000000000000 ) ) ;
#27 = EDGE_CURVE ( 'NONE', #132, #19, #87, .T. ) ;
#28 = CIRCLE ( 'NONE', #117, 0.1250000000000000000 ) ;
#29 =( NAMED_UNIT ( * ) PLANE_ANGLE_UNIT ( ) SI_UNIT ( $, .RADIAN. ) );
#30 = AXIS2_PLACEMENT_3D ( 'NONE', #120, #80, #179 ) ;
#31 = DIRECTION ( 'NONE',  ( 0.0000000000000000000, 0.0000000000000000000, -1.000000000000000000 ) ) ;
#32 = ADVANCED_FACE ( 'NONE', ( #165 ), #134, .T. ) ;
#33 = SURFACE_SIDE_STYLE ('',( #114 ) ) ;
#34 = PRESENTATION_STYLE_ASSIGNMENT (( #176 ) ) ;
#35 = ORIENTED_EDGE ( 'NONE', *, *, #58, .T. ) ;
#36 = CARTESIAN_POINT ( 'NONE',  ( 0.1100000000000001948, 1.438959988998141146E-17, 2.500000000000000000 ) ) ;
#37 = PRODUCT_DEFINITION_SHAPE ( 'NONE', 'NONE',  #49 ) ;
#38 = CYLINDRICAL_SURFACE ( 'NONE', #30, 0.1250000000000000000 ) ;
#39 = DIRECTION ( 'NONE',  ( -1.000000000000000000, 0.0000000000000000000, 0.0000000000000000000 ) ) ;
#40 = AXIS2_PLACEMENT_3D ( 'NONE', #69, #169, #197 ) ;
#41 = ADVANCED_FACE ( 'NONE', ( #198 ), #53, .T. ) ;
#42 = APPLICATION_PROTOCOL_DEFINITION ( 'draft international standard', 'automotive_design', 1998, #144 ) ;
#43 =( NAMED_UNIT ( * ) SI_UNIT ( $, .STERADIAN. ) SOLID_ANGLE_UNIT ( ) );
#44 =( CONVERSION_BASED_UNIT ( 'INCH', #178 ) LENGTH_UNIT ( ) NAMED_UNIT ( #127 ) );
#45 = ADVANCED_FACE ( 'NONE', ( #170 ), #119, .T. ) ;
#46 = ORIENTED_EDGE ( 'NONE', *, *, #68, .T. ) ;
#47 = FILL_AREA_STYLE_COLOUR ( '', #128 ) ;
#48 = ORIENTED_EDGE ( 'NONE', *, *, #121, .T. ) ;
#49 = PRODUCT_DEFINITION ( 'UNKNOWN', '', #21, #124 ) ;
#50 = DIRECTION ( 'NONE',  ( 0.0000000000000000000, 0.0000000000000000000, 1.000000000000000000 ) ) ;
#51 = EDGE_LOOP ( 'NONE', ( #194, #48, #147, #180 ) ) ;
#52 = CARTESIAN_POINT ( 'NONE',  ( -0.1250000000000000000, 0.0000000000000000000, 2.500000000000000000 ) ) ;
#53 = CONICAL_SURFACE ( 'NONE', #95, 0.1100000000000001948, 0.7853981633974517207 ) ;
#54 = DIRECTION ( 'NONE',  ( -0.0000000000000000000, -0.0000000000000000000, -1.000000000000000000 ) ) ;
#55 = DIRECTION ( 'NONE',  ( -0.0000000000000000000, -0.0000000000000000000, -1.000000000000000000 ) ) ;
#56 = DIRECTION ( 'NONE',  ( 0.0000000000000000000, 0.0000000000000000000, 1.000000000000000000 ) ) ;
#57 = MECHANICAL_DESIGN_GEOMETRIC_PRESENTATION_REPRESENTATION (  '', ( #105 ), #143 ) ;
#58 = EDGE_CURVE ( 'NONE', #115, #64, #123, .T. ) ;
#59 = SHAPE_DEFINITION_REPRESENTATION ( #37, #172 ) ;
#60 = AXIS2_PLACEMENT_3D ( 'NONE', #22, #56, #118 ) ;
#61 = ORIENTED_EDGE ( 'NONE', *, *, #106, .T. ) ;
#62 = EDGE_LOOP ( 'NONE', ( #163, #65, #61, #129 ) ) ;
#63 = ORIENTED_EDGE ( 'NONE', *, *, #2, .T. ) ;
#64 = VERTEX_POINT ( 'NONE', #11 ) ;
#65 = ORIENTED_EDGE ( 'NONE', *, *, #68, .F. ) ;
#66 = CARTESIAN_POINT ( 'NONE',  ( 0.0000000000000000000, 0.0000000000000000000, 2.500000000000000000 ) ) ;
#67 = CARTESIAN_POINT ( 'NONE',  ( 0.0000000000000000000, 0.0000000000000000000, 2.500000000000000000 ) ) ;
#68 = EDGE_CURVE ( 'NONE', #6, #112, #125, .T. ) ;
#69 = CARTESIAN_POINT ( 'NONE',  ( 0.0000000000000000000, 0.0000000000000000000, 2.500000000000000000 ) ) ;
#70 = APPLICATION_PROTOCOL_DEFINITION ( 'draft international standard', 'automotive_design', 1998, #98 ) ;
#71 = AXIS2_PLACEMENT_3D ( 'NONE', #195, #153, #39 ) ;
#72 = PRODUCT_CONTEXT ( 'NONE', #98, 'mechanical' ) ;
#73 = DIRECTION ( 'NONE',  ( 0.0000000000000000000, 0.0000000000000000000, 1.000000000000000000 ) ) ;
#74 = VECTOR ( 'NONE', #55, 39.37007874015748143 ) ;
#75 = LINE ( 'NONE', #133, #157 ) ;
#76 = PRODUCT_RELATED_PRODUCT_CATEGORY ( 'part', '', ( #93 ) ) ;
#77 = CLOSED_SHELL ( 'NONE', ( #41, #162, #45, #32, #186, #182 ) ) ;
#78 = CARTESIAN_POINT ( 'NONE',  ( 0.0000000000000000000, 0.0000000000000000000, 2.485000000000000320 ) ) ;
#79 = CARTESIAN_POINT ( 'NONE',  ( 0.0000000000000000000, 0.0000000000000000000, 2.500000000000000000 ) ) ;
#80 = DIRECTION ( 'NONE',  ( -0.0000000000000000000, -0.0000000000000000000, -1.000000000000000000 ) ) ;
#81 = DIRECTION ( 'NONE',  ( 0.0000000000000000000, 0.0000000000000000000, 1.000000000000000000 ) ) ;
#82 = DIRECTION ( 'NONE',  ( 0.0000000000000000000, 0.0000000000000000000, 1.000000000000000000 ) ) ;
#83 = EDGE_CURVE ( 'NONE', #112, #6, #20, .T. ) ;
#84 = LINE ( 'NONE', #116, #188 ) ;
#85 = DIRECTION ( 'NONE',  ( 1.000000000000000000, 0.0000000000000000000, 0.0000000000000000000 ) ) ;
#86 =( NAMED_UNIT ( * ) PLANE_ANGLE_UNIT ( ) SI_UNIT ( $, .RADIAN. ) );
#87 = CIRCLE ( 'NONE', #1, 0.1250000000000000000 ) ;
#88 = SURFACE_SIDE_STYLE ('',( #14 ) ) ;
#89 =( NAMED_UNIT ( * ) SI_UNIT ( $, .STERADIAN. ) SOLID_ANGLE_UNIT ( ) );
#90 = DIMENSIONAL_EXPONENTS ( 1.000000000000000000, 0.0000000000000000000, 0.0000000000000000000, 0.0000000000000000000, 0.0000000000000000000, 0.0000000000000000000, 0.0000000000000000000 ) ;
#91 = ORIENTED_EDGE ( 'NONE', *, *, #83, .F. ) ;
#92 = PRESENTATION_STYLE_ASSIGNMENT (( #109 ) ) ;
#93 = PRODUCT ( 'Micro_DT-250-030-010X', 'Micro_DT-250-030-010X', '', ( #72 ) ) ;
#94 = ORIENTED_EDGE ( 'NONE', *, *, #83, .T. ) ;
#95 = AXIS2_PLACEMENT_3D ( 'NONE', #66, #166, #136 ) ;
#96 = FACE_OUTER_BOUND ( 'NONE', #62, .T. ) ;
#97 =( GEOMETRIC_REPRESENTATION_CONTEXT ( 3 ) GLOBAL_UNCERTAINTY_ASSIGNED_CONTEXT ( ( #104 ) ) GLOBAL_UNIT_ASSIGNED_CONTEXT ( ( #126, #86, #185 ) ) REPRESENTATION_CONTEXT ( 'NONE', 'WORKASPACE' ) );
#98 = APPLICATION_CONTEXT ( 'automotive_design' ) ;
#99 = PLANE ( 'NONE',  #171 ) ;
#100 = CARTESIAN_POINT ( 'NONE',  ( -0.1250000000000000000, 0.0000000000000000000, 0.0000000000000000000 ) ) ;
#101 = DIRECTION ( 'NONE',  ( -1.000000000000000000, 0.0000000000000000000, 0.0000000000000000000 ) ) ;
#102 = AXIS2_PLACEMENT_3D ( 'NONE', #24, #82, #9 ) ;
#103 = EDGE_CURVE ( 'NONE', #19, #115, #122, .T. ) ;
#104 = UNCERTAINTY_MEASURE_WITH_UNIT (LENGTH_MEASURE( 1.000000000000000082E-05 ), #126, 'distance_accuracy_value', 'NONE');
#105 = STYLED_ITEM ( 'NONE', ( #92 ), #15 ) ;
#106 = EDGE_CURVE ( 'NONE', #6, #19, #84, .T. ) ;
#107 = UNCERTAINTY_MEASURE_WITH_UNIT (LENGTH_MEASURE( 1.000000000000000082E-05 ), #44, 'distance_accuracy_value', 'NONE');
#108 = AXIS2_PLACEMENT_3D ( 'NONE', #26, #23, #181 ) ;
#109 = SURFACE_STYLE_USAGE ( .BOTH. , #33 ) ;
#110 = DIMENSIONAL_EXPONENTS ( 1.000000000000000000, 0.0000000000000000000, 0.0000000000000000000, 0.0000000000000000000, 0.0000000000000000000, 0.0000000000000000000, 0.0000000000000000000 ) ;
#111 = CARTESIAN_POINT ( 'NONE',  ( -0.1250000000000000000, 0.0000000000000000000, 2.485000000000000320 ) ) ;
#112 = VERTEX_POINT ( 'NONE', #36 ) ;
#113 = STYLED_ITEM ( 'NONE', ( #34 ), #172 ) ;
#114 = SURFACE_STYLE_FILL_AREA ( #7 ) ;
#115 = VERTEX_POINT ( 'NONE', #100 ) ;
#116 = CARTESIAN_POINT ( 'NONE',  ( -0.1100000000000001948, 0.0000000000000000000, 2.500000000000000000 ) ) ;
#117 = AXIS2_PLACEMENT_3D ( 'NONE', #78, #31, #130 ) ;
#118 = DIRECTION ( 'NONE',  ( 1.000000000000000000, 0.0000000000000000000, 0.0000000000000000000 ) ) ;
#119 = CYLINDRICAL_SURFACE ( 'NONE', #71, 0.1250000000000000000 ) ;
#120 = CARTESIAN_POINT ( 'NONE',  ( 0.0000000000000000000, 0.0000000000000000000, 2.500000000000000000 ) ) ;
#121 = EDGE_CURVE ( 'NONE', #132, #64, #137, .T. ) ;
#122 = LINE ( 'NONE', #52, #140 ) ;
#123 = CIRCLE ( 'NONE', #102, 0.1250000000000000000 ) ;
#124 = PRODUCT_DEFINITION_CONTEXT ( 'detailed design', #144, 'design' ) ;
#125 = CIRCLE ( 'NONE', #108, 0.1100000000000001948 ) ;
#126 =( CONVERSION_BASED_UNIT ( 'INCH', #139 ) LENGTH_UNIT ( ) NAMED_UNIT ( #90 ) );
#127 = DIMENSIONAL_EXPONENTS ( 1.000000000000000000, 0.0000000000000000000, 0.0000000000000000000, 0.0000000000000000000, 0.0000000000000000000, 0.0000000000000000000, 0.0000000000000000000 ) ;
#128 = COLOUR_RGB ( '',0.7921568627450980005, 0.8196078431372548767, 0.9333333333333333481 ) ;
#129 = ORIENTED_EDGE ( 'NONE', *, *, #27, .F. ) ;
#130 = DIRECTION ( 'NONE',  ( 1.000000000000000000, 0.0000000000000000000, 0.0000000000000000000 ) ) ;
#131 = CARTESIAN_POINT ( 'NONE',  ( -0.1100000000000001948, 0.0000000000000000000, 2.500000000000000000 ) ) ;
#132 = VERTEX_POINT ( 'NONE', #138 ) ;
#133 = CARTESIAN_POINT ( 'NONE',  ( 0.1100000000000001948, 1.347111479062090784E-17, 2.500000000000000000 ) ) ;
#134 = PLANE ( 'NONE',  #175 ) ;
#135 = DIRECTION ( 'NONE',  ( 1.000000000000000000, 0.0000000000000000000, -0.0000000000000000000 ) ) ;
#136 = DIRECTION ( 'NONE',  ( -1.000000000000000000, 0.0000000000000000000, 0.0000000000000000000 ) ) ;
#137 = LINE ( 'NONE', #154, #74 ) ;
#138 = CARTESIAN_POINT ( 'NONE',  ( 0.1250000000000000000, 1.530808498934191509E-17, 2.485000000000000320 ) ) ;
#139 = LENGTH_MEASURE_WITH_UNIT ( LENGTH_MEASURE( 0.02539999999999999897 ), #191 );
#140 = VECTOR ( 'NONE', #54, 39.37007874015748143 ) ;
#141 = MECHANICAL_DESIGN_GEOMETRIC_PRESENTATION_REPRESENTATION (  '', ( #113 ), #97 ) ;
#142 = EDGE_LOOP ( 'NONE', ( #16, #5 ) ) ;
#143 =( GEOMETRIC_REPRESENTATION_CONTEXT ( 3 ) GLOBAL_UNCERTAINTY_ASSIGNED_CONTEXT ( ( #107 ) ) GLOBAL_UNIT_ASSIGNED_CONTEXT ( ( #44, #29, #89 ) ) REPRESENTATION_CONTEXT ( 'NONE', 'WORKASPACE' ) );
#144 = APPLICATION_CONTEXT ( 'automotive_design' ) ;
#145 = EDGE_LOOP ( 'NONE', ( #174, #18, #159, #35 ) ) ;
#146 = DIRECTION ( 'NONE',  ( 0.0000000000000000000, 0.0000000000000000000, -1.000000000000000000 ) ) ;
#147 = ORIENTED_EDGE ( 'NONE', *, *, #156, .T. ) ;
#148 = FILL_AREA_STYLE_COLOUR ( '', #3 ) ;
#149 = DIRECTION ( 'NONE',  ( 0.0000000000000000000, 0.0000000000000000000, -1.000000000000000000 ) ) ;
#150 = CARTESIAN_POINT ( 'NONE',  ( 0.0000000000000000000, 0.0000000000000000000, 0.0000000000000000000 ) ) ;
#151 = CONICAL_SURFACE ( 'NONE', #168, 0.1100000000000001948, 0.7853981633974517207 ) ;
#152 = DIRECTION ( 'NONE',  ( 1.000000000000000000, 0.0000000000000000000, -0.0000000000000000000 ) ) ;
#153 = DIRECTION ( 'NONE',  ( -0.0000000000000000000, -0.0000000000000000000, -1.000000000000000000 ) ) ;
#154 = CARTESIAN_POINT ( 'NONE',  ( 0.1250000000000000000, 1.530808498934191509E-17, 2.500000000000000000 ) ) ;
#155 = CARTESIAN_POINT ( 'NONE',  ( 0.0000000000000000000, 0.0000000000000000000, 0.0000000000000000000 ) ) ;
#156 = EDGE_CURVE ( 'NONE', #64, #115, #164, .T. ) ;
#157 = VECTOR ( 'NONE', #161, 39.37007874015748143 ) ;
#158 = ORIENTED_EDGE ( 'NONE', *, *, #106, .F. ) ;
#159 = ORIENTED_EDGE ( 'NONE', *, *, #103, .T. ) ;
#160 = EDGE_LOOP ( 'NONE', ( #46, #94 ) ) ;
#161 = DIRECTION ( 'NONE',  ( 0.7071067811865499042, 8.659560562354961208E-17, -0.7071067811865451302 ) ) ;
#162 = ADVANCED_FACE ( 'NONE', ( #167 ), #38, .T. ) ;
#163 = ORIENTED_EDGE ( 'NONE', *, *, #2, .F. ) ;
#164 = CIRCLE ( 'NONE', #60, 0.1250000000000000000 ) ;
#165 = FACE_OUTER_BOUND ( 'NONE', #160, .T. ) ;
#166 = DIRECTION ( 'NONE',  ( 0.0000000000000000000, 0.0000000000000000000, -1.000000000000000000 ) ) ;
#167 = FACE_OUTER_BOUND ( 'NONE', #51, .T. ) ;
#168 = AXIS2_PLACEMENT_3D ( 'NONE', #79, #149, #101 ) ;
#169 = DIRECTION ( 'NONE',  ( 0.0000000000000000000, 0.0000000000000000000, 1.000000000000000000 ) ) ;
#170 = FACE_OUTER_BOUND ( 'NONE', #145, .T. ) ;
#171 = AXIS2_PLACEMENT_3D ( 'NONE', #150, #81, #152 ) ;
#172 = ADVANCED_BREP_SHAPE_REPRESENTATION ( 'Micro_DT-250-030-010X', ( #15, #190 ), #17 ) ;
#173 = CARTESIAN_POINT ( 'NONE',  ( 0.0000000000000000000, 0.0000000000000000000, 2.485000000000000320 ) ) ;
#174 = ORIENTED_EDGE ( 'NONE', *, *, #121, .F. ) ;
#175 = AXIS2_PLACEMENT_3D ( 'NONE', #67, #50, #135 ) ;
#176 = SURFACE_STYLE_USAGE ( .BOTH. , #88 ) ;
#177 = EDGE_LOOP ( 'NONE', ( #91, #63, #192, #158 ) ) ;
#178 = LENGTH_MEASURE_WITH_UNIT ( LENGTH_MEASURE( 0.02539999999999999897 ), #187 );
#179 = DIRECTION ( 'NONE',  ( -1.000000000000000000, 0.0000000000000000000, 0.0000000000000000000 ) ) ;
#180 = ORIENTED_EDGE ( 'NONE', *, *, #103, .F. ) ;
#181 = DIRECTION ( 'NONE',  ( 1.000000000000000000, 0.0000000000000000000, 0.0000000000000000000 ) ) ;
#182 = ADVANCED_FACE ( 'NONE', ( #96 ), #151, .T. ) ;
#183 = DIRECTION ( 'NONE',  ( -0.7071067811865499042, 0.0000000000000000000, -0.7071067811865451302 ) ) ;
#184 =( LENGTH_UNIT ( ) NAMED_UNIT ( * ) SI_UNIT ( $, .METRE. ) );
#185 =( NAMED_UNIT ( * ) SI_UNIT ( $, .STERADIAN. ) SOLID_ANGLE_UNIT ( ) );
#186 = ADVANCED_FACE ( 'NONE', ( #8 ), #99, .F. ) ;
#187 =( LENGTH_UNIT ( ) NAMED_UNIT ( * ) SI_UNIT ( $, .METRE. ) );
#188 = VECTOR ( 'NONE', #183, 39.37007874015748143 ) ;
#189 = PRESENTATION_LAYER_ASSIGNMENT (  '', '', ( #105 ) ) ;
#190 = AXIS2_PLACEMENT_3D ( 'NONE', #155, #73, #85 ) ;
#191 =( LENGTH_UNIT ( ) NAMED_UNIT ( * ) SI_UNIT ( $, .METRE. ) );
#192 = ORIENTED_EDGE ( 'NONE', *, *, #13, .F. ) ;
#193 = DIRECTION ( 'NONE',  ( 1.000000000000000000, 0.0000000000000000000, 0.0000000000000000000 ) ) ;
#194 = ORIENTED_EDGE ( 'NONE', *, *, #13, .T. ) ;
#195 = CARTESIAN_POINT ( 'NONE',  ( 0.0000000000000000000, 0.0000000000000000000, 2.500000000000000000 ) ) ;
#196 = FILL_AREA_STYLE ('',( #148 ) ) ;
#197 = DIRECTION ( 'NONE',  ( 1.000000000000000000, 0.0000000000000000000, 0.0000000000000000000 ) ) ;
#198 = FACE_OUTER_BOUND ( 'NONE', #177, .T. ) ;
#199 =( CONVERSION_BASED_UNIT ( 'INCH', #10 ) LENGTH_UNIT ( ) NAMED_UNIT ( #110 ) );
ENDSEC;
END-ISO-10303-21;
