ISO-10303-21;
HEADER;
FILE_DESCRIPTION (( 'STEP AP214' ),
    '1' );
FILE_NAME ('Micro_SBM-375-4.STEP',
    '2021-09-02T17:02:18',
    ( '' ),
    ( '' ),
    'SwSTEP 2.0',
    'SolidWorks 2020',
    '' );
FILE_SCHEMA (( 'AUTOMOTIVE_DESIGN' ));
ENDSEC;

DATA;
#1 = LINE ( 'NONE', #264, #72 ) ;
#2 = EDGE_CURVE ( 'NONE', #120, #21, #288, .T. ) ;
#3 = FACE_OUTER_BOUND ( 'NONE', #308, .T. ) ;
#4 = LINE ( 'NONE', #241, #140 ) ;
#5 = PRESENTATION_LAYER_ASSIGNMENT (  '', '', ( #40 ) ) ;
#6 = SURFACE_SIDE_STYLE ('',( #304 ) ) ;
#7 = ADVANCED_FACE ( 'NONE', ( #155 ), #316, .T. ) ;
#8 = CONICAL_SURFACE ( 'NONE', #226, 0.2062499999999998224, 0.09347678115858976122 ) ;
#9 = DIRECTION ( 'NONE',  ( -0.0000000000000000000, -0.0000000000000000000, -1.000000000000000000 ) ) ;
#10 = CARTESIAN_POINT ( 'NONE',  ( -0.1875000000000000278, 0.0000000000000000000, 3.984999999999998987 ) ) ;
#11 = DIRECTION ( 'NONE',  ( 1.000000000000000000, 0.0000000000000000000, 0.0000000000000000000 ) ) ;
#12 = DIRECTION ( 'NONE',  ( 1.000000000000000000, 0.0000000000000000000, 0.0000000000000000000 ) ) ;
#13 = AXIS2_PLACEMENT_3D ( 'NONE', #240, #289, #205 ) ;
#14 = CARTESIAN_POINT ( 'NONE',  ( 0.0000000000000000000, 0.0000000000000000000, 1.200000000000000178 ) ) ;
#15 =( NAMED_UNIT ( * ) PLANE_ANGLE_UNIT ( ) SI_UNIT ( $, .RADIAN. ) );
#16 = CONICAL_SURFACE ( 'NONE', #51, 0.2062499999999998224, 0.09347678115858976122 ) ;
#17 = CYLINDRICAL_SURFACE ( 'NONE', #273, 0.1875000000000000278 ) ;
#18 = DIRECTION ( 'NONE',  ( 0.0000000000000000000, 0.0000000000000000000, 1.000000000000000000 ) ) ;
#19 = DIRECTION ( 'NONE',  ( -1.000000000000000000, 0.0000000000000000000, 0.0000000000000000000 ) ) ;
#20 = UNCERTAINTY_MEASURE_WITH_UNIT (LENGTH_MEASURE( 1.000000000000000082E-05 ), #298, 'distance_accuracy_value', 'NONE');
#21 = VERTEX_POINT ( 'NONE', #125 ) ;
#22 = EDGE_CURVE ( 'NONE', #262, #338, #1, .T. ) ;
#23 = ORIENTED_EDGE ( 'NONE', *, *, #326, .F. ) ;
#24 = ORIENTED_EDGE ( 'NONE', *, *, #188, .T. ) ;
#25 = EDGE_LOOP ( 'NONE', ( #258, #24, #263, #50, #287 ) ) ;
#26 = ORIENTED_EDGE ( 'NONE', *, *, #318, .T. ) ;
#27 = FACE_OUTER_BOUND ( 'NONE', #238, .T. ) ;
#28 = DIRECTION ( 'NONE',  ( -0.0000000000000000000, -0.0000000000000000000, -1.000000000000000000 ) ) ;
#29 = EDGE_CURVE ( 'NONE', #234, #120, #134, .T. ) ;
#30 = CARTESIAN_POINT ( 'NONE',  ( 0.0000000000000000000, 0.0000000000000000000, 4.000000000000000000 ) ) ;
#31 = CARTESIAN_POINT ( 'NONE',  ( 0.0000000000000000000, 0.0000000000000000000, 4.000000000000000000 ) ) ;
#32 = DIRECTION ( 'NONE',  ( -0.0000000000000000000, -0.0000000000000000000, -1.000000000000000000 ) ) ;
#33 = EDGE_CURVE ( 'NONE', #234, #344, #321, .T. ) ;
#34 = DIRECTION ( 'NONE',  ( 1.000000000000000000, 1.224646799147353207E-16, -0.0000000000000000000 ) ) ;
#35 = ADVANCED_FACE ( 'NONE', ( #27 ), #16, .T. ) ;
#36 = EDGE_LOOP ( 'NONE', ( #74, #173, #180, #176 ) ) ;
#37 = AXIS2_PLACEMENT_3D ( 'NONE', #165, #107, #166 ) ;
#38 = APPLICATION_PROTOCOL_DEFINITION ( 'draft international standard', 'automotive_design', 1998, #214 ) ;
#39 = ADVANCED_FACE ( 'NONE', ( #293 ), #133, .T. ) ;
#40 = STYLED_ITEM ( 'NONE', ( #174 ), #128 ) ;
#41 =( LENGTH_UNIT ( ) NAMED_UNIT ( * ) SI_UNIT ( $, .METRE. ) );
#42 = DIRECTION ( 'NONE',  ( -1.000000000000000000, 0.0000000000000000000, 0.0000000000000000000 ) ) ;
#43 = SURFACE_STYLE_FILL_AREA ( #90 ) ;
#44 = CIRCLE ( 'NONE', #110, 0.1499999999999999389 ) ;
#45 = DIRECTION ( 'NONE',  ( 1.000000000000000000, 0.0000000000000000000, 0.0000000000000000000 ) ) ;
#46 = PRODUCT_DEFINITION_CONTEXT ( 'detailed design', #214, 'design' ) ;
#47 = ORIENTED_EDGE ( 'NONE', *, *, #22, .F. ) ;
#48 = LENGTH_MEASURE_WITH_UNIT ( LENGTH_MEASURE( 0.02539999999999999897 ), #178 );
#49 = CIRCLE ( 'NONE', #303, 0.1875000000000000278 ) ;
#50 = ORIENTED_EDGE ( 'NONE', *, *, #265, .F. ) ;
#51 = AXIS2_PLACEMENT_3D ( 'NONE', #135, #212, #159 ) ;
#52 = ORIENTED_EDGE ( 'NONE', *, *, #270, .F. ) ;
#53 = ADVANCED_FACE ( 'NONE', ( #84 ), #158, .T. ) ;
#54 = CARTESIAN_POINT ( 'NONE',  ( 0.1499999999999999112, 1.836970198721028825E-17, 0.0000000000000000000 ) ) ;
#55 = VECTOR ( 'NONE', #122, 39.37007874015748854 ) ;
#56 = VERTEX_POINT ( 'NONE', #190 ) ;
#57 = LINE ( 'NONE', #247, #206 ) ;
#58 = CARTESIAN_POINT ( 'NONE',  ( 0.1499999999999998834, 0.0000000000000000000, 0.8000000000000000444 ) ) ;
#59 = AXIS2_PLACEMENT_3D ( 'NONE', #202, #224, #64 ) ;
#60 = DIRECTION ( 'NONE',  ( 1.000000000000000000, 0.0000000000000000000, -0.0000000000000000000 ) ) ;
#61 = CARTESIAN_POINT ( 'NONE',  ( 0.0000000000000000000, 0.0000000000000000000, 0.8000000000000000444 ) ) ;
#62 = CIRCLE ( 'NONE', #275, 0.1499999999999998834 ) ;
#63 = DIRECTION ( 'NONE',  ( -1.000000000000000000, 0.0000000000000000000, 0.0000000000000000000 ) ) ;
#64 = DIRECTION ( 'NONE',  ( -1.000000000000000000, 0.0000000000000000000, 0.0000000000000000000 ) ) ;
#65 = CARTESIAN_POINT ( 'NONE',  ( 0.0000000000000000000, 0.0000000000000000000, 0.1875000000000000278 ) ) ;
#66 =( NAMED_UNIT ( * ) PLANE_ANGLE_UNIT ( ) SI_UNIT ( $, .RADIAN. ) );
#67 = CARTESIAN_POINT ( 'NONE',  ( -0.1724999999999998757, 0.0000000000000000000, 4.000000000000000000 ) ) ;
#68 = ORIENTED_EDGE ( 'NONE', *, *, #318, .F. ) ;
#69 =( GEOMETRIC_REPRESENTATION_CONTEXT ( 3 ) GLOBAL_UNCERTAINTY_ASSIGNED_CONTEXT ( ( #307 ) ) GLOBAL_UNIT_ASSIGNED_CONTEXT ( ( #229, #66, #301 ) ) REPRESENTATION_CONTEXT ( 'NONE', 'WORKASPACE' ) );
#70 = CARTESIAN_POINT ( 'NONE',  ( 0.0000000000000000000, 0.0000000000000000000, 4.000000000000000000 ) ) ;
#71 = ORIENTED_EDGE ( 'NONE', *, *, #88, .T. ) ;
#72 = VECTOR ( 'NONE', #345, 39.37007874015748854 ) ;
#73 = ORIENTED_EDGE ( 'NONE', *, *, #270, .T. ) ;
#74 = ORIENTED_EDGE ( 'NONE', *, *, #139, .F. ) ;
#75 = AXIS2_PLACEMENT_3D ( 'NONE', #309, #116, #282 ) ;
#76 = ORIENTED_EDGE ( 'NONE', *, *, #33, .F. ) ;
#77 = CIRCLE ( 'NONE', #191, 0.1875000000000000278 ) ;
#78 = ORIENTED_EDGE ( 'NONE', *, *, #299, .F. ) ;
#79 = EDGE_LOOP ( 'NONE', ( #68, #23, #313, #78 ) ) ;
#80 = DIRECTION ( 'NONE',  ( -0.0000000000000000000, -0.0000000000000000000, -1.000000000000000000 ) ) ;
#81 = CARTESIAN_POINT ( 'NONE',  ( 0.1875000000000000278, 2.296212748401287726E-17, 4.000000000000000000 ) ) ;
#82 = DIRECTION ( 'NONE',  ( 0.0000000000000000000, 0.0000000000000000000, 1.000000000000000000 ) ) ;
#83 = DIMENSIONAL_EXPONENTS ( 1.000000000000000000, 0.0000000000000000000, 0.0000000000000000000, 0.0000000000000000000, 0.0000000000000000000, 0.0000000000000000000, 0.0000000000000000000 ) ;
#84 = FACE_OUTER_BOUND ( 'NONE', #210, .T. ) ;
#85 = DIRECTION ( 'NONE',  ( 0.0000000000000000000, 0.0000000000000000000, -1.000000000000000000 ) ) ;
#86 = MECHANICAL_DESIGN_GEOMETRIC_PRESENTATION_REPRESENTATION (  '', ( #118 ), #213 ) ;
#87 = DIRECTION ( 'NONE',  ( 0.0000000000000000000, 0.0000000000000000000, -1.000000000000000000 ) ) ;
#88 = EDGE_CURVE ( 'NONE', #344, #327, #44, .T. ) ;
#89 = SURFACE_STYLE_USAGE ( .BOTH. , #6 ) ;
#90 = FILL_AREA_STYLE ('',( #150 ) ) ;
#91 = CYLINDRICAL_SURFACE ( 'NONE', #255, 0.1875000000000000278 ) ;
#92 = ADVANCED_FACE ( 'NONE', ( #294 ), #271, .T. ) ;
#93 = AXIS2_PLACEMENT_3D ( 'NONE', #31, #85, #185 ) ;
#94 = CARTESIAN_POINT ( 'NONE',  ( 0.0000000000000000000, 0.0000000000000000000, 0.3000000000000000999 ) ) ;
#95 = CIRCLE ( 'NONE', #203, 0.1499999999999999389 ) ;
#96 = PRODUCT_CONTEXT ( 'NONE', #177, 'mechanical' ) ;
#97 = LINE ( 'NONE', #257, #55 ) ;
#98 = ORIENTED_EDGE ( 'NONE', *, *, #299, .T. ) ;
#99 = ORIENTED_EDGE ( 'NONE', *, *, #296, .T. ) ;
#100 = ORIENTED_EDGE ( 'NONE', *, *, #227, .T. ) ;
#101 = AXIS2_PLACEMENT_3D ( 'NONE', #65, #34, #145 ) ;
#102 = EDGE_LOOP ( 'NONE', ( #143, #149, #71, #286 ) ) ;
#103 = CARTESIAN_POINT ( 'NONE',  ( 0.0000000000000000000, 0.0000000000000000000, 0.8000000000000000444 ) ) ;
#104 = ADVANCED_FACE ( 'NONE', ( #3 ), #218, .T. ) ;
#105 = CIRCLE ( 'NONE', #161, 0.1724999999999998757 ) ;
#106 = DIRECTION ( 'NONE',  ( 0.09334070869305856333, 0.0000000000000000000, 0.9956342260592879745 ) ) ;
#107 = DIRECTION ( 'NONE',  ( -0.0000000000000000000, -0.0000000000000000000, -1.000000000000000000 ) ) ;
#108 = CARTESIAN_POINT ( 'NONE',  ( -0.2062499999999998224, 2.525834023241413787E-17, 1.399999999999997469 ) ) ;
#109 = FACE_OUTER_BOUND ( 'NONE', #79, .T. ) ;
#110 = AXIS2_PLACEMENT_3D ( 'NONE', #290, #137, #187 ) ;
#111 = DIRECTION ( 'NONE',  ( -0.0000000000000000000, -0.0000000000000000000, -1.000000000000000000 ) ) ;
#112 =( CONVERSION_BASED_UNIT ( 'INCH', #48 ) LENGTH_UNIT ( ) NAMED_UNIT ( #83 ) );
#113 = ADVANCED_FACE ( 'NONE', ( #215 ), #8, .T. ) ;
#114 = DIRECTION ( 'NONE',  ( -1.000000000000000000, 0.0000000000000000000, 0.0000000000000000000 ) ) ;
#115 = DIMENSIONAL_EXPONENTS ( 1.000000000000000000, 0.0000000000000000000, 0.0000000000000000000, 0.0000000000000000000, 0.0000000000000000000, 0.0000000000000000000, 0.0000000000000000000 ) ;
#116 = DIRECTION ( 'NONE',  ( -0.0000000000000000000, -0.0000000000000000000, -1.000000000000000000 ) ) ;
#117 = CARTESIAN_POINT ( 'NONE',  ( 1.836970198721028825E-17, -0.1499999999999999112, 0.3000000000000000999 ) ) ;
#118 = STYLED_ITEM ( 'NONE', ( #302 ), #246 ) ;
#119 = CARTESIAN_POINT ( 'NONE',  ( -0.1875000000000000278, 2.296212748401287726E-17, 1.200000000000000178 ) ) ;
#120 = VERTEX_POINT ( 'NONE', #58 ) ;
#121 = DIRECTION ( 'NONE',  ( 1.000000000000000000, 0.0000000000000000000, 0.0000000000000000000 ) ) ;
#122 = DIRECTION ( 'NONE',  ( 0.7071067811865321406, 8.659560562354744271E-17, -0.7071067811865627828 ) ) ;
#123 =( NAMED_UNIT ( * ) SI_UNIT ( $, .STERADIAN. ) SOLID_ANGLE_UNIT ( ) );
#124 = CLOSED_SHELL ( 'NONE', ( #53, #252, #92, #35, #220, #7, #113, #39, #211, #104, #153 ) ) ;
#125 = CARTESIAN_POINT ( 'NONE',  ( 0.1499999999999999389, 1.836970198721029133E-17, 0.3000000000000000999 ) ) ;
#126 = ORIENTED_EDGE ( 'NONE', *, *, #326, .T. ) ;
#127 = ORIENTED_EDGE ( 'NONE', *, *, #207, .T. ) ;
#128 = ADVANCED_BREP_SHAPE_REPRESENTATION ( 'Micro_SBM-375-4', ( #246, #231 ), #69 ) ;
#129 = ORIENTED_EDGE ( 'NONE', *, *, #227, .F. ) ;
#130 = AXIS2_PLACEMENT_3D ( 'NONE', #217, #320, #11 ) ;
#131 = DIRECTION ( 'NONE',  ( -0.0000000000000000000, -0.0000000000000000000, -1.000000000000000000 ) ) ;
#132 = DIRECTION ( 'NONE',  ( -0.09334070869305856333, 1.143094001310997027E-17, 0.9956342260592879745 ) ) ;
#133 = CYLINDRICAL_SURFACE ( 'NONE', #330, 0.1499999999999999112 ) ;
#134 = CIRCLE ( 'NONE', #291, 0.1499999999999998834 ) ;
#135 = CARTESIAN_POINT ( 'NONE',  ( 0.0000000000000000000, 0.0000000000000000000, 1.399999999999997469 ) ) ;
#136 = EDGE_CURVE ( 'NONE', #120, #184, #57, .T. ) ;
#137 = DIRECTION ( 'NONE',  ( -0.0000000000000000000, -0.0000000000000000000, -1.000000000000000000 ) ) ;
#138 = LINE ( 'NONE', #81, #314 ) ;
#139 = EDGE_CURVE ( 'NONE', #234, #260, #272, .T. ) ;
#140 = VECTOR ( 'NONE', #243, 39.37007874015748143 ) ;
#141 = EDGE_CURVE ( 'NONE', #338, #260, #4, .T. ) ;
#142 = DIRECTION ( 'NONE',  ( -0.0000000000000000000, -0.0000000000000000000, -1.000000000000000000 ) ) ;
#143 = ORIENTED_EDGE ( 'NONE', *, *, #216, .F. ) ;
#144 = SURFACE_SIDE_STYLE ('',( #43 ) ) ;
#145 = DIRECTION ( 'NONE',  ( -1.224646799147353207E-16, 1.000000000000000000, 0.0000000000000000000 ) ) ;
#146 = DIRECTION ( 'NONE',  ( 0.0000000000000000000, 0.0000000000000000000, 1.000000000000000000 ) ) ;
#147 = AXIS2_PLACEMENT_3D ( 'NONE', #279, #167, #274 ) ;
#148 = CARTESIAN_POINT ( 'NONE',  ( 0.0000000000000000000, 0.0000000000000000000, 3.984999999999998987 ) ) ;
#149 = ORIENTED_EDGE ( 'NONE', *, *, #265, .T. ) ;
#150 = FILL_AREA_STYLE_COLOUR ( '', #223 ) ;
#151 = ORIENTED_EDGE ( 'NONE', *, *, #312, .F. ) ;
#152 = ORIENTED_EDGE ( 'NONE', *, *, #141, .F. ) ;
#153 = ADVANCED_FACE ( 'NONE', ( #109 ), #186, .T. ) ;
#154 = VERTEX_POINT ( 'NONE', #297 ) ;
#155 = FACE_OUTER_BOUND ( 'NONE', #102, .T. ) ;
#156 = CIRCLE ( 'NONE', #322, 0.1874999999999999445 ) ;
#157 = ORIENTED_EDGE ( 'NONE', *, *, #29, .T. ) ;
#158 = CONICAL_SURFACE ( 'NONE', #93, 0.1724999999999998757, 0.7853981633974266297 ) ;
#159 = DIRECTION ( 'NONE',  ( 1.000000000000000000, 0.0000000000000000000, 0.0000000000000000000 ) ) ;
#160 = CARTESIAN_POINT ( 'NONE',  ( 0.0000000000000000000, 0.0000000000000000000, 0.0000000000000000000 ) ) ;
#161 = AXIS2_PLACEMENT_3D ( 'NONE', #280, #284, #12 ) ;
#162 = VECTOR ( 'NONE', #131, 39.37007874015748143 ) ;
#163 = DIRECTION ( 'NONE',  ( -1.000000000000000000, 0.0000000000000000000, 0.0000000000000000000 ) ) ;
#164 = VECTOR ( 'NONE', #219, 39.37007874015748143 ) ;
#165 = CARTESIAN_POINT ( 'NONE',  ( 0.0000000000000000000, 0.0000000000000000000, 0.0000000000000000000 ) ) ;
#166 = DIRECTION ( 'NONE',  ( -1.000000000000000000, 0.0000000000000000000, 0.0000000000000000000 ) ) ;
#167 = DIRECTION ( 'NONE',  ( 1.000000000000000000, 0.0000000000000000000, 0.0000000000000000000 ) ) ;
#168 = DIRECTION ( 'NONE',  ( 0.0000000000000000000, 0.0000000000000000000, -1.000000000000000000 ) ) ;
#169 = FACE_OUTER_BOUND ( 'NONE', #236, .T. ) ;
#170 = ORIENTED_EDGE ( 'NONE', *, *, #193, .T. ) ;
#171 = CIRCLE ( 'NONE', #75, 0.1499999999999999389 ) ;
#172 = LENGTH_MEASURE_WITH_UNIT ( LENGTH_MEASURE( 0.02539999999999999897 ), #194 );
#173 = ORIENTED_EDGE ( 'NONE', *, *, #188, .F. ) ;
#174 = PRESENTATION_STYLE_ASSIGNMENT (( #329 ) ) ;
#175 = UNCERTAINTY_MEASURE_WITH_UNIT (LENGTH_MEASURE( 1.000000000000000082E-05 ), #112, 'distance_accuracy_value', 'NONE');
#176 = ORIENTED_EDGE ( 'NONE', *, *, #296, .F. ) ;
#177 = APPLICATION_CONTEXT ( 'automotive_design' ) ;
#178 =( LENGTH_UNIT ( ) NAMED_UNIT ( * ) SI_UNIT ( $, .METRE. ) );
#179 = EDGE_LOOP ( 'NONE', ( #199, #170, #100, #152 ) ) ;
#180 = ORIENTED_EDGE ( 'NONE', *, *, #136, .T. ) ;
#181 = AXIS2_PLACEMENT_3D ( 'NONE', #266, #317, #192 ) ;
#182 = ORIENTED_EDGE ( 'NONE', *, *, #337, .T. ) ;
#183 = PRODUCT_DEFINITION_SHAPE ( 'NONE', 'NONE',  #259 ) ;
#184 = VERTEX_POINT ( 'NONE', #319 ) ;
#185 = DIRECTION ( 'NONE',  ( -1.000000000000000000, 0.0000000000000000000, 0.0000000000000000000 ) ) ;
#186 = CONICAL_SURFACE ( 'NONE', #181, 0.1724999999999998757, 0.7853981633974266297 ) ;
#187 = DIRECTION ( 'NONE',  ( -1.000000000000000000, 0.0000000000000000000, 0.0000000000000000000 ) ) ;
#188 = EDGE_CURVE ( 'NONE', #120, #234, #62, .T. ) ;
#189 = DIRECTION ( 'NONE',  ( -1.000000000000000000, 0.0000000000000000000, 0.0000000000000000000 ) ) ;
#190 = CARTESIAN_POINT ( 'NONE',  ( 0.1875000000000000278, 2.296212748401287726E-17, 3.984999999999998987 ) ) ;
#191 = AXIS2_PLACEMENT_3D ( 'NONE', #197, #168, #253 ) ;
#192 = DIRECTION ( 'NONE',  ( -1.000000000000000000, 0.0000000000000000000, 0.0000000000000000000 ) ) ;
#193 = EDGE_CURVE ( 'NONE', #56, #184, #138, .T. ) ;
#194 =( LENGTH_UNIT ( ) NAMED_UNIT ( * ) SI_UNIT ( $, .METRE. ) );
#195 = CIRCLE ( 'NONE', #59, 0.1499999999999999389 ) ;
#196 = PRODUCT_RELATED_PRODUCT_CATEGORY ( 'part', '', ( #341 ) ) ;
#197 = CARTESIAN_POINT ( 'NONE',  ( 0.0000000000000000000, 0.0000000000000000000, 3.984999999999998987 ) ) ;
#198 = SPHERICAL_SURFACE ( 'NONE', #147, 0.1874999999999999722 ) ;
#199 = ORIENTED_EDGE ( 'NONE', *, *, #233, .T. ) ;
#200 = CARTESIAN_POINT ( 'NONE',  ( 0.0000000000000000000, 0.1499999999999999112, 0.3000000000000000999 ) ) ;
#201 = FILL_AREA_STYLE ('',( #331 ) ) ;
#202 = CARTESIAN_POINT ( 'NONE',  ( 0.0000000000000000000, 0.0000000000000000000, 0.3000000000000000999 ) ) ;
#203 = AXIS2_PLACEMENT_3D ( 'NONE', #94, #142, #114 ) ;
#204 = ORIENTED_EDGE ( 'NONE', *, *, #193, .F. ) ;
#205 = DIRECTION ( 'NONE',  ( 0.0000000000000000000, 1.000000000000000000, 0.0000000000000000000 ) ) ;
#206 = VECTOR ( 'NONE', #106, 39.37007874015748143 ) ;
#207 = EDGE_CURVE ( 'NONE', #154, #262, #335, .T. ) ;
#208 = ORIENTED_EDGE ( 'NONE', *, *, #139, .T. ) ;
#209 = VERTEX_POINT ( 'NONE', #117 ) ;
#210 = EDGE_LOOP ( 'NONE', ( #277, #26, #336, #47 ) ) ;
#211 = ADVANCED_FACE ( 'NONE', ( #169 ), #91, .T. ) ;
#212 = DIRECTION ( 'NONE',  ( 0.0000000000000000000, 0.0000000000000000000, 1.000000000000000000 ) ) ;
#213 =( GEOMETRIC_REPRESENTATION_CONTEXT ( 3 ) GLOBAL_UNCERTAINTY_ASSIGNED_CONTEXT ( ( #20 ) ) GLOBAL_UNIT_ASSIGNED_CONTEXT ( ( #298, #324, #228 ) ) REPRESENTATION_CONTEXT ( 'NONE', 'WORKASPACE' ) );
#214 = APPLICATION_CONTEXT ( 'automotive_design' ) ;
#215 = FACE_OUTER_BOUND ( 'NONE', #36, .T. ) ;
#216 = EDGE_CURVE ( 'NONE', #209, #340, #342, .T. ) ;
#217 = CARTESIAN_POINT ( 'NONE',  ( 0.0000000000000000000, 0.0000000000000000000, 4.000000000000000000 ) ) ;
#218 = PLANE ( 'NONE',  #306 ) ;
#219 = DIRECTION ( 'NONE',  ( -0.0000000000000000000, -0.0000000000000000000, -1.000000000000000000 ) ) ;
#220 = ADVANCED_FACE ( 'NONE', ( #225 ), #198, .T. ) ;
#221 = DIRECTION ( 'NONE',  ( 1.000000000000000000, 0.0000000000000000000, 0.0000000000000000000 ) ) ;
#222 = EDGE_LOOP ( 'NONE', ( #157, #310, #52, #343, #76 ) ) ;
#223 = COLOUR_RGB ( '',0.7921568627450980005, 0.8196078431372548767, 0.9333333333333333481 ) ;
#224 = DIRECTION ( 'NONE',  ( -0.0000000000000000000, -0.0000000000000000000, -1.000000000000000000 ) ) ;
#225 = FACE_OUTER_BOUND ( 'NONE', #237, .T. ) ;
#226 = AXIS2_PLACEMENT_3D ( 'NONE', #245, #82, #244 ) ;
#227 = EDGE_CURVE ( 'NONE', #184, #260, #235, .T. ) ;
#228 =( NAMED_UNIT ( * ) SI_UNIT ( $, .STERADIAN. ) SOLID_ANGLE_UNIT ( ) );
#229 =( CONVERSION_BASED_UNIT ( 'INCH', #332 ) LENGTH_UNIT ( ) NAMED_UNIT ( #325 ) );
#230 = CARTESIAN_POINT ( 'NONE',  ( 0.0000000000000000000, 0.0000000000000000000, 0.1875000000000000278 ) ) ;
#231 = AXIS2_PLACEMENT_3D ( 'NONE', #256, #18, #121 ) ;
#232 = CARTESIAN_POINT ( 'NONE',  ( -0.1499999999999999389, 0.0000000000000000000, 0.3000000000000000999 ) ) ;
#233 = EDGE_CURVE ( 'NONE', #338, #56, #77, .T. ) ;
#234 = VERTEX_POINT ( 'NONE', #300 ) ;
#235 = CIRCLE ( 'NONE', #295, 0.1875000000000000278 ) ;
#236 = EDGE_LOOP ( 'NONE', ( #204, #98, #261, #99 ) ) ;
#237 = EDGE_LOOP ( 'NONE', ( #73, #182, #315, #151 ) ) ;
#238 = EDGE_LOOP ( 'NONE', ( #283, #208, #129, #250 ) ) ;
#239 = PRESENTATION_LAYER_ASSIGNMENT (  '', '', ( #118 ) ) ;
#240 = CARTESIAN_POINT ( 'NONE',  ( 0.0000000000000000000, 0.0000000000000000000, 0.1875000000000000278 ) ) ;
#241 = CARTESIAN_POINT ( 'NONE',  ( -0.1875000000000000278, 0.0000000000000000000, 4.000000000000000000 ) ) ;
#242 =( GEOMETRIC_REPRESENTATION_CONTEXT ( 3 ) GLOBAL_UNCERTAINTY_ASSIGNED_CONTEXT ( ( #175 ) ) GLOBAL_UNIT_ASSIGNED_CONTEXT ( ( #112, #15, #123 ) ) REPRESENTATION_CONTEXT ( 'NONE', 'WORKASPACE' ) );
#243 = DIRECTION ( 'NONE',  ( -0.0000000000000000000, -0.0000000000000000000, -1.000000000000000000 ) ) ;
#244 = DIRECTION ( 'NONE',  ( 1.000000000000000000, 0.0000000000000000000, 0.0000000000000000000 ) ) ;
#245 = CARTESIAN_POINT ( 'NONE',  ( 0.0000000000000000000, 0.0000000000000000000, 1.399999999999997469 ) ) ;
#246 = MANIFOLD_SOLID_BREP ( 'Cut-Revolve3', #124 ) ;
#247 = CARTESIAN_POINT ( 'NONE',  ( 0.2062499999999998224, 0.0000000000000000000, 1.399999999999997469 ) ) ;
#248 = VECTOR ( 'NONE', #132, 39.37007874015748143 ) ;
#249 = CARTESIAN_POINT ( 'NONE',  ( 0.0000000000000000000, 0.0000000000000000000, 4.000000000000000000 ) ) ;
#250 = ORIENTED_EDGE ( 'NONE', *, *, #136, .F. ) ;
#251 = DIRECTION ( 'NONE',  ( -1.000000000000000000, 0.0000000000000000000, 0.0000000000000000000 ) ) ;
#252 = ADVANCED_FACE ( 'NONE', ( #254 ), #17, .T. ) ;
#253 = DIRECTION ( 'NONE',  ( 1.000000000000000000, 0.0000000000000000000, 0.0000000000000000000 ) ) ;
#254 = FACE_OUTER_BOUND ( 'NONE', #179, .T. ) ;
#255 = AXIS2_PLACEMENT_3D ( 'NONE', #70, #111, #42 ) ;
#256 = CARTESIAN_POINT ( 'NONE',  ( 0.0000000000000000000, 0.0000000000000000000, 0.0000000000000000000 ) ) ;
#257 = CARTESIAN_POINT ( 'NONE',  ( 0.1724999999999998757, 2.112515728529182686E-17, 4.000000000000000000 ) ) ;
#258 = ORIENTED_EDGE ( 'NONE', *, *, #2, .F. ) ;
#259 = PRODUCT_DEFINITION ( 'UNKNOWN', '', #311, #46 ) ;
#260 = VERTEX_POINT ( 'NONE', #119 ) ;
#261 = ORIENTED_EDGE ( 'NONE', *, *, #141, .T. ) ;
#262 = VERTEX_POINT ( 'NONE', #67 ) ;
#263 = ORIENTED_EDGE ( 'NONE', *, *, #33, .T. ) ;
#264 = CARTESIAN_POINT ( 'NONE',  ( -0.1724999999999998757, 0.0000000000000000000, 4.000000000000000000 ) ) ;
#265 = EDGE_CURVE ( 'NONE', #209, #344, #95, .T. ) ;
#266 = CARTESIAN_POINT ( 'NONE',  ( 0.0000000000000000000, 0.0000000000000000000, 4.000000000000000000 ) ) ;
#267 = MECHANICAL_DESIGN_GEOMETRIC_PRESENTATION_REPRESENTATION (  '', ( #40 ), #242 ) ;
#268 = CARTESIAN_POINT ( 'NONE',  ( -0.1499999999999999112, 0.0000000000000000000, 0.0000000000000000000 ) ) ;
#269 = COLOUR_RGB ( '',0.7921568627450980005, 0.8196078431372548767, 0.9333333333333333481 ) ;
#270 = EDGE_CURVE ( 'NONE', #327, #21, #195, .T. ) ;
#271 = CYLINDRICAL_SURFACE ( 'NONE', #37, 0.1499999999999999112 ) ;
#272 = LINE ( 'NONE', #108, #248 ) ;
#273 = AXIS2_PLACEMENT_3D ( 'NONE', #249, #9, #251 ) ;
#274 = DIRECTION ( 'NONE',  ( 0.0000000000000000000, 1.000000000000000000, 0.0000000000000000000 ) ) ;
#275 = AXIS2_PLACEMENT_3D ( 'NONE', #103, #32, #189 ) ;
#276 = DIRECTION ( 'NONE',  ( 1.000000000000000000, 0.0000000000000000000, 0.0000000000000000000 ) ) ;
#277 = ORIENTED_EDGE ( 'NONE', *, *, #207, .F. ) ;
#278 = CARTESIAN_POINT ( 'NONE',  ( 0.0000000000000000000, 1.148106374200643401E-17, 3.414809992080329023E-17 ) ) ;
#279 = CARTESIAN_POINT ( 'NONE',  ( 0.0000000000000000000, 0.0000000000000000000, 0.1875000000000000278 ) ) ;
#280 = CARTESIAN_POINT ( 'NONE',  ( 0.0000000000000000000, 0.0000000000000000000, 4.000000000000000000 ) ) ;
#281 = CARTESIAN_POINT ( 'NONE',  ( 0.0000000000000000000, 0.0000000000000000000, 1.200000000000000178 ) ) ;
#282 = DIRECTION ( 'NONE',  ( -1.000000000000000000, 0.0000000000000000000, 0.0000000000000000000 ) ) ;
#283 = ORIENTED_EDGE ( 'NONE', *, *, #29, .F. ) ;
#284 = DIRECTION ( 'NONE',  ( 0.0000000000000000000, 0.0000000000000000000, 1.000000000000000000 ) ) ;
#285 = AXIS2_PLACEMENT_3D ( 'NONE', #148, #87, #221 ) ;
#286 = ORIENTED_EDGE ( 'NONE', *, *, #312, .T. ) ;
#287 = ORIENTED_EDGE ( 'NONE', *, *, #337, .F. ) ;
#288 = LINE ( 'NONE', #54, #162 ) ;
#289 = DIRECTION ( 'NONE',  ( 1.000000000000000000, 0.0000000000000000000, 0.0000000000000000000 ) ) ;
#290 = CARTESIAN_POINT ( 'NONE',  ( 0.0000000000000000000, 0.0000000000000000000, 0.3000000000000000999 ) ) ;
#291 = AXIS2_PLACEMENT_3D ( 'NONE', #61, #323, #163 ) ;
#292 = DIRECTION ( 'NONE',  ( 0.0000000000000000000, 0.0000000000000000000, 1.000000000000000000 ) ) ;
#293 = FACE_OUTER_BOUND ( 'NONE', #25, .T. ) ;
#294 = FACE_OUTER_BOUND ( 'NONE', #222, .T. ) ;
#295 = AXIS2_PLACEMENT_3D ( 'NONE', #14, #146, #276 ) ;
#296 = EDGE_CURVE ( 'NONE', #260, #184, #49, .T. ) ;
#297 = CARTESIAN_POINT ( 'NONE',  ( 0.1724999999999998757, 2.204364238465235514E-17, 4.000000000000000000 ) ) ;
#298 =( CONVERSION_BASED_UNIT ( 'INCH', #172 ) LENGTH_UNIT ( ) NAMED_UNIT ( #115 ) );
#299 = EDGE_CURVE ( 'NONE', #56, #338, #339, .T. ) ;
#300 = CARTESIAN_POINT ( 'NONE',  ( -0.1499999999999998834, 2.066591473561157967E-17, 0.8000000000000000444 ) ) ;
#301 =( NAMED_UNIT ( * ) SI_UNIT ( $, .STERADIAN. ) SOLID_ANGLE_UNIT ( ) );
#302 = PRESENTATION_STYLE_ASSIGNMENT (( #89 ) ) ;
#303 = AXIS2_PLACEMENT_3D ( 'NONE', #281, #328, #45 ) ;
#304 = SURFACE_STYLE_FILL_AREA ( #201 ) ;
#305 = SHAPE_DEFINITION_REPRESENTATION ( #183, #128 ) ;
#306 = AXIS2_PLACEMENT_3D ( 'NONE', #30, #292, #60 ) ;
#307 = UNCERTAINTY_MEASURE_WITH_UNIT (LENGTH_MEASURE( 1.000000000000000082E-05 ), #229, 'distance_accuracy_value', 'NONE');
#308 = EDGE_LOOP ( 'NONE', ( #126, #127 ) ) ;
#309 = CARTESIAN_POINT ( 'NONE',  ( 0.0000000000000000000, 0.0000000000000000000, 0.3000000000000000999 ) ) ;
#310 = ORIENTED_EDGE ( 'NONE', *, *, #2, .T. ) ;
#311 = PRODUCT_DEFINITION_FORMATION_WITH_SPECIFIED_SOURCE ( 'ANY', '', #341, .NOT_KNOWN. ) ;
#312 = EDGE_CURVE ( 'NONE', #327, #340, #156, .T. ) ;
#313 = ORIENTED_EDGE ( 'NONE', *, *, #22, .T. ) ;
#314 = VECTOR ( 'NONE', #28, 39.37007874015748143 ) ;
#315 = ORIENTED_EDGE ( 'NONE', *, *, #216, .T. ) ;
#316 = SPHERICAL_SURFACE ( 'NONE', #13, 0.1874999999999999722 ) ;
#317 = DIRECTION ( 'NONE',  ( 0.0000000000000000000, 0.0000000000000000000, -1.000000000000000000 ) ) ;
#318 = EDGE_CURVE ( 'NONE', #154, #56, #97, .T. ) ;
#319 = CARTESIAN_POINT ( 'NONE',  ( 0.1875000000000000278, 0.0000000000000000000, 1.200000000000000178 ) ) ;
#320 = DIRECTION ( 'NONE',  ( 0.0000000000000000000, 0.0000000000000000000, 1.000000000000000000 ) ) ;
#321 = LINE ( 'NONE', #268, #164 ) ;
#322 = AXIS2_PLACEMENT_3D ( 'NONE', #230, #19, #334 ) ;
#323 = DIRECTION ( 'NONE',  ( -0.0000000000000000000, -0.0000000000000000000, -1.000000000000000000 ) ) ;
#324 =( NAMED_UNIT ( * ) PLANE_ANGLE_UNIT ( ) SI_UNIT ( $, .RADIAN. ) );
#325 = DIMENSIONAL_EXPONENTS ( 1.000000000000000000, 0.0000000000000000000, 0.0000000000000000000, 0.0000000000000000000, 0.0000000000000000000, 0.0000000000000000000, 0.0000000000000000000 ) ;
#326 = EDGE_CURVE ( 'NONE', #262, #154, #105, .T. ) ;
#327 = VERTEX_POINT ( 'NONE', #200 ) ;
#328 = DIRECTION ( 'NONE',  ( 0.0000000000000000000, 0.0000000000000000000, 1.000000000000000000 ) ) ;
#329 = SURFACE_STYLE_USAGE ( .BOTH. , #144 ) ;
#330 = AXIS2_PLACEMENT_3D ( 'NONE', #160, #80, #63 ) ;
#331 = FILL_AREA_STYLE_COLOUR ( '', #269 ) ;
#332 = LENGTH_MEASURE_WITH_UNIT ( LENGTH_MEASURE( 0.02539999999999999897 ), #41 );
#333 = APPLICATION_PROTOCOL_DEFINITION ( 'draft international standard', 'automotive_design', 1998, #177 ) ;
#334 = DIRECTION ( 'NONE',  ( 0.0000000000000000000, 0.0000000000000000000, 1.000000000000000000 ) ) ;
#335 = CIRCLE ( 'NONE', #130, 0.1724999999999998757 ) ;
#336 = ORIENTED_EDGE ( 'NONE', *, *, #233, .F. ) ;
#337 = EDGE_CURVE ( 'NONE', #21, #209, #171, .T. ) ;
#338 = VERTEX_POINT ( 'NONE', #10 ) ;
#339 = CIRCLE ( 'NONE', #285, 0.1875000000000000278 ) ;
#340 = VERTEX_POINT ( 'NONE', #278 ) ;
#341 = PRODUCT ( 'Micro_SBM-375-4', 'Micro_SBM-375-4', '', ( #96 ) ) ;
#342 = CIRCLE ( 'NONE', #101, 0.1874999999999999722 ) ;
#343 = ORIENTED_EDGE ( 'NONE', *, *, #88, .F. ) ;
#344 = VERTEX_POINT ( 'NONE', #232 ) ;
#345 = DIRECTION ( 'NONE',  ( -0.7071067811865321406, 0.0000000000000000000, -0.7071067811865627828 ) ) ;
ENDSEC;
END-ISO-10303-21;
