ISO-10303-21;
HEADER;
FILE_DESCRIPTION (( 'STEP AP214' ),
    '1' );
FILE_NAME ('59846W.STEP',
    '2023-06-22T23:23:02',
    ( '' ),
    ( '' ),
    'SwSTEP 2.0',
    'SolidWorks 2023',
    '' );
FILE_SCHEMA (( 'AUTOMOTIVE_DESIGN' ));
ENDSEC;

DATA;
#1 = FILL_AREA_STYLE ('',( #93 ) ) ;
#2 = PRODUCT_RELATED_PRODUCT_CATEGORY ( 'part', '', ( #299 ) ) ;
#3 = DIRECTION ( 'NONE',  ( 0.000000000000000000, 0.000000000000000000, -1.000000000000000000 ) ) ;
#4 = AXIS2_PLACEMENT_3D ( 'NONE', #21, #212, #147 ) ;
#5 = CYLINDRICAL_SURFACE ( 'NONE', #271, 0.2500000000000000555 ) ;
#6 = ADVANCED_FACE ( 'NONE', ( #308 ), #156, .T. ) ;
#7 = CIRCLE ( 'NONE', #211, 0.2500000000000000000 ) ;
#8 = DIRECTION ( 'NONE',  ( 3.061616997868386099E-17, -1.000000000000000000, 0.000000000000000000 ) ) ;
#9 = EDGE_CURVE ( 'NONE', #131, #141, #103, .T. ) ;
#10 = CARTESIAN_POINT ( 'NONE',  ( 0.000000000000000000, 1.000000000000000000, -0.2500000000000000000 ) ) ;
#11 = SURFACE_STYLE_FILL_AREA ( #33 ) ;
#12 = DIRECTION ( 'NONE',  ( -1.000000000000000000, 0.000000000000000000, 0.000000000000000000 ) ) ;
#13 = STYLED_ITEM ( 'NONE', ( #14 ), #182 ) ;
#14 = PRESENTATION_STYLE_ASSIGNMENT (( #34 ) ) ;
#15 = EDGE_CURVE ( 'NONE', #282, #202, #210, .T. ) ;
#16 = ORIENTED_EDGE ( 'NONE', *, *, #55, .F. ) ;
#17 = MANIFOLD_SOLID_BREP ( 'Revolve - Tool Body (Straight Shanked)', #226 ) ;
#18 = ORIENTED_EDGE ( 'NONE', *, *, #207, .T. ) ;
#19 = DIRECTION ( 'NONE',  ( -0.000000000000000000, -1.000000000000000000, -0.000000000000000000 ) ) ;
#20 =( LENGTH_UNIT ( ) NAMED_UNIT ( * ) SI_UNIT ( $, .METRE. ) );
#21 = CARTESIAN_POINT ( 'NONE',  ( 7.582401355855259480E-33, 1.000000000000000000, 0.000000000000000000 ) ) ;
#22 = STYLED_ITEM ( 'NONE', ( #135 ), #17 ) ;
#23 = AXIS2_PLACEMENT_3D ( 'NONE', #168, #8, #205 ) ;
#24 = CARTESIAN_POINT ( 'NONE',  ( 3.061616997868383018E-17, 0.000000000000000000, 0.2500000000000000000 ) ) ;
#25 =( CONVERSION_BASED_UNIT ( 'INCH', #291 ) LENGTH_UNIT ( ) NAMED_UNIT ( #222 ) );
#26 = DIMENSIONAL_EXPONENTS ( 1.000000000000000000, 0.000000000000000000, 0.000000000000000000, 0.000000000000000000, 0.000000000000000000, 0.000000000000000000, 0.000000000000000000 ) ;
#27 = COLOUR_RGB ( '',0.7921568627450980005, 0.8196078431372548767, 0.9333333333333333481 ) ;
#28 = PRESENTATION_LAYER_ASSIGNMENT (  '', '', ( #49 ) ) ;
#29 = CARTESIAN_POINT ( 'NONE',  ( -0.2500000000000000000, 1.000000000000000000, 0.000000000000000000 ) ) ;
#30 = PRODUCT_DEFINITION ( 'UNKNOWN', '', #88, #251 ) ;
#31 = FILL_AREA_STYLE_COLOUR ( '', #53 ) ;
#32 = EDGE_LOOP ( 'NONE', ( #208, #283, #178, #302 ) ) ;
#33 = FILL_AREA_STYLE ('',( #31 ) ) ;
#34 = SURFACE_STYLE_USAGE ( .BOTH. , #108 ) ;
#35 = UNCERTAINTY_MEASURE_WITH_UNIT (LENGTH_MEASURE( 1.000000000000000082E-05 ), #151, 'distance_accuracy_value', 'NONE');
#36 = ORIENTED_EDGE ( 'NONE', *, *, #237, .F. ) ;
#37 = LENGTH_MEASURE_WITH_UNIT ( LENGTH_MEASURE( 0.02539999999999999897 ), #225 );
#38 = CYLINDRICAL_SURFACE ( 'NONE', #287, 0.2500000000000000000 ) ;
#39 = FACE_OUTER_BOUND ( 'NONE', #64, .T. ) ;
#40 = VERTEX_POINT ( 'NONE', #10 ) ;
#41 =( CONVERSION_BASED_UNIT ( 'INCH', #262 ) LENGTH_UNIT ( ) NAMED_UNIT ( #232 ) );
#42 = AXIS2_PLACEMENT_3D ( 'NONE', #94, #257, #12 ) ;
#43 = DIRECTION ( 'NONE',  ( -3.061616997868386099E-17, 1.000000000000000000, -0.000000000000000000 ) ) ;
#44 = DIRECTION ( 'NONE',  ( -1.000000000000000000, 0.000000000000000000, 0.000000000000000000 ) ) ;
#45 = FILL_AREA_STYLE ('',( #67 ) ) ;
#46 = PRESENTATION_LAYER_ASSIGNMENT (  '', '', ( #292 ) ) ;
#47 = LENGTH_MEASURE_WITH_UNIT ( LENGTH_MEASURE( 0.02539999999999999897 ), #223 );
#48 =( LENGTH_UNIT ( ) NAMED_UNIT ( * ) SI_UNIT ( $, .METRE. ) );
#49 = STYLED_ITEM ( 'NONE', ( #254 ), #228 ) ;
#50 =( CONVERSION_BASED_UNIT ( 'INCH', #277 ) LENGTH_UNIT ( ) NAMED_UNIT ( #288 ) );
#51 = ADVANCED_FACE ( 'NONE', ( #215 ), #249, .T. ) ;
#52 = COLOUR_RGB ( '',1.000000000000000000, 0.000000000000000000, 0.000000000000000000 ) ;
#53 = COLOUR_RGB ( '',0.7921568627450980005, 0.8196078431372548767, 0.9333333333333333481 ) ;
#54 = LINE ( 'NONE', #99, #73 ) ;
#55 = EDGE_CURVE ( 'NONE', #253, #141, #193, .T. ) ;
#56 = DIRECTION ( 'NONE',  ( 1.000000000000000000, 0.000000000000000000, 0.000000000000000000 ) ) ;
#57 = CARTESIAN_POINT ( 'NONE',  ( 0.000000000000000000, 0.000000000000000000, 0.000000000000000000 ) ) ;
#58 = AXIS2_PLACEMENT_3D ( 'NONE', #153, #220, #216 ) ;
#59 = MECHANICAL_DESIGN_GEOMETRIC_PRESENTATION_REPRESENTATION (  '', ( #49 ), #227 ) ;
#60 = ORIENTED_EDGE ( 'NONE', *, *, #162, .F. ) ;
#61 = DIRECTION ( 'NONE',  ( -0.000000000000000000, -1.000000000000000000, -0.000000000000000000 ) ) ;
#62 = COLOUR_RGB ( '',1.000000000000000000, 0.000000000000000000, 0.000000000000000000 ) ;
#63 = DIRECTION ( 'NONE',  ( -3.061616997868386099E-17, 1.000000000000000000, 0.000000000000000000 ) ) ;
#64 = EDGE_LOOP ( 'NONE', ( #60, #233, #280, #175 ) ) ;
#65 = DIRECTION ( 'NONE',  ( -1.000000000000000000, 0.000000000000000000, 0.000000000000000000 ) ) ;
#66 =( NAMED_UNIT ( * ) SI_UNIT ( $, .STERADIAN. ) SOLID_ANGLE_UNIT ( ) );
#67 = FILL_AREA_STYLE_COLOUR ( '', #179 ) ;
#68 = MECHANICAL_DESIGN_GEOMETRIC_PRESENTATION_REPRESENTATION (  '', ( #22 ), #184 ) ;
#69 = AXIS2_PLACEMENT_3D ( 'NONE', #57, #298, #56 ) ;
#70 =( NAMED_UNIT ( * ) SI_UNIT ( $, .STERADIAN. ) SOLID_ANGLE_UNIT ( ) );
#71 = DIRECTION ( 'NONE',  ( 0.000000000000000000, 0.000000000000000000, -1.000000000000000000 ) ) ;
#72 = EDGE_CURVE ( 'NONE', #40, #202, #97, .T. ) ;
#73 = VECTOR ( 'NONE', #297, 39.37007874015748143 ) ;
#74 = SURFACE_STYLE_FILL_AREA ( #118 ) ;
#75 = VECTOR ( 'NONE', #167, 39.37007874015748143 ) ;
#76 =( GEOMETRIC_REPRESENTATION_CONTEXT ( 3 ) GLOBAL_UNCERTAINTY_ASSIGNED_CONTEXT ( ( #77 ) ) GLOBAL_UNIT_ASSIGNED_CONTEXT ( ( #144, #268, #158 ) ) REPRESENTATION_CONTEXT ( 'NONE', 'WORKASPACE' ) );
#77 = UNCERTAINTY_MEASURE_WITH_UNIT (LENGTH_MEASURE( 1.000000000000000082E-05 ), #144, 'distance_accuracy_value', 'NONE');
#78 =( CONVERSION_BASED_UNIT ( 'INCH', #37 ) LENGTH_UNIT ( ) NAMED_UNIT ( #192 ) );
#79 = AXIS2_PLACEMENT_3D ( 'NONE', #95, #19, #71 ) ;
#80 = AXIS2_PLACEMENT_3D ( 'NONE', #285, #63, #305 ) ;
#81 = UNCERTAINTY_MEASURE_WITH_UNIT (LENGTH_MEASURE( 1.000000000000000082E-05 ), #25, 'distance_accuracy_value', 'NONE');
#82 = ORIENTED_EDGE ( 'NONE', *, *, #72, .F. ) ;
#83 = CARTESIAN_POINT ( 'NONE',  ( 3.061616997868383018E-17, 0.000000000000000000, 0.2500000000000000000 ) ) ;
#84 =( NAMED_UNIT ( * ) PLANE_ANGLE_UNIT ( ) SI_UNIT ( $, .RADIAN. ) );
#85 = VERTEX_POINT ( 'NONE', #29 ) ;
#86 = PLANE ( 'NONE',  #80 ) ;
#87 = EDGE_LOOP ( 'NONE', ( #255, #127, #230, #82 ) ) ;
#88 = PRODUCT_DEFINITION_FORMATION_WITH_SPECIFIED_SOURCE ( 'ANY', '', #299, .NOT_KNOWN. ) ;
#89 =( CONVERSION_BASED_UNIT ( 'INCH', #290 ) LENGTH_UNIT ( ) NAMED_UNIT ( #199 ) );
#90 = CARTESIAN_POINT ( 'NONE',  ( 0.000000000000000000, 1.000000000000000000, 0.000000000000000000 ) ) ;
#91 = STYLED_ITEM ( 'NONE', ( #204 ), #51 ) ;
#92 = FACE_OUTER_BOUND ( 'NONE', #130, .T. ) ;
#93 = FILL_AREA_STYLE_COLOUR ( '', #27 ) ;
#94 = CARTESIAN_POINT ( 'NONE',  ( -6.123233995736772199E-17, 3.000000000000000444, 0.000000000000000000 ) ) ;
#95 = CARTESIAN_POINT ( 'NONE',  ( 0.000000000000000000, 0.000000000000000000, 0.000000000000000000 ) ) ;
#96 =( NAMED_UNIT ( * ) SI_UNIT ( $, .STERADIAN. ) SOLID_ANGLE_UNIT ( ) );
#97 = LINE ( 'NONE', #244, #258 ) ;
#98 = VECTOR ( 'NONE', #221, 39.37007874015748143 ) ;
#99 = CARTESIAN_POINT ( 'NONE',  ( -0.2500000000000001110, 3.000000000000000444, 0.000000000000000000 ) ) ;
#100 =( NAMED_UNIT ( * ) PLANE_ANGLE_UNIT ( ) SI_UNIT ( $, .RADIAN. ) );
#101 =( NAMED_UNIT ( * ) SI_UNIT ( $, .STERADIAN. ) SOLID_ANGLE_UNIT ( ) );
#102 = EDGE_LOOP ( 'NONE', ( #126, #286 ) ) ;
#103 = CIRCLE ( 'NONE', #172, 0.2500000000000000555 ) ;
#104 = STYLED_ITEM ( 'NONE', ( #114 ), #124 ) ;
#105 = DIRECTION ( 'NONE',  ( -0.000000000000000000, -1.000000000000000000, -0.000000000000000000 ) ) ;
#106 = FACE_OUTER_BOUND ( 'NONE', #150, .T. ) ;
#107 = ADVANCED_FACE ( 'NONE', ( #224 ), #5, .T. ) ;
#108 = SURFACE_SIDE_STYLE ('',( #236 ) ) ;
#109 = ORIENTED_EDGE ( 'NONE', *, *, #146, .F. ) ;
#110 = VERTEX_POINT ( 'NONE', #191 ) ;
#111 =( NAMED_UNIT ( * ) PLANE_ANGLE_UNIT ( ) SI_UNIT ( $, .RADIAN. ) );
#112 = PRESENTATION_STYLE_ASSIGNMENT (( #242 ) ) ;
#113 = SURFACE_STYLE_FILL_AREA ( #160 ) ;
#114 = PRESENTATION_STYLE_ASSIGNMENT (( #243 ) ) ;
#115 =( NAMED_UNIT ( * ) SI_UNIT ( $, .STERADIAN. ) SOLID_ANGLE_UNIT ( ) );
#116 = CARTESIAN_POINT ( 'NONE',  ( 0.2499999999999999722, 3.000000000000000444, 3.061616997868383634E-17 ) ) ;
#117 =( LENGTH_UNIT ( ) NAMED_UNIT ( * ) SI_UNIT ( $, .METRE. ) );
#118 = FILL_AREA_STYLE ('',( #171 ) ) ;
#119 =( NAMED_UNIT ( * ) PLANE_ANGLE_UNIT ( ) SI_UNIT ( $, .RADIAN. ) );
#120 = SURFACE_SIDE_STYLE ('',( #74 ) ) ;
#121 = AXIS2_PLACEMENT_3D ( 'NONE', #284, #61, #265 ) ;
#122 = ADVANCED_BREP_SHAPE_REPRESENTATION ( '59846W', ( #228, #17, #69 ), #76 ) ;
#123 = ORIENTED_EDGE ( 'NONE', *, *, #9, .T. ) ;
#124 = ADVANCED_FACE ( 'NONE', ( #92 ), #307, .T. ) ;
#125 = FILL_AREA_STYLE_COLOUR ( '', #304 ) ;
#126 = ORIENTED_EDGE ( 'NONE', *, *, #250, .T. ) ;
#127 = ORIENTED_EDGE ( 'NONE', *, *, #162, .T. ) ;
#128 = AXIS2_PLACEMENT_3D ( 'NONE', #129, #152, #209 ) ;
#129 = CARTESIAN_POINT ( 'NONE',  ( 0.000000000000000000, 1.000000000000000000, 0.000000000000000000 ) ) ;
#130 = EDGE_LOOP ( 'NONE', ( #145, #143 ) ) ;
#131 = VERTEX_POINT ( 'NONE', #234 ) ;
#132 =( NAMED_UNIT ( * ) PLANE_ANGLE_UNIT ( ) SI_UNIT ( $, .RADIAN. ) );
#133 =( GEOMETRIC_REPRESENTATION_CONTEXT ( 3 ) GLOBAL_UNCERTAINTY_ASSIGNED_CONTEXT ( ( #35 ) ) GLOBAL_UNIT_ASSIGNED_CONTEXT ( ( #151, #132, #101 ) ) REPRESENTATION_CONTEXT ( 'NONE', 'WORKASPACE' ) );
#134 = EDGE_CURVE ( 'NONE', #110, #40, #7, .T. ) ;
#135 = PRESENTATION_STYLE_ASSIGNMENT (( #267 ) ) ;
#136 = CIRCLE ( 'NONE', #276, 0.2500000000000000000 ) ;
#137 = CARTESIAN_POINT ( 'NONE',  ( 7.582401355855259480E-33, 1.000000000000000000, 0.000000000000000000 ) ) ;
#138 = EDGE_CURVE ( 'NONE', #40, #110, #218, .T. ) ;
#139 = SHAPE_DEFINITION_REPRESENTATION ( #263, #122 ) ;
#140 = CARTESIAN_POINT ( 'NONE',  ( -6.123233995736772199E-17, 3.000000000000000444, 0.000000000000000000 ) ) ;
#141 = VERTEX_POINT ( 'NONE', #289 ) ;
#142 = DIRECTION ( 'NONE',  ( -1.000000000000000000, 0.000000000000000000, 0.000000000000000000 ) ) ;
#143 = ORIENTED_EDGE ( 'NONE', *, *, #134, .F. ) ;
#144 =( CONVERSION_BASED_UNIT ( 'INCH', #47 ) LENGTH_UNIT ( ) NAMED_UNIT ( #26 ) );
#145 = ORIENTED_EDGE ( 'NONE', *, *, #138, .F. ) ;
#146 = EDGE_CURVE ( 'NONE', #253, #85, #187, .T. ) ;
#147 = DIRECTION ( 'NONE',  ( -1.000000000000000000, 0.000000000000000000, 0.000000000000000000 ) ) ;
#148 = FACE_OUTER_BOUND ( 'NONE', #235, .T. ) ;
#149 = UNCERTAINTY_MEASURE_WITH_UNIT (LENGTH_MEASURE( 1.000000000000000082E-05 ), #78, 'distance_accuracy_value', 'NONE');
#150 = EDGE_LOOP ( 'NONE', ( #123, #173 ) ) ;
#151 =( CONVERSION_BASED_UNIT ( 'INCH', #231 ) LENGTH_UNIT ( ) NAMED_UNIT ( #246 ) );
#152 = DIRECTION ( 'NONE',  ( 0.000000000000000000, 1.000000000000000000, 0.000000000000000000 ) ) ;
#153 = CARTESIAN_POINT ( 'NONE',  ( 0.000000000000000000, 0.000000000000000000, 0.000000000000000000 ) ) ;
#154 = DIRECTION ( 'NONE',  ( -0.000000000000000000, -1.000000000000000000, -0.000000000000000000 ) ) ;
#155 = PRESENTATION_LAYER_ASSIGNMENT (  '', '', ( #13 ) ) ;
#156 = CYLINDRICAL_SURFACE ( 'NONE', #58, 0.2500000000000000000 ) ;
#157 = SURFACE_SIDE_STYLE ('',( #188 ) ) ;
#158 =( NAMED_UNIT ( * ) SI_UNIT ( $, .STERADIAN. ) SOLID_ANGLE_UNIT ( ) );
#159 = SURFACE_STYLE_USAGE ( .BOTH. , #120 ) ;
#160 = FILL_AREA_STYLE ('',( #309 ) ) ;
#161 =( GEOMETRIC_REPRESENTATION_CONTEXT ( 3 ) GLOBAL_UNCERTAINTY_ASSIGNED_CONTEXT ( ( #200 ) ) GLOBAL_UNIT_ASSIGNED_CONTEXT ( ( #89, #306, #70 ) ) REPRESENTATION_CONTEXT ( 'NONE', 'WORKASPACE' ) );
#162 = EDGE_CURVE ( 'NONE', #110, #282, #185, .T. ) ;
#163 = CARTESIAN_POINT ( 'NONE',  ( 0.000000000000000000, 0.000000000000000000, -0.2500000000000000000 ) ) ;
#164 = CIRCLE ( 'NONE', #279, 0.2500000000000000000 ) ;
#165 = DIRECTION ( 'NONE',  ( -3.061616997868386099E-17, 1.000000000000000000, -0.000000000000000000 ) ) ;
#166 =( GEOMETRIC_REPRESENTATION_CONTEXT ( 3 ) GLOBAL_UNCERTAINTY_ASSIGNED_CONTEXT ( ( #206 ) ) GLOBAL_UNIT_ASSIGNED_CONTEXT ( ( #41, #111, #66 ) ) REPRESENTATION_CONTEXT ( 'NONE', 'WORKASPACE' ) );
#167 = DIRECTION ( 'NONE',  ( -3.061616997868386099E-17, 1.000000000000000000, -0.000000000000000000 ) ) ;
#168 = CARTESIAN_POINT ( 'NONE',  ( 0.2500000000000000000, 3.000000000000000444, 0.000000000000000000 ) ) ;
#169 = ADVANCED_FACE ( 'NONE', ( #189 ), #219, .T. ) ;
#170 = PLANE ( 'NONE',  #23 ) ;
#171 = FILL_AREA_STYLE_COLOUR ( '', #52 ) ;
#172 = AXIS2_PLACEMENT_3D ( 'NONE', #266, #43, #44 ) ;
#173 = ORIENTED_EDGE ( 'NONE', *, *, #237, .T. ) ;
#174 =( LENGTH_UNIT ( ) NAMED_UNIT ( * ) SI_UNIT ( $, .METRE. ) );
#175 = ORIENTED_EDGE ( 'NONE', *, *, #15, .F. ) ;
#176 = DIRECTION ( 'NONE',  ( 0.000000000000000000, 0.000000000000000000, -1.000000000000000000 ) ) ;
#177 = SURFACE_SIDE_STYLE ('',( #113 ) ) ;
#178 = ORIENTED_EDGE ( 'NONE', *, *, #9, .F. ) ;
#179 = COLOUR_RGB ( '',1.000000000000000000, 0.000000000000000000, 0.000000000000000000 ) ;
#180 = FILL_AREA_STYLE ('',( #125 ) ) ;
#181 = ORIENTED_EDGE ( 'NONE', *, *, #278, .F. ) ;
#182 = ADVANCED_FACE ( 'NONE', ( #39 ), #38, .T. ) ;
#183 = SURFACE_STYLE_FILL_AREA ( #45 ) ;
#184 =( GEOMETRIC_REPRESENTATION_CONTEXT ( 3 ) GLOBAL_UNCERTAINTY_ASSIGNED_CONTEXT ( ( #241 ) ) GLOBAL_UNIT_ASSIGNED_CONTEXT ( ( #50, #84, #96 ) ) REPRESENTATION_CONTEXT ( 'NONE', 'WORKASPACE' ) );
#185 = LINE ( 'NONE', #24, #98 ) ;
#186 = CARTESIAN_POINT ( 'NONE',  ( 0.000000000000000000, 0.000000000000000000, 0.000000000000000000 ) ) ;
#187 = CIRCLE ( 'NONE', #4, 0.2500000000000000000 ) ;
#188 = SURFACE_STYLE_FILL_AREA ( #1 ) ;
#189 = FACE_OUTER_BOUND ( 'NONE', #32, .T. ) ;
#190 =( LENGTH_UNIT ( ) NAMED_UNIT ( * ) SI_UNIT ( $, .METRE. ) );
#191 = CARTESIAN_POINT ( 'NONE',  ( 3.061616997868383018E-17, 1.000000000000000000, 0.2500000000000000000 ) ) ;
#192 = DIMENSIONAL_EXPONENTS ( 1.000000000000000000, 0.000000000000000000, 0.000000000000000000, 0.000000000000000000, 0.000000000000000000, 0.000000000000000000, 0.000000000000000000 ) ;
#193 = LINE ( 'NONE', #116, #75 ) ;
#194 = CLOSED_SHELL ( 'NONE', ( #6, #124, #182, #51 ) ) ;
#195 = ADVANCED_FACE ( 'NONE', ( #148 ), #86, .F. ) ;
#196 = MECHANICAL_DESIGN_GEOMETRIC_PRESENTATION_REPRESENTATION (  '', ( #104 ), #245 ) ;
#197 = APPLICATION_PROTOCOL_DEFINITION ( 'draft international standard', 'automotive_design', 1998, #295 ) ;
#198 = SURFACE_SIDE_STYLE ('',( #11 ) ) ;
#199 = DIMENSIONAL_EXPONENTS ( 1.000000000000000000, 0.000000000000000000, 0.000000000000000000, 0.000000000000000000, 0.000000000000000000, 0.000000000000000000, 0.000000000000000000 ) ;
#200 = UNCERTAINTY_MEASURE_WITH_UNIT (LENGTH_MEASURE( 1.000000000000000082E-05 ), #89, 'distance_accuracy_value', 'NONE');
#201 = PRESENTATION_LAYER_ASSIGNMENT (  '', '', ( #22 ) ) ;
#202 = VERTEX_POINT ( 'NONE', #163 ) ;
#203 = AXIS2_PLACEMENT_3D ( 'NONE', #140, #165, #65 ) ;
#204 = PRESENTATION_STYLE_ASSIGNMENT (( #159 ) ) ;
#205 = DIRECTION ( 'NONE',  ( 1.000000000000000000, 3.061616997868386099E-17, 0.000000000000000000 ) ) ;
#206 = UNCERTAINTY_MEASURE_WITH_UNIT (LENGTH_MEASURE( 1.000000000000000082E-05 ), #41, 'distance_accuracy_value', 'NONE');
#207 = EDGE_CURVE ( 'NONE', #85, #131, #54, .T. ) ;
#208 = ORIENTED_EDGE ( 'NONE', *, *, #278, .T. ) ;
#209 = DIRECTION ( 'NONE',  ( 0.000000000000000000, -0.000000000000000000, 1.000000000000000000 ) ) ;
#210 = CIRCLE ( 'NONE', #79, 0.2500000000000000000 ) ;
#211 = AXIS2_PLACEMENT_3D ( 'NONE', #90, #154, #176 ) ;
#212 = DIRECTION ( 'NONE',  ( -3.061616997868386099E-17, 1.000000000000000000, -0.000000000000000000 ) ) ;
#213 = DIRECTION ( 'NONE',  ( -0.000000000000000000, -1.000000000000000000, -0.000000000000000000 ) ) ;
#214 = DIRECTION ( 'NONE',  ( -1.000000000000000000, 0.000000000000000000, 0.000000000000000000 ) ) ;
#215 = FACE_OUTER_BOUND ( 'NONE', #102, .T. ) ;
#216 = DIRECTION ( 'NONE',  ( 0.000000000000000000, 0.000000000000000000, -1.000000000000000000 ) ) ;
#217 = AXIS2_PLACEMENT_3D ( 'NONE', #186, #272, #3 ) ;
#218 = CIRCLE ( 'NONE', #121, 0.2500000000000000000 ) ;
#219 = CYLINDRICAL_SURFACE ( 'NONE', #42, 0.2500000000000000555 ) ;
#220 = DIRECTION ( 'NONE',  ( -0.000000000000000000, -1.000000000000000000, -0.000000000000000000 ) ) ;
#221 = DIRECTION ( 'NONE',  ( -0.000000000000000000, -1.000000000000000000, -0.000000000000000000 ) ) ;
#222 = DIMENSIONAL_EXPONENTS ( 1.000000000000000000, 0.000000000000000000, 0.000000000000000000, 0.000000000000000000, 0.000000000000000000, 0.000000000000000000, 0.000000000000000000 ) ;
#223 =( LENGTH_UNIT ( ) NAMED_UNIT ( * ) SI_UNIT ( $, .METRE. ) );
#224 = FACE_OUTER_BOUND ( 'NONE', #238, .T. ) ;
#225 =( LENGTH_UNIT ( ) NAMED_UNIT ( * ) SI_UNIT ( $, .METRE. ) );
#226 = CLOSED_SHELL ( 'NONE', ( #169, #195, #107, #303 ) ) ;
#227 =( GEOMETRIC_REPRESENTATION_CONTEXT ( 3 ) GLOBAL_UNCERTAINTY_ASSIGNED_CONTEXT ( ( #149 ) ) GLOBAL_UNIT_ASSIGNED_CONTEXT ( ( #78, #119, #115 ) ) REPRESENTATION_CONTEXT ( 'NONE', 'WORKASPACE' ) );
#228 = MANIFOLD_SOLID_BREP ( 'Revolve - Cutting Edge', #194 ) ;
#229 = APPLICATION_PROTOCOL_DEFINITION ( 'draft international standard', 'automotive_design', 1998, #260 ) ;
#230 = ORIENTED_EDGE ( 'NONE', *, *, #250, .F. ) ;
#231 = LENGTH_MEASURE_WITH_UNIT ( LENGTH_MEASURE( 0.02539999999999999897 ), #174 );
#232 = DIMENSIONAL_EXPONENTS ( 1.000000000000000000, 0.000000000000000000, 0.000000000000000000, 0.000000000000000000, 0.000000000000000000, 0.000000000000000000, 0.000000000000000000 ) ;
#233 = ORIENTED_EDGE ( 'NONE', *, *, #134, .T. ) ;
#234 = CARTESIAN_POINT ( 'NONE',  ( -0.2500000000000001110, 3.000000000000000444, 0.000000000000000000 ) ) ;
#235 = EDGE_LOOP ( 'NONE', ( #181, #109 ) ) ;
#236 = SURFACE_STYLE_FILL_AREA ( #180 ) ;
#237 = EDGE_CURVE ( 'NONE', #141, #131, #264, .T. ) ;
#238 = EDGE_LOOP ( 'NONE', ( #16, #269, #18, #36 ) ) ;
#239 = PRESENTATION_LAYER_ASSIGNMENT (  '', '', ( #104 ) ) ;
#240 = CARTESIAN_POINT ( 'NONE',  ( 0.000000000000000000, 0.000000000000000000, 0.000000000000000000 ) ) ;
#241 = UNCERTAINTY_MEASURE_WITH_UNIT (LENGTH_MEASURE( 1.000000000000000082E-05 ), #50, 'distance_accuracy_value', 'NONE');
#242 = SURFACE_STYLE_USAGE ( .BOTH. , #247 ) ;
#243 = SURFACE_STYLE_USAGE ( .BOTH. , #177 ) ;
#244 = CARTESIAN_POINT ( 'NONE',  ( 0.000000000000000000, 0.000000000000000000, -0.2500000000000000000 ) ) ;
#245 =( GEOMETRIC_REPRESENTATION_CONTEXT ( 3 ) GLOBAL_UNCERTAINTY_ASSIGNED_CONTEXT ( ( #81 ) ) GLOBAL_UNIT_ASSIGNED_CONTEXT ( ( #25, #100, #261 ) ) REPRESENTATION_CONTEXT ( 'NONE', 'WORKASPACE' ) );
#246 = DIMENSIONAL_EXPONENTS ( 1.000000000000000000, 0.000000000000000000, 0.000000000000000000, 0.000000000000000000, 0.000000000000000000, 0.000000000000000000, 0.000000000000000000 ) ;
#247 = SURFACE_SIDE_STYLE ('',( #183 ) ) ;
#248 = DIRECTION ( 'NONE',  ( -3.061616997868386099E-17, 1.000000000000000000, -0.000000000000000000 ) ) ;
#249 = PLANE ( 'NONE',  #217 ) ;
#250 = EDGE_CURVE ( 'NONE', #202, #282, #164, .T. ) ;
#251 = PRODUCT_DEFINITION_CONTEXT ( 'detailed design', #295, 'design' ) ;
#252 = PRODUCT_CONTEXT ( 'NONE', #260, 'mechanical' ) ;
#253 = VERTEX_POINT ( 'NONE', #273 ) ;
#254 = PRESENTATION_STYLE_ASSIGNMENT (( #300 ) ) ;
#255 = ORIENTED_EDGE ( 'NONE', *, *, #138, .T. ) ;
#256 = DIRECTION ( 'NONE',  ( 0.000000000000000000, 0.000000000000000000, -1.000000000000000000 ) ) ;
#257 = DIRECTION ( 'NONE',  ( -3.061616997868386099E-17, 1.000000000000000000, -0.000000000000000000 ) ) ;
#258 = VECTOR ( 'NONE', #294, 39.37007874015748143 ) ;
#259 = DIRECTION ( 'NONE',  ( -3.061616997868386099E-17, 1.000000000000000000, -0.000000000000000000 ) ) ;
#260 = APPLICATION_CONTEXT ( 'automotive_design' ) ;
#261 =( NAMED_UNIT ( * ) SI_UNIT ( $, .STERADIAN. ) SOLID_ANGLE_UNIT ( ) );
#262 = LENGTH_MEASURE_WITH_UNIT ( LENGTH_MEASURE( 0.02539999999999999897 ), #20 );
#263 = PRODUCT_DEFINITION_SHAPE ( 'NONE', 'NONE',  #30 ) ;
#264 = CIRCLE ( 'NONE', #203, 0.2500000000000000555 ) ;
#265 = DIRECTION ( 'NONE',  ( 0.000000000000000000, 0.000000000000000000, -1.000000000000000000 ) ) ;
#266 = CARTESIAN_POINT ( 'NONE',  ( -6.123233995736772199E-17, 3.000000000000000444, 0.000000000000000000 ) ) ;
#267 = SURFACE_STYLE_USAGE ( .BOTH. , #157 ) ;
#268 =( NAMED_UNIT ( * ) PLANE_ANGLE_UNIT ( ) SI_UNIT ( $, .RADIAN. ) );
#269 = ORIENTED_EDGE ( 'NONE', *, *, #146, .T. ) ;
#270 = MECHANICAL_DESIGN_GEOMETRIC_PRESENTATION_REPRESENTATION (  '', ( #292 ), #161 ) ;
#271 = AXIS2_PLACEMENT_3D ( 'NONE', #274, #259, #214 ) ;
#272 = DIRECTION ( 'NONE',  ( 0.000000000000000000, -1.000000000000000000, -0.000000000000000000 ) ) ;
#273 = CARTESIAN_POINT ( 'NONE',  ( 0.2500000000000000000, 1.000000000000000000, 3.061616997868383634E-17 ) ) ;
#274 = CARTESIAN_POINT ( 'NONE',  ( -6.123233995736772199E-17, 3.000000000000000444, 0.000000000000000000 ) ) ;
#275 = PRESENTATION_LAYER_ASSIGNMENT (  '', '', ( #91 ) ) ;
#276 = AXIS2_PLACEMENT_3D ( 'NONE', #137, #248, #142 ) ;
#277 = LENGTH_MEASURE_WITH_UNIT ( LENGTH_MEASURE( 0.02539999999999999897 ), #190 );
#278 = EDGE_CURVE ( 'NONE', #85, #253, #136, .T. ) ;
#279 = AXIS2_PLACEMENT_3D ( 'NONE', #240, #213, #256 ) ;
#280 = ORIENTED_EDGE ( 'NONE', *, *, #72, .T. ) ;
#281 = CARTESIAN_POINT ( 'NONE',  ( 0.000000000000000000, 0.000000000000000000, 0.000000000000000000 ) ) ;
#282 = VERTEX_POINT ( 'NONE', #83 ) ;
#283 = ORIENTED_EDGE ( 'NONE', *, *, #55, .T. ) ;
#284 = CARTESIAN_POINT ( 'NONE',  ( 0.000000000000000000, 1.000000000000000000, 0.000000000000000000 ) ) ;
#285 = CARTESIAN_POINT ( 'NONE',  ( 1.171687330204578608E-34, 1.000000000000000000, 0.000000000000000000 ) ) ;
#286 = ORIENTED_EDGE ( 'NONE', *, *, #15, .T. ) ;
#287 = AXIS2_PLACEMENT_3D ( 'NONE', #281, #105, #301 ) ;
#288 = DIMENSIONAL_EXPONENTS ( 1.000000000000000000, 0.000000000000000000, 0.000000000000000000, 0.000000000000000000, 0.000000000000000000, 0.000000000000000000, 0.000000000000000000 ) ;
#289 = CARTESIAN_POINT ( 'NONE',  ( 0.2500000000000000000, 3.000000000000000444, 3.061616997868383634E-17 ) ) ;
#290 = LENGTH_MEASURE_WITH_UNIT ( LENGTH_MEASURE( 0.02539999999999999897 ), #48 );
#291 = LENGTH_MEASURE_WITH_UNIT ( LENGTH_MEASURE( 0.02539999999999999897 ), #117 );
#292 = STYLED_ITEM ( 'NONE', ( #112 ), #6 ) ;
#293 = MECHANICAL_DESIGN_GEOMETRIC_PRESENTATION_REPRESENTATION (  '', ( #13 ), #133 ) ;
#294 = DIRECTION ( 'NONE',  ( -0.000000000000000000, -1.000000000000000000, -0.000000000000000000 ) ) ;
#295 = APPLICATION_CONTEXT ( 'automotive_design' ) ;
#296 = MECHANICAL_DESIGN_GEOMETRIC_PRESENTATION_REPRESENTATION (  '', ( #91 ), #166 ) ;
#297 = DIRECTION ( 'NONE',  ( -3.061616997868386099E-17, 1.000000000000000000, -0.000000000000000000 ) ) ;
#298 = DIRECTION ( 'NONE',  ( 0.000000000000000000, 0.000000000000000000, 1.000000000000000000 ) ) ;
#299 = PRODUCT ( '59846W', '59846W', '', ( #252 ) ) ;
#300 = SURFACE_STYLE_USAGE ( .BOTH. , #198 ) ;
#301 = DIRECTION ( 'NONE',  ( 0.000000000000000000, 0.000000000000000000, -1.000000000000000000 ) ) ;
#302 = ORIENTED_EDGE ( 'NONE', *, *, #207, .F. ) ;
#303 = ADVANCED_FACE ( 'NONE', ( #106 ), #170, .F. ) ;
#304 = COLOUR_RGB ( '',1.000000000000000000, 0.000000000000000000, 0.000000000000000000 ) ;
#305 = DIRECTION ( 'NONE',  ( -1.000000000000000000, -3.061616997868386099E-17, 0.000000000000000000 ) ) ;
#306 =( NAMED_UNIT ( * ) PLANE_ANGLE_UNIT ( ) SI_UNIT ( $, .RADIAN. ) );
#307 = PLANE ( 'NONE',  #128 ) ;
#308 = FACE_OUTER_BOUND ( 'NONE', #87, .T. ) ;
#309 = FILL_AREA_STYLE_COLOUR ( '', #62 ) ;
ENDSEC;
END-ISO-10303-21;
