ISO-10303-21;
HEADER;
FILE_DESCRIPTION (( 'STEP AP214' ),
    '1' );
FILE_NAME ('Micro_GEMM-160-4.STEP',
    '2021-09-01T22:10:59',
    ( '' ),
    ( '' ),
    'SwSTEP 2.0',
    'SolidWorks 2020',
    '' );
FILE_SCHEMA (( 'AUTOMOTIVE_DESIGN' ));
ENDSEC;

DATA;
#1 =( NAMED_UNIT ( * ) PLANE_ANGLE_UNIT ( ) SI_UNIT ( $, .RADIAN. ) );
#2 = ADVANCED_FACE ( 'NONE', ( #148 ), #235, .T. ) ;
#3 = DIRECTION ( 'NONE',  ( -1.224646799147353207E-16, -0.0000000000000000000, -1.000000000000000000 ) ) ;
#4 = ORIENTED_EDGE ( 'NONE', *, *, #51, .T. ) ;
#5 = AXIS2_PLACEMENT_3D ( 'NONE', #213, #215, #27 ) ;
#6 = CARTESIAN_POINT ( 'NONE',  ( -0.3146455394999999045, 3.853296528146671416E-17, 1.259842999999999824 ) ) ;
#7 = DIMENSIONAL_EXPONENTS ( 1.000000000000000000, 0.0000000000000000000, 0.0000000000000000000, 0.0000000000000000000, 0.0000000000000000000, 0.0000000000000000000, 0.0000000000000000000 ) ;
#8 = CARTESIAN_POINT ( 'NONE',  ( 0.0000000000000000000, 0.0000000000000000000, 3.622047000000000239 ) ) ;
#9 = DIRECTION ( 'NONE',  ( 1.000000000000000000, 0.0000000000000000000, 0.0000000000000000000 ) ) ;
#10 = EDGE_LOOP ( 'NONE', ( #179, #176, #55, #246 ) ) ;
#11 = LENGTH_MEASURE_WITH_UNIT ( LENGTH_MEASURE( 0.02539999999999999897 ), #178 );
#12 = ORIENTED_EDGE ( 'NONE', *, *, #257, .T. ) ;
#13 = DIRECTION ( 'NONE',  ( 0.0000000000000000000, 0.0000000000000000000, 1.000000000000000000 ) ) ;
#14 = AXIS2_PLACEMENT_3D ( 'NONE', #147, #234, #236 ) ;
#15 =( NAMED_UNIT ( * ) SI_UNIT ( $, .STERADIAN. ) SOLID_ANGLE_UNIT ( ) );
#16 = ORIENTED_EDGE ( 'NONE', *, *, #29, .F. ) ;
#17 = DIRECTION ( 'NONE',  ( -1.224646799147353207E-16, -0.0000000000000000000, -1.000000000000000000 ) ) ;
#18 = ADVANCED_FACE ( 'NONE', ( #125 ), #289, .F. ) ;
#19 = CARTESIAN_POINT ( 'NONE',  ( 0.0000000000000000000, 0.0000000000000000000, 0.0000000000000000000 ) ) ;
#20 = APPLICATION_CONTEXT ( 'automotive_design' ) ;
#21 = MECHANICAL_DESIGN_GEOMETRIC_PRESENTATION_REPRESENTATION (  '', ( #78 ), #32 ) ;
#22 =( CONVERSION_BASED_UNIT ( 'INCH', #158 ) LENGTH_UNIT ( ) NAMED_UNIT ( #7 ) );
#23 = DIRECTION ( 'NONE',  ( 1.000000000000000000, 0.0000000000000000000, 0.0000000000000000000 ) ) ;
#24 = PRODUCT_DEFINITION_CONTEXT ( 'detailed design', #20, 'design' ) ;
#25 = ADVANCED_FACE ( 'NONE', ( #261 ), #193, .T. ) ;
#26 = LINE ( 'NONE', #139, #71 ) ;
#27 = DIRECTION ( 'NONE',  ( -1.000000000000000000, 0.0000000000000000000, 0.0000000000000000000 ) ) ;
#28 = EDGE_LOOP ( 'NONE', ( #260, #222, #231, #251 ) ) ;
#29 = EDGE_CURVE ( 'NONE', #216, #91, #242, .T. ) ;
#30 = CIRCLE ( 'NONE', #200, 0.3149604999999999766 ) ;
#31 = CARTESIAN_POINT ( 'NONE',  ( 0.3149605000000001431, 3.857153681828500963E-17, 1.261629229757547321 ) ) ;
#32 =( GEOMETRIC_REPRESENTATION_CONTEXT ( 3 ) GLOBAL_UNCERTAINTY_ASSIGNED_CONTEXT ( ( #124 ) ) GLOBAL_UNIT_ASSIGNED_CONTEXT ( ( #264, #154, #15 ) ) REPRESENTATION_CONTEXT ( 'NONE', 'WORKASPACE' ) );
#33 = CARTESIAN_POINT ( 'NONE',  ( -0.3149604999999999766, 0.0000000000000000000, 3.622047000000000239 ) ) ;
#34 = ORIENTED_EDGE ( 'NONE', *, *, #87, .F. ) ;
#35 = APPLICATION_CONTEXT ( 'automotive_design' ) ;
#36 = STYLED_ITEM ( 'NONE', ( #181 ), #142 ) ;
#37 = PRODUCT_DEFINITION_FORMATION_WITH_SPECIFIED_SOURCE ( 'ANY', '', #153, .NOT_KNOWN. ) ;
#38 = FILL_AREA_STYLE ('',( #88 ) ) ;
#39 = DIRECTION ( 'NONE',  ( 1.000000000000000000, 0.0000000000000000000, 0.0000000000000000000 ) ) ;
#40 = DIRECTION ( 'NONE',  ( -0.0000000000000000000, -0.0000000000000000000, -1.000000000000000000 ) ) ;
#41 = ADVANCED_FACE ( 'NONE', ( #197 ), #67, .T. ) ;
#42 = CIRCLE ( 'NONE', #288, 0.3149604999999999766 ) ;
#43 = DIRECTION ( 'NONE',  ( -1.000000000000000000, 0.0000000000000000000, 1.224646799147353207E-16 ) ) ;
#44 = EDGE_CURVE ( 'NONE', #180, #59, #107, .T. ) ;
#45 = DIRECTION ( 'NONE',  ( -1.000000000000000000, 0.0000000000000000000, 0.0000000000000000000 ) ) ;
#46 = CARTESIAN_POINT ( 'NONE',  ( 0.0000000000000000000, 0.0000000000000000000, 3.622047000000000239 ) ) ;
#47 = VERTEX_POINT ( 'NONE', #97 ) ;
#48 = DIRECTION ( 'NONE',  ( 1.000000000000000000, 0.0000000000000000000, 0.0000000000000000000 ) ) ;
#49 = VERTEX_POINT ( 'NONE', #113 ) ;
#50 = LENGTH_MEASURE_WITH_UNIT ( LENGTH_MEASURE( 0.02539999999999999897 ), #189 );
#51 = EDGE_CURVE ( 'NONE', #47, #49, #192, .T. ) ;
#52 = PRESENTATION_LAYER_ASSIGNMENT (  '', '', ( #36 ) ) ;
#53 = VECTOR ( 'NONE', #127, 39.37007874015748143 ) ;
#54 = DIRECTION ( 'NONE',  ( 0.1736481776669313859, 0.0000000000000000000, 0.9848077530122077983 ) ) ;
#55 = ORIENTED_EDGE ( 'NONE', *, *, #29, .T. ) ;
#56 = ADVANCED_FACE ( 'NONE', ( #70 ), #294, .T. ) ;
#57 = LINE ( 'NONE', #6, #177 ) ;
#58 = EDGE_LOOP ( 'NONE', ( #240, #150, #173, #16 ) ) ;
#59 = VERTEX_POINT ( 'NONE', #185 ) ;
#60 = EDGE_CURVE ( 'NONE', #216, #73, #42, .T. ) ;
#61 = APPLICATION_PROTOCOL_DEFINITION ( 'draft international standard', 'automotive_design', 1998, #20 ) ;
#62 = VERTEX_POINT ( 'NONE', #292 ) ;
#63 = PRODUCT_RELATED_PRODUCT_CATEGORY ( 'part', '', ( #153 ) ) ;
#64 = ORIENTED_EDGE ( 'NONE', *, *, #87, .T. ) ;
#65 = SURFACE_STYLE_USAGE ( .BOTH. , #138 ) ;
#66 = CONICAL_SURFACE ( 'NONE', #233, 0.2999604999999996857, 0.7853981633974324028 ) ;
#67 = CONICAL_SURFACE ( 'NONE', #143, 0.2999604999999996857, 0.7853981633974324028 ) ;
#68 =( LENGTH_UNIT ( ) NAMED_UNIT ( * ) SI_UNIT ( $, .METRE. ) );
#69 = DIRECTION ( 'NONE',  ( -1.224646799147353207E-16, -0.0000000000000000000, -1.000000000000000000 ) ) ;
#70 = FACE_OUTER_BOUND ( 'NONE', #28, .T. ) ;
#71 = VECTOR ( 'NONE', #172, 39.37007874015748143 ) ;
#72 = DIRECTION ( 'NONE',  ( -1.224646799147353207E-16, -0.0000000000000000000, -1.000000000000000000 ) ) ;
#73 = VERTEX_POINT ( 'NONE', #269 ) ;
#74 = LINE ( 'NONE', #170, #152 ) ;
#75 = CYLINDRICAL_SURFACE ( 'NONE', #182, 0.3149604999999999766 ) ;
#76 = UNCERTAINTY_MEASURE_WITH_UNIT (LENGTH_MEASURE( 1.000000000000000082E-05 ), #22, 'distance_accuracy_value', 'NONE');
#77 = AXIS2_PLACEMENT_3D ( 'NONE', #184, #17, #115 ) ;
#78 = STYLED_ITEM ( 'NONE', ( #285 ), #201 ) ;
#79 = CARTESIAN_POINT ( 'NONE',  ( 0.3146455395000001820, 0.0000000000000000000, 1.259842999999999824 ) ) ;
#80 = EDGE_LOOP ( 'NONE', ( #254, #275, #12, #212 ) ) ;
#81 = CARTESIAN_POINT ( 'NONE',  ( 0.0000000000000000000, 0.0000000000000000000, 3.622047000000000239 ) ) ;
#82 = DIRECTION ( 'NONE',  ( 1.000000000000000000, 0.0000000000000000000, -0.0000000000000000000 ) ) ;
#83 = FACE_OUTER_BOUND ( 'NONE', #80, .T. ) ;
#84 = VERTEX_POINT ( 'NONE', #163 ) ;
#85 = CONICAL_SURFACE ( 'NONE', #247, 0.3146455395000000710, 0.1745329251994338915 ) ;
#86 = APPLICATION_PROTOCOL_DEFINITION ( 'draft international standard', 'automotive_design', 1998, #35 ) ;
#87 = EDGE_CURVE ( 'NONE', #84, #62, #249, .T. ) ;
#88 = FILL_AREA_STYLE_COLOUR ( '', #273 ) ;
#89 = DIRECTION ( 'NONE',  ( 1.000000000000000000, 0.0000000000000000000, 0.0000000000000000000 ) ) ;
#90 = AXIS2_PLACEMENT_3D ( 'NONE', #209, #72, #161 ) ;
#91 = VERTEX_POINT ( 'NONE', #136 ) ;
#92 = ADVANCED_FACE ( 'NONE', ( #250 ), #210, .T. ) ;
#93 = ORIENTED_EDGE ( 'NONE', *, *, #291, .T. ) ;
#94 = FILL_AREA_STYLE ('',( #274 ) ) ;
#95 = DIRECTION ( 'NONE',  ( -1.000000000000000000, 0.0000000000000000000, 1.224646799147353207E-16 ) ) ;
#96 = VECTOR ( 'NONE', #3, 39.37007874015748143 ) ;
#97 = CARTESIAN_POINT ( 'NONE',  ( -0.2999604999999996857, 0.0000000000000000000, 3.622047000000000239 ) ) ;
#98 = FACE_OUTER_BOUND ( 'NONE', #128, .T. ) ;
#99 = SURFACE_STYLE_FILL_AREA ( #94 ) ;
#100 = ORIENTED_EDGE ( 'NONE', *, *, #160, .T. ) ;
#101 = LINE ( 'NONE', #79, #293 ) ;
#102 = CARTESIAN_POINT ( 'NONE',  ( 0.0000000000000000000, 0.0000000000000000000, 3.622047000000000239 ) ) ;
#103 = ORIENTED_EDGE ( 'NONE', *, *, #60, .F. ) ;
#104 = ORIENTED_EDGE ( 'NONE', *, *, #214, .F. ) ;
#105 = DIRECTION ( 'NONE',  ( 1.000000000000000000, 0.0000000000000000000, 0.0000000000000000000 ) ) ;
#106 = DIRECTION ( 'NONE',  ( 1.224646799147353207E-16, 0.0000000000000000000, 1.000000000000000000 ) ) ;
#107 = CIRCLE ( 'NONE', #90, 0.3146455395000000710 ) ;
#108 = ORIENTED_EDGE ( 'NONE', *, *, #208, .F. ) ;
#109 = SURFACE_STYLE_USAGE ( .BOTH. , #225 ) ;
#110 = DIRECTION ( 'NONE',  ( -0.0000000000000000000, -0.0000000000000000000, -1.000000000000000000 ) ) ;
#111 = CARTESIAN_POINT ( 'NONE',  ( 0.0000000000000000000, 0.0000000000000000000, 3.622047000000000239 ) ) ;
#112 = DIRECTION ( 'NONE',  ( -1.224646799147353207E-16, -0.0000000000000000000, -1.000000000000000000 ) ) ;
#113 = CARTESIAN_POINT ( 'NONE',  ( 0.2999604999999996857, 3.765305171892445978E-17, 3.622047000000000239 ) ) ;
#114 = VECTOR ( 'NONE', #186, 39.37007874015748143 ) ;
#115 = DIRECTION ( 'NONE',  ( -1.000000000000000000, 0.0000000000000000000, 1.224646799147353207E-16 ) ) ;
#116 = ADVANCED_FACE ( 'NONE', ( #98 ), #66, .T. ) ;
#117 =( NAMED_UNIT ( * ) SI_UNIT ( $, .STERADIAN. ) SOLID_ANGLE_UNIT ( ) );
#118 = DIRECTION ( 'NONE',  ( 1.224646799147353207E-16, 0.0000000000000000000, 1.000000000000000000 ) ) ;
#119 = CIRCLE ( 'NONE', #5, 0.3146455395000000710 ) ;
#120 = DIRECTION ( 'NONE',  ( -0.1736481776669311916, 2.126576849575783316E-17, 0.9848077530122080203 ) ) ;
#121 = DIRECTION ( 'NONE',  ( -0.0000000000000000000, -0.0000000000000000000, -1.000000000000000000 ) ) ;
#122 = ORIENTED_EDGE ( 'NONE', *, *, #51, .F. ) ;
#123 = DIRECTION ( 'NONE',  ( -1.224646799147353207E-16, -0.0000000000000000000, -1.000000000000000000 ) ) ;
#124 = UNCERTAINTY_MEASURE_WITH_UNIT (LENGTH_MEASURE( 1.000000000000000082E-05 ), #264, 'distance_accuracy_value', 'NONE');
#125 = FACE_OUTER_BOUND ( 'NONE', #282, .T. ) ;
#126 = DIMENSIONAL_EXPONENTS ( 1.000000000000000000, 0.0000000000000000000, 0.0000000000000000000, 0.0000000000000000000, 0.0000000000000000000, 0.0000000000000000000, 0.0000000000000000000 ) ;
#127 = DIRECTION ( 'NONE',  ( 0.7071067811865362485, 8.659560562354796040E-17, -0.7071067811865587860 ) ) ;
#128 = EDGE_LOOP ( 'NONE', ( #104, #272, #103, #188 ) ) ;
#129 = SURFACE_STYLE_FILL_AREA ( #38 ) ;
#130 = ORIENTED_EDGE ( 'NONE', *, *, #252, .T. ) ;
#131 = AXIS2_PLACEMENT_3D ( 'NONE', #299, #256, #48 ) ;
#132 = DIRECTION ( 'NONE',  ( 0.0000000000000000000, 0.0000000000000000000, 1.000000000000000000 ) ) ;
#133 = AXIS2_PLACEMENT_3D ( 'NONE', #295, #134, #206 ) ;
#134 = DIRECTION ( 'NONE',  ( 0.0000000000000000000, 0.0000000000000000000, 1.000000000000000000 ) ) ;
#135 = PRODUCT_DEFINITION ( 'UNKNOWN', '', #37, #24 ) ;
#136 = CARTESIAN_POINT ( 'NONE',  ( -0.3149604999999998656, 0.0000000000000000000, 1.261629229757547321 ) ) ;
#137 = CARTESIAN_POINT ( 'NONE',  ( 4.718927259360429440E-33, 0.0000000000000000000, 3.853296528146670183E-17 ) ) ;
#138 = SURFACE_SIDE_STYLE ('',( #99 ) ) ;
#139 = CARTESIAN_POINT ( 'NONE',  ( -0.2999604999999996857, 0.0000000000000000000, 3.622047000000000239 ) ) ;
#140 =( CONVERSION_BASED_UNIT ( 'INCH', #50 ) LENGTH_UNIT ( ) NAMED_UNIT ( #190 ) );
#141 = AXIS2_PLACEMENT_3D ( 'NONE', #19, #112, #95 ) ;
#142 = MANIFOLD_SOLID_BREP ( 'Cut-Revolve1', #266 ) ;
#143 = AXIS2_PLACEMENT_3D ( 'NONE', #226, #204, #45 ) ;
#144 = CARTESIAN_POINT ( 'NONE',  ( -0.3146455394999999045, 3.855225104987584957E-17, 1.259842999999999824 ) ) ;
#145 =( NAMED_UNIT ( * ) SI_UNIT ( $, .STERADIAN. ) SOLID_ANGLE_UNIT ( ) );
#146 = ORIENTED_EDGE ( 'NONE', *, *, #243, .T. ) ;
#147 = CARTESIAN_POINT ( 'NONE',  ( 0.0000000000000000000, 0.0000000000000000000, 3.607046999999999226 ) ) ;
#148 = FACE_OUTER_BOUND ( 'NONE', #284, .T. ) ;
#149 = PRODUCT_CONTEXT ( 'NONE', #35, 'mechanical' ) ;
#150 = ORIENTED_EDGE ( 'NONE', *, *, #175, .T. ) ;
#151 = EDGE_CURVE ( 'NONE', #59, #84, #211, .T. ) ;
#152 = VECTOR ( 'NONE', #121, 39.37007874015748143 ) ;
#153 = PRODUCT ( 'Micro_GEMM-160-4', 'Micro_GEMM-160-4', '', ( #149 ) ) ;
#154 =( NAMED_UNIT ( * ) PLANE_ANGLE_UNIT ( ) SI_UNIT ( $, .RADIAN. ) );
#155 = ORIENTED_EDGE ( 'NONE', *, *, #214, .T. ) ;
#156 = CARTESIAN_POINT ( 'NONE',  ( 0.0000000000000000000, 0.0000000000000000000, 0.0000000000000000000 ) ) ;
#157 = ADVANCED_FACE ( 'NONE', ( #290 ), #229, .T. ) ;
#158 = LENGTH_MEASURE_WITH_UNIT ( LENGTH_MEASURE( 0.02539999999999999897 ), #68 );
#159 = DIRECTION ( 'NONE',  ( -1.000000000000000000, 0.0000000000000000000, 0.0000000000000000000 ) ) ;
#160 = EDGE_CURVE ( 'NONE', #47, #216, #26, .T. ) ;
#161 = DIRECTION ( 'NONE',  ( -1.000000000000000000, 0.0000000000000000000, 0.0000000000000000000 ) ) ;
#162 = MECHANICAL_DESIGN_GEOMETRIC_PRESENTATION_REPRESENTATION (  '', ( #36 ), #263 ) ;
#163 = CARTESIAN_POINT ( 'NONE',  ( 0.3146455394999999600, 3.853296528146670183E-17, 0.0000000000000000000 ) ) ;
#164 = ORIENTED_EDGE ( 'NONE', *, *, #151, .F. ) ;
#165 = DIRECTION ( 'NONE',  ( -0.0000000000000000000, -0.0000000000000000000, -1.000000000000000000 ) ) ;
#166 = PRODUCT_DEFINITION_SHAPE ( 'NONE', 'NONE',  #135 ) ;
#167 = DIRECTION ( 'NONE',  ( -1.000000000000000000, 0.0000000000000000000, 0.0000000000000000000 ) ) ;
#168 = EDGE_CURVE ( 'NONE', #195, #91, #30, .T. ) ;
#169 = AXIS2_PLACEMENT_3D ( 'NONE', #8, #259, #82 ) ;
#170 = CARTESIAN_POINT ( 'NONE',  ( 0.3149604999999999766, 3.857153681828499730E-17, 3.622047000000000239 ) ) ;
#171 = ORIENTED_EDGE ( 'NONE', *, *, #227, .T. ) ;
#172 = DIRECTION ( 'NONE',  ( -0.7071067811865362485, 0.0000000000000000000, -0.7071067811865587860 ) ) ;
#173 = ORIENTED_EDGE ( 'NONE', *, *, #257, .F. ) ;
#174 = ADVANCED_FACE ( 'NONE', ( #238 ), #75, .T. ) ;
#175 = EDGE_CURVE ( 'NONE', #73, #195, #74, .T. ) ;
#176 = ORIENTED_EDGE ( 'NONE', *, *, #194, .T. ) ;
#177 = VECTOR ( 'NONE', #120, 39.37007874015747433 ) ;
#178 =( LENGTH_UNIT ( ) NAMED_UNIT ( * ) SI_UNIT ( $, .METRE. ) );
#179 = ORIENTED_EDGE ( 'NONE', *, *, #175, .F. ) ;
#180 = VERTEX_POINT ( 'NONE', #144 ) ;
#181 = PRESENTATION_STYLE_ASSIGNMENT (( #65 ) ) ;
#182 = AXIS2_PLACEMENT_3D ( 'NONE', #102, #165, #167 ) ;
#183 = CARTESIAN_POINT ( 'NONE',  ( 0.0000000000000000000, 0.0000000000000000000, 3.607046999999999226 ) ) ;
#184 = CARTESIAN_POINT ( 'NONE',  ( 0.0000000000000000000, 0.0000000000000000000, 0.0000000000000000000 ) ) ;
#185 = CARTESIAN_POINT ( 'NONE',  ( 0.3146455395000001820, 0.0000000000000000000, 1.259842999999999824 ) ) ;
#186 = DIRECTION ( 'NONE',  ( -1.224646799147353207E-16, -0.0000000000000000000, -1.000000000000000000 ) ) ;
#187 = PRESENTATION_LAYER_ASSIGNMENT (  '', '', ( #78 ) ) ;
#188 = ORIENTED_EDGE ( 'NONE', *, *, #160, .F. ) ;
#189 =( LENGTH_UNIT ( ) NAMED_UNIT ( * ) SI_UNIT ( $, .METRE. ) );
#190 = DIMENSIONAL_EXPONENTS ( 1.000000000000000000, 0.0000000000000000000, 0.0000000000000000000, 0.0000000000000000000, 0.0000000000000000000, 0.0000000000000000000, 0.0000000000000000000 ) ;
#191 = LINE ( 'NONE', #279, #53 ) ;
#192 = CIRCLE ( 'NONE', #133, 0.2999604999999996857 ) ;
#193 = PLANE ( 'NONE',  #169 ) ;
#194 = EDGE_CURVE ( 'NONE', #73, #216, #199, .T. ) ;
#195 = VERTEX_POINT ( 'NONE', #31 ) ;
#196 = DIRECTION ( 'NONE',  ( -1.224646799147353207E-16, -0.0000000000000000000, -1.000000000000000000 ) ) ;
#197 = FACE_OUTER_BOUND ( 'NONE', #280, .T. ) ;
#198 = SHAPE_DEFINITION_REPRESENTATION ( #166, #201 ) ;
#199 = CIRCLE ( 'NONE', #14, 0.3149604999999999766 ) ;
#200 = AXIS2_PLACEMENT_3D ( 'NONE', #232, #196, #9 ) ;
#201 = ADVANCED_BREP_SHAPE_REPRESENTATION ( 'Micro_GEMM-160-4', ( #142, #244 ), #239 ) ;
#202 = ORIENTED_EDGE ( 'NONE', *, *, #296, .F. ) ;
#203 = AXIS2_PLACEMENT_3D ( 'NONE', #267, #106, #39 ) ;
#204 = DIRECTION ( 'NONE',  ( 0.0000000000000000000, 0.0000000000000000000, -1.000000000000000000 ) ) ;
#205 = DIRECTION ( 'NONE',  ( -1.000000000000000000, 0.0000000000000000000, 0.0000000000000000000 ) ) ;
#206 = DIRECTION ( 'NONE',  ( 1.000000000000000000, 0.0000000000000000000, 0.0000000000000000000 ) ) ;
#207 = VECTOR ( 'NONE', #110, 39.37007874015748143 ) ;
#208 = EDGE_CURVE ( 'NONE', #49, #73, #191, .T. ) ;
#209 = CARTESIAN_POINT ( 'NONE',  ( 1.542862697378198788E-16, 0.0000000000000000000, 1.259842999999999824 ) ) ;
#210 = CYLINDRICAL_SURFACE ( 'NONE', #268, 0.3149604999999999766 ) ;
#211 = LINE ( 'NONE', #297, #114 ) ;
#212 = ORIENTED_EDGE ( 'NONE', *, *, #291, .F. ) ;
#213 = CARTESIAN_POINT ( 'NONE',  ( 1.542862697378198788E-16, 0.0000000000000000000, 1.259842999999999824 ) ) ;
#214 = EDGE_CURVE ( 'NONE', #49, #47, #224, .T. ) ;
#215 = DIRECTION ( 'NONE',  ( -1.224646799147353207E-16, -0.0000000000000000000, -1.000000000000000000 ) ) ;
#216 = VERTEX_POINT ( 'NONE', #258 ) ;
#217 = ADVANCED_FACE ( 'NONE', ( #83 ), #85, .T. ) ;
#218 = COLOUR_RGB ( '',0.7921568627450980005, 0.8196078431372548767, 0.9333333333333333481 ) ;
#219 = DIRECTION ( 'NONE',  ( 1.000000000000000000, 0.0000000000000000000, -0.0000000000000000000 ) ) ;
#220 = DIRECTION ( 'NONE',  ( 0.0000000000000000000, 0.0000000000000000000, 1.000000000000000000 ) ) ;
#221 = ORIENTED_EDGE ( 'NONE', *, *, #227, .F. ) ;
#222 = ORIENTED_EDGE ( 'NONE', *, *, #151, .T. ) ;
#223 = CIRCLE ( 'NONE', #286, 0.3146455394999999600 ) ;
#224 = CIRCLE ( 'NONE', #278, 0.2999604999999996857 ) ;
#225 = SURFACE_SIDE_STYLE ('',( #129 ) ) ;
#226 = CARTESIAN_POINT ( 'NONE',  ( 0.0000000000000000000, 0.0000000000000000000, 3.622047000000000239 ) ) ;
#227 = EDGE_CURVE ( 'NONE', #59, #180, #119, .T. ) ;
#228 = DIRECTION ( 'NONE',  ( 0.0000000000000000000, 0.0000000000000000000, -1.000000000000000000 ) ) ;
#229 = CYLINDRICAL_SURFACE ( 'NONE', #141, 0.3146455394999999600 ) ;
#230 =( NAMED_UNIT ( * ) PLANE_ANGLE_UNIT ( ) SI_UNIT ( $, .RADIAN. ) );
#231 = ORIENTED_EDGE ( 'NONE', *, *, #243, .F. ) ;
#232 = CARTESIAN_POINT ( 'NONE',  ( 1.545050197933320797E-16, 0.0000000000000000000, 1.261629229757547321 ) ) ;
#233 = AXIS2_PLACEMENT_3D ( 'NONE', #111, #228, #159 ) ;
#234 = DIRECTION ( 'NONE',  ( 0.0000000000000000000, 0.0000000000000000000, -1.000000000000000000 ) ) ;
#235 = CONICAL_SURFACE ( 'NONE', #203, 0.3146455395000000710, 0.1745329251994338915 ) ;
#236 = DIRECTION ( 'NONE',  ( 1.000000000000000000, 0.0000000000000000000, 0.0000000000000000000 ) ) ;
#237 = ORIENTED_EDGE ( 'NONE', *, *, #194, .F. ) ;
#238 = FACE_OUTER_BOUND ( 'NONE', #58, .T. ) ;
#239 =( GEOMETRIC_REPRESENTATION_CONTEXT ( 3 ) GLOBAL_UNCERTAINTY_ASSIGNED_CONTEXT ( ( #271 ) ) GLOBAL_UNIT_ASSIGNED_CONTEXT ( ( #140, #1, #145 ) ) REPRESENTATION_CONTEXT ( 'NONE', 'WORKASPACE' ) );
#240 = ORIENTED_EDGE ( 'NONE', *, *, #60, .T. ) ;
#241 = AXIS2_PLACEMENT_3D ( 'NONE', #156, #132, #219 ) ;
#242 = LINE ( 'NONE', #33, #207 ) ;
#243 = EDGE_CURVE ( 'NONE', #62, #84, #223, .T. ) ;
#244 = AXIS2_PLACEMENT_3D ( 'NONE', #262, #13, #89 ) ;
#245 = EDGE_LOOP ( 'NONE', ( #4, #155 ) ) ;
#246 = ORIENTED_EDGE ( 'NONE', *, *, #168, .F. ) ;
#247 = AXIS2_PLACEMENT_3D ( 'NONE', #253, #118, #105 ) ;
#248 = DIRECTION ( 'NONE',  ( 1.000000000000000000, 0.0000000000000000000, 0.0000000000000000000 ) ) ;
#249 = CIRCLE ( 'NONE', #298, 0.3146455394999999600 ) ;
#250 = FACE_OUTER_BOUND ( 'NONE', #10, .T. ) ;
#251 = ORIENTED_EDGE ( 'NONE', *, *, #252, .F. ) ;
#252 = EDGE_CURVE ( 'NONE', #180, #62, #276, .T. ) ;
#253 = CARTESIAN_POINT ( 'NONE',  ( 1.542862697378198788E-16, 0.0000000000000000000, 1.259842999999999824 ) ) ;
#254 = ORIENTED_EDGE ( 'NONE', *, *, #44, .F. ) ;
#255 = CIRCLE ( 'NONE', #131, 0.3149604999999999766 ) ;
#256 = DIRECTION ( 'NONE',  ( -1.224646799147353207E-16, -0.0000000000000000000, -1.000000000000000000 ) ) ;
#257 = EDGE_CURVE ( 'NONE', #91, #195, #255, .T. ) ;
#258 = CARTESIAN_POINT ( 'NONE',  ( -0.3149604999999999766, 0.0000000000000000000, 3.607046999999999226 ) ) ;
#259 = DIRECTION ( 'NONE',  ( 0.0000000000000000000, 0.0000000000000000000, 1.000000000000000000 ) ) ;
#260 = ORIENTED_EDGE ( 'NONE', *, *, #44, .T. ) ;
#261 = FACE_OUTER_BOUND ( 'NONE', #245, .T. ) ;
#262 = CARTESIAN_POINT ( 'NONE',  ( 0.0000000000000000000, 0.0000000000000000000, 0.0000000000000000000 ) ) ;
#263 =( GEOMETRIC_REPRESENTATION_CONTEXT ( 3 ) GLOBAL_UNCERTAINTY_ASSIGNED_CONTEXT ( ( #76 ) ) GLOBAL_UNIT_ASSIGNED_CONTEXT ( ( #22, #230, #117 ) ) REPRESENTATION_CONTEXT ( 'NONE', 'WORKASPACE' ) );
#264 =( CONVERSION_BASED_UNIT ( 'INCH', #11 ) LENGTH_UNIT ( ) NAMED_UNIT ( #126 ) );
#265 = ORIENTED_EDGE ( 'NONE', *, *, #168, .T. ) ;
#266 = CLOSED_SHELL ( 'NONE', ( #56, #217, #116, #174, #92, #25, #41, #2, #157, #18 ) ) ;
#267 = CARTESIAN_POINT ( 'NONE',  ( 1.542862697378198788E-16, 0.0000000000000000000, 1.259842999999999824 ) ) ;
#268 = AXIS2_PLACEMENT_3D ( 'NONE', #46, #40, #205 ) ;
#269 = CARTESIAN_POINT ( 'NONE',  ( 0.3149604999999999766, 3.857153681828499730E-17, 3.607046999999999226 ) ) ;
#270 = DIRECTION ( 'NONE',  ( 0.0000000000000000000, 0.0000000000000000000, -1.000000000000000000 ) ) ;
#271 = UNCERTAINTY_MEASURE_WITH_UNIT (LENGTH_MEASURE( 1.000000000000000082E-05 ), #140, 'distance_accuracy_value', 'NONE');
#272 = ORIENTED_EDGE ( 'NONE', *, *, #208, .T. ) ;
#273 = COLOUR_RGB ( '',0.7921568627450980005, 0.8196078431372548767, 0.9333333333333333481 ) ;
#274 = FILL_AREA_STYLE_COLOUR ( '', #218 ) ;
#275 = ORIENTED_EDGE ( 'NONE', *, *, #296, .T. ) ;
#276 = LINE ( 'NONE', #283, #96 ) ;
#277 = DIRECTION ( 'NONE',  ( -1.000000000000000000, 0.0000000000000000000, 1.224646799147353207E-16 ) ) ;
#278 = AXIS2_PLACEMENT_3D ( 'NONE', #81, #220, #23 ) ;
#279 = CARTESIAN_POINT ( 'NONE',  ( 0.2999604999999996857, 3.673456661956392842E-17, 3.622047000000000239 ) ) ;
#280 = EDGE_LOOP ( 'NONE', ( #108, #122, #100, #237 ) ) ;
#281 = CARTESIAN_POINT ( 'NONE',  ( 4.718927259360429440E-33, 0.0000000000000000000, 3.853296528146670183E-17 ) ) ;
#282 = EDGE_LOOP ( 'NONE', ( #146, #64 ) ) ;
#283 = CARTESIAN_POINT ( 'NONE',  ( -0.3146455394999999600, 0.0000000000000000000, 3.853296528146670183E-17 ) ) ;
#284 = EDGE_LOOP ( 'NONE', ( #202, #221, #93, #265 ) ) ;
#285 = PRESENTATION_STYLE_ASSIGNMENT (( #109 ) ) ;
#286 = AXIS2_PLACEMENT_3D ( 'NONE', #281, #123, #277 ) ;
#287 = EDGE_LOOP ( 'NONE', ( #164, #171, #130, #34 ) ) ;
#288 = AXIS2_PLACEMENT_3D ( 'NONE', #183, #270, #248 ) ;
#289 = PLANE ( 'NONE',  #241 ) ;
#290 = FACE_OUTER_BOUND ( 'NONE', #287, .T. ) ;
#291 = EDGE_CURVE ( 'NONE', #59, #195, #101, .T. ) ;
#292 = CARTESIAN_POINT ( 'NONE',  ( -0.3146455394999999600, 0.0000000000000000000, 7.706593056293340367E-17 ) ) ;
#293 = VECTOR ( 'NONE', #54, 39.37007874015748143 ) ;
#294 = CYLINDRICAL_SURFACE ( 'NONE', #77, 0.3146455394999999600 ) ;
#295 = CARTESIAN_POINT ( 'NONE',  ( 0.0000000000000000000, 0.0000000000000000000, 3.622047000000000239 ) ) ;
#296 = EDGE_CURVE ( 'NONE', #180, #91, #57, .T. ) ;
#297 = CARTESIAN_POINT ( 'NONE',  ( 0.3146455394999999600, 3.853296528146670183E-17, -3.853296528146670183E-17 ) ) ;
#298 = AXIS2_PLACEMENT_3D ( 'NONE', #137, #69, #43 ) ;
#299 = CARTESIAN_POINT ( 'NONE',  ( 1.545050197933320797E-16, 0.0000000000000000000, 1.261629229757547321 ) ) ;
ENDSEC;
END-ISO-10303-21;
