ISO-10303-21;
HEADER;
FILE_DESCRIPTION (( 'STEP AP214' ),
    '1' );
FILE_NAME ('05132.STEP',
    '2023-06-22T15:53:10',
    ( '' ),
    ( '' ),
    'SwSTEP 2.0',
    'SolidWorks 2023',
    '' );
FILE_SCHEMA (( 'AUTOMOTIVE_DESIGN' ));
ENDSEC;

DATA;
#1 = ADVANCED_FACE ( 'NONE', ( #248 ), #97, .F. ) ;
#2 = SURFACE_STYLE_FILL_AREA ( #49 ) ;
#3 = AXIS2_PLACEMENT_3D ( 'NONE', #210, #309, #87 ) ;
#4 = VECTOR ( 'NONE', #156, 39.37007874015748143 ) ;
#5 = CARTESIAN_POINT ( 'NONE',  ( 1.530808498934191201E-17, 0.5000000000000000000, 0.1249999999999999861 ) ) ;
#6 = ADVANCED_FACE ( 'NONE', ( #301 ), #61, .T. ) ;
#7 = CLOSED_SHELL ( 'NONE', ( #6, #283, #74, #209 ) ) ;
#8 =( GEOMETRIC_REPRESENTATION_CONTEXT ( 3 ) GLOBAL_UNCERTAINTY_ASSIGNED_CONTEXT ( ( #106 ) ) GLOBAL_UNIT_ASSIGNED_CONTEXT ( ( #243, #124, #86 ) ) REPRESENTATION_CONTEXT ( 'NONE', 'WORKASPACE' ) );
#9 = DIRECTION ( 'NONE',  ( -3.061616997868383018E-17, 1.000000000000000000, -0.000000000000000000 ) ) ;
#10 = SURFACE_STYLE_USAGE ( .BOTH. , #45 ) ;
#11 = ORIENTED_EDGE ( 'NONE', *, *, #238, .T. ) ;
#12 = STYLED_ITEM ( 'NONE', ( #166 ), #191 ) ;
#13 = PRODUCT_DEFINITION_FORMATION_WITH_SPECIFIED_SOURCE ( 'ANY', '', #93, .NOT_KNOWN. ) ;
#14 = FACE_OUTER_BOUND ( 'NONE', #18, .T. ) ;
#15 = ORIENTED_EDGE ( 'NONE', *, *, #52, .T. ) ;
#16 = EDGE_LOOP ( 'NONE', ( #269, #229, #205, #78 ) ) ;
#17 = DIRECTION ( 'NONE',  ( 1.000000000000000000, 3.061616997868383018E-17, 0.000000000000000000 ) ) ;
#18 = EDGE_LOOP ( 'NONE', ( #275, #154 ) ) ;
#19 = AXIS2_PLACEMENT_3D ( 'NONE', #84, #23, #48 ) ;
#20 = EDGE_LOOP ( 'NONE', ( #127, #15 ) ) ;
#21 = UNCERTAINTY_MEASURE_WITH_UNIT (LENGTH_MEASURE( 1.000000000000000082E-05 ), #94, 'distance_accuracy_value', 'NONE');
#22 = SHAPE_DEFINITION_REPRESENTATION ( #149, #247 ) ;
#23 = DIRECTION ( 'NONE',  ( -0.000000000000000000, -1.000000000000000000, -0.000000000000000000 ) ) ;
#24 = EDGE_CURVE ( 'NONE', #176, #224, #161, .T. ) ;
#25 = CARTESIAN_POINT ( 'NONE',  ( 0.000000000000000000, 0.000000000000000000, -0.1250000000000000000 ) ) ;
#26 = MECHANICAL_DESIGN_GEOMETRIC_PRESENTATION_REPRESENTATION (  '', ( #223 ), #138 ) ;
#27 = LENGTH_MEASURE_WITH_UNIT ( LENGTH_MEASURE( 0.02539999999999999897 ), #279 );
#28 = CARTESIAN_POINT ( 'NONE',  ( 0.000000000000000000, 0.5000000000000000000, 0.000000000000000000 ) ) ;
#29 = APPLICATION_CONTEXT ( 'automotive_design' ) ;
#30 = PRESENTATION_STYLE_ASSIGNMENT (( #118 ) ) ;
#31 =( GEOMETRIC_REPRESENTATION_CONTEXT ( 3 ) GLOBAL_UNCERTAINTY_ASSIGNED_CONTEXT ( ( #242 ) ) GLOBAL_UNIT_ASSIGNED_CONTEXT ( ( #262, #116, #68 ) ) REPRESENTATION_CONTEXT ( 'NONE', 'WORKASPACE' ) );
#32 = SURFACE_STYLE_USAGE ( .BOTH. , #71 ) ;
#33 = FILL_AREA_STYLE ('',( #36 ) ) ;
#34 = DIRECTION ( 'NONE',  ( -1.000000000000000000, 0.000000000000000000, 0.000000000000000000 ) ) ;
#35 = STYLED_ITEM ( 'NONE', ( #30 ), #209 ) ;
#36 = FILL_AREA_STYLE_COLOUR ( '', #234 ) ;
#37 =( LENGTH_UNIT ( ) NAMED_UNIT ( * ) SI_UNIT ( $, .METRE. ) );
#38 = EDGE_LOOP ( 'NONE', ( #11, #147, #123, #73 ) ) ;
#39 = ORIENTED_EDGE ( 'NONE', *, *, #238, .F. ) ;
#40 = CIRCLE ( 'NONE', #217, 0.1249999999999999861 ) ;
#41 = ORIENTED_EDGE ( 'NONE', *, *, #212, .T. ) ;
#42 = DIRECTION ( 'NONE',  ( -3.061616997868383018E-17, 1.000000000000000000, -0.000000000000000000 ) ) ;
#43 = ORIENTED_EDGE ( 'NONE', *, *, #268, .F. ) ;
#44 = ADVANCED_FACE ( 'NONE', ( #185 ), #112, .T. ) ;
#45 = SURFACE_SIDE_STYLE ('',( #59 ) ) ;
#46 =( NAMED_UNIT ( * ) PLANE_ANGLE_UNIT ( ) SI_UNIT ( $, .RADIAN. ) );
#47 =( LENGTH_UNIT ( ) NAMED_UNIT ( * ) SI_UNIT ( $, .METRE. ) );
#48 = DIRECTION ( 'NONE',  ( 0.000000000000000000, 0.000000000000000000, -1.000000000000000000 ) ) ;
#49 = FILL_AREA_STYLE ('',( #257 ) ) ;
#50 = PLANE ( 'NONE',  #201 ) ;
#51 = MECHANICAL_DESIGN_GEOMETRIC_PRESENTATION_REPRESENTATION (  '', ( #12 ), #31 ) ;
#52 = EDGE_CURVE ( 'NONE', #265, #102, #199, .T. ) ;
#53 = FILL_AREA_STYLE ('',( #70 ) ) ;
#54 = AXIS2_PLACEMENT_3D ( 'NONE', #184, #304, #136 ) ;
#55 =( GEOMETRIC_REPRESENTATION_CONTEXT ( 3 ) GLOBAL_UNCERTAINTY_ASSIGNED_CONTEXT ( ( #75 ) ) GLOBAL_UNIT_ASSIGNED_CONTEXT ( ( #83, #186, #109 ) ) REPRESENTATION_CONTEXT ( 'NONE', 'WORKASPACE' ) );
#56 = DIMENSIONAL_EXPONENTS ( 1.000000000000000000, 0.000000000000000000, 0.000000000000000000, 0.000000000000000000, 0.000000000000000000, 0.000000000000000000, 0.000000000000000000 ) ;
#57 = ORIENTED_EDGE ( 'NONE', *, *, #24, .T. ) ;
#58 = DIRECTION ( 'NONE',  ( -3.061616997868383018E-17, 1.000000000000000000, 0.000000000000000000 ) ) ;
#59 = SURFACE_STYLE_FILL_AREA ( #295 ) ;
#60 =( NAMED_UNIT ( * ) SI_UNIT ( $, .STERADIAN. ) SOLID_ANGLE_UNIT ( ) );
#61 = CYLINDRICAL_SURFACE ( 'NONE', #19, 0.1250000000000000000 ) ;
#62 = PRODUCT_DEFINITION_CONTEXT ( 'detailed design', #92, 'design' ) ;
#63 = DIRECTION ( 'NONE',  ( 1.000000000000000000, 0.000000000000000000, 0.000000000000000000 ) ) ;
#64 =( NAMED_UNIT ( * ) SI_UNIT ( $, .STERADIAN. ) SOLID_ANGLE_UNIT ( ) );
#65 = MECHANICAL_DESIGN_GEOMETRIC_PRESENTATION_REPRESENTATION (  '', ( #35 ), #98 ) ;
#66 = UNCERTAINTY_MEASURE_WITH_UNIT (LENGTH_MEASURE( 1.000000000000000082E-05 ), #114, 'distance_accuracy_value', 'NONE');
#67 = DIRECTION ( 'NONE',  ( -3.061616997868383018E-17, 1.000000000000000000, -0.000000000000000000 ) ) ;
#68 =( NAMED_UNIT ( * ) SI_UNIT ( $, .STERADIAN. ) SOLID_ANGLE_UNIT ( ) );
#69 = AXIS2_PLACEMENT_3D ( 'NONE', #179, #9, #203 ) ;
#70 = FILL_AREA_STYLE_COLOUR ( '', #221 ) ;
#71 = SURFACE_SIDE_STYLE ('',( #260 ) ) ;
#72 = PRESENTATION_STYLE_ASSIGNMENT (( #10 ) ) ;
#73 = ORIENTED_EDGE ( 'NONE', *, *, #24, .F. ) ;
#74 = ADVANCED_FACE ( 'NONE', ( #181 ), #165, .T. ) ;
#75 = UNCERTAINTY_MEASURE_WITH_UNIT (LENGTH_MEASURE( 1.000000000000000082E-05 ), #83, 'distance_accuracy_value', 'NONE');
#76 = LENGTH_MEASURE_WITH_UNIT ( LENGTH_MEASURE( 0.02539999999999999897 ), #37 );
#77 = CARTESIAN_POINT ( 'NONE',  ( 0.000000000000000000, 0.5000000000000000000, 0.000000000000000000 ) ) ;
#78 = ORIENTED_EDGE ( 'NONE', *, *, #52, .F. ) ;
#79 = DIRECTION ( 'NONE',  ( -1.000000000000000000, 0.000000000000000000, 0.000000000000000000 ) ) ;
#80 =( LENGTH_UNIT ( ) NAMED_UNIT ( * ) SI_UNIT ( $, .METRE. ) );
#81 = EDGE_LOOP ( 'NONE', ( #202, #41, #57, #43 ) ) ;
#82 = AXIS2_PLACEMENT_3D ( 'NONE', #308, #85, #63 ) ;
#83 =( CONVERSION_BASED_UNIT ( 'INCH', #107 ) LENGTH_UNIT ( ) NAMED_UNIT ( #128 ) );
#84 = CARTESIAN_POINT ( 'NONE',  ( 0.000000000000000000, 0.000000000000000000, 0.000000000000000000 ) ) ;
#85 = DIRECTION ( 'NONE',  ( 0.000000000000000000, 0.000000000000000000, 1.000000000000000000 ) ) ;
#86 =( NAMED_UNIT ( * ) SI_UNIT ( $, .STERADIAN. ) SOLID_ANGLE_UNIT ( ) );
#87 = DIRECTION ( 'NONE',  ( 0.000000000000000000, 0.000000000000000000, -1.000000000000000000 ) ) ;
#88 = CIRCLE ( 'NONE', #3, 0.1250000000000000000 ) ;
#89 = CARTESIAN_POINT ( 'NONE',  ( 0.000000000000000000, 0.5000000000000001110, 0.000000000000000000 ) ) ;
#90 = DIRECTION ( 'NONE',  ( -1.000000000000000000, 0.000000000000000000, 0.000000000000000000 ) ) ;
#91 = AXIS2_PLACEMENT_3D ( 'NONE', #77, #222, #249 ) ;
#92 = APPLICATION_CONTEXT ( 'automotive_design' ) ;
#93 = PRODUCT ( '05132', '05132', '', ( #163 ) ) ;
#94 =( CONVERSION_BASED_UNIT ( 'INCH', #76 ) LENGTH_UNIT ( ) NAMED_UNIT ( #300 ) );
#95 = UNCERTAINTY_MEASURE_WITH_UNIT (LENGTH_MEASURE( 1.000000000000000082E-05 ), #187, 'distance_accuracy_value', 'NONE');
#96 = PLANE ( 'NONE',  #146 ) ;
#97 = PLANE ( 'NONE',  #183 ) ;
#98 =( GEOMETRIC_REPRESENTATION_CONTEXT ( 3 ) GLOBAL_UNCERTAINTY_ASSIGNED_CONTEXT ( ( #155 ) ) GLOBAL_UNIT_ASSIGNED_CONTEXT ( ( #192, #190, #285 ) ) REPRESENTATION_CONTEXT ( 'NONE', 'WORKASPACE' ) );
#99 = SURFACE_STYLE_USAGE ( .BOTH. , #299 ) ;
#100 = SURFACE_STYLE_USAGE ( .BOTH. , #125 ) ;
#101 = LENGTH_MEASURE_WITH_UNIT ( LENGTH_MEASURE( 0.02539999999999999897 ), #148 );
#102 = VERTEX_POINT ( 'NONE', #25 ) ;
#103 = FILL_AREA_STYLE ('',( #250 ) ) ;
#104 = COLOUR_RGB ( '',1.000000000000000000, 0.000000000000000000, 0.000000000000000000 ) ;
#105 = PRESENTATION_LAYER_ASSIGNMENT (  '', '', ( #111 ) ) ;
#106 = UNCERTAINTY_MEASURE_WITH_UNIT (LENGTH_MEASURE( 1.000000000000000082E-05 ), #243, 'distance_accuracy_value', 'NONE');
#107 = LENGTH_MEASURE_WITH_UNIT ( LENGTH_MEASURE( 0.02539999999999999897 ), #47 );
#108 = VERTEX_POINT ( 'NONE', #110 ) ;
#109 =( NAMED_UNIT ( * ) SI_UNIT ( $, .STERADIAN. ) SOLID_ANGLE_UNIT ( ) );
#110 = CARTESIAN_POINT ( 'NONE',  ( 0.000000000000000000, 0.5000000000000000000, -0.1249999999999999861 ) ) ;
#111 = STYLED_ITEM ( 'NONE', ( #126 ), #294 ) ;
#112 = CYLINDRICAL_SURFACE ( 'NONE', #164, 0.1250000000000000278 ) ;
#113 = DIRECTION ( 'NONE',  ( -0.000000000000000000, -1.000000000000000000, -0.000000000000000000 ) ) ;
#114 =( CONVERSION_BASED_UNIT ( 'INCH', #246 ) LENGTH_UNIT ( ) NAMED_UNIT ( #171 ) );
#115 = AXIS2_PLACEMENT_3D ( 'NONE', #189, #259, #34 ) ;
#116 =( NAMED_UNIT ( * ) PLANE_ANGLE_UNIT ( ) SI_UNIT ( $, .RADIAN. ) );
#117 = DIRECTION ( 'NONE',  ( -3.061616997868383018E-17, 1.000000000000000000, -0.000000000000000000 ) ) ;
#118 = SURFACE_STYLE_USAGE ( .BOTH. , #235 ) ;
#119 = AXIS2_PLACEMENT_3D ( 'NONE', #233, #135, #232 ) ;
#120 = AXIS2_PLACEMENT_3D ( 'NONE', #292, #266, #219 ) ;
#121 = SURFACE_STYLE_FILL_AREA ( #33 ) ;
#122 = PLANE ( 'NONE',  #120 ) ;
#123 = ORIENTED_EDGE ( 'NONE', *, *, #218, .F. ) ;
#124 =( NAMED_UNIT ( * ) PLANE_ANGLE_UNIT ( ) SI_UNIT ( $, .RADIAN. ) );
#125 = SURFACE_SIDE_STYLE ('',( #244 ) ) ;
#126 = PRESENTATION_STYLE_ASSIGNMENT (( #99 ) ) ;
#127 = ORIENTED_EDGE ( 'NONE', *, *, #143, .T. ) ;
#128 = DIMENSIONAL_EXPONENTS ( 1.000000000000000000, 0.000000000000000000, 0.000000000000000000, 0.000000000000000000, 0.000000000000000000, 0.000000000000000000, 0.000000000000000000 ) ;
#129 = FACE_OUTER_BOUND ( 'NONE', #296, .T. ) ;
#130 = EDGE_CURVE ( 'NONE', #220, #108, #228, .T. ) ;
#131 = EDGE_LOOP ( 'NONE', ( #39, #180 ) ) ;
#132 = ORIENTED_EDGE ( 'NONE', *, *, #143, .F. ) ;
#133 = COLOUR_RGB ( '',1.000000000000000000, 0.000000000000000000, 0.000000000000000000 ) ;
#134 = DIRECTION ( 'NONE',  ( -3.061616997868383018E-17, 1.000000000000000000, -0.000000000000000000 ) ) ;
#135 = DIRECTION ( 'NONE',  ( -0.000000000000000000, -1.000000000000000000, -0.000000000000000000 ) ) ;
#136 = DIRECTION ( 'NONE',  ( 0.000000000000000000, 0.000000000000000000, -1.000000000000000000 ) ) ;
#137 = VECTOR ( 'NONE', #134, 39.37007874015748143 ) ;
#138 =( GEOMETRIC_REPRESENTATION_CONTEXT ( 3 ) GLOBAL_UNCERTAINTY_ASSIGNED_CONTEXT ( ( #21 ) ) GLOBAL_UNIT_ASSIGNED_CONTEXT ( ( #94, #198, #60 ) ) REPRESENTATION_CONTEXT ( 'NONE', 'WORKASPACE' ) );
#139 = PRESENTATION_STYLE_ASSIGNMENT (( #252 ) ) ;
#140 = PRODUCT_DEFINITION ( 'UNKNOWN', '', #13, #62 ) ;
#141 = FACE_OUTER_BOUND ( 'NONE', #81, .T. ) ;
#142 = CARTESIAN_POINT ( 'NONE',  ( 0.000000000000000000, 0.000000000000000000, 0.000000000000000000 ) ) ;
#143 = EDGE_CURVE ( 'NONE', #102, #265, #88, .T. ) ;
#144 = CARTESIAN_POINT ( 'NONE',  ( -6.123233995736766036E-17, 2.500000000000000000, 0.000000000000000000 ) ) ;
#145 = CYLINDRICAL_SURFACE ( 'NONE', #115, 0.1250000000000000278 ) ;
#146 = AXIS2_PLACEMENT_3D ( 'NONE', #152, #200, #17 ) ;
#147 = ORIENTED_EDGE ( 'NONE', *, *, #162, .T. ) ;
#148 =( LENGTH_UNIT ( ) NAMED_UNIT ( * ) SI_UNIT ( $, .METRE. ) );
#149 = PRODUCT_DEFINITION_SHAPE ( 'NONE', 'NONE',  #140 ) ;
#150 = DIRECTION ( 'NONE',  ( -1.000000000000000000, -3.061616997868383018E-17, 0.000000000000000000 ) ) ;
#151 = DIMENSIONAL_EXPONENTS ( 1.000000000000000000, 0.000000000000000000, 0.000000000000000000, 0.000000000000000000, 0.000000000000000000, 0.000000000000000000, 0.000000000000000000 ) ;
#152 = CARTESIAN_POINT ( 'NONE',  ( 0.1249999999999999861, 2.500000000000000000, 0.000000000000000000 ) ) ;
#153 = ORIENTED_EDGE ( 'NONE', *, *, #254, .F. ) ;
#154 = ORIENTED_EDGE ( 'NONE', *, *, #130, .F. ) ;
#155 = UNCERTAINTY_MEASURE_WITH_UNIT (LENGTH_MEASURE( 1.000000000000000082E-05 ), #192, 'distance_accuracy_value', 'NONE');
#156 = DIRECTION ( 'NONE',  ( -0.000000000000000000, -1.000000000000000000, -0.000000000000000000 ) ) ;
#157 = APPLICATION_PROTOCOL_DEFINITION ( 'draft international standard', 'automotive_design', 1998, #29 ) ;
#158 = CARTESIAN_POINT ( 'NONE',  ( -0.1250000000000000833, 2.500000000000000000, 0.000000000000000000 ) ) ;
#159 =( GEOMETRIC_REPRESENTATION_CONTEXT ( 3 ) GLOBAL_UNCERTAINTY_ASSIGNED_CONTEXT ( ( #66 ) ) GLOBAL_UNIT_ASSIGNED_CONTEXT ( ( #114, #256, #64 ) ) REPRESENTATION_CONTEXT ( 'NONE', 'WORKASPACE' ) );
#160 = COLOUR_RGB ( '',1.000000000000000000, 0.000000000000000000, 0.000000000000000000 ) ;
#161 = LINE ( 'NONE', #158, #137 ) ;
#162 = EDGE_CURVE ( 'NONE', #225, #302, #305, .T. ) ;
#163 = PRODUCT_CONTEXT ( 'NONE', #29, 'mechanical' ) ;
#164 = AXIS2_PLACEMENT_3D ( 'NONE', #213, #307, #253 ) ;
#165 = CYLINDRICAL_SURFACE ( 'NONE', #119, 0.1250000000000000000 ) ;
#166 = PRESENTATION_STYLE_ASSIGNMENT (( #32 ) ) ;
#167 = CIRCLE ( 'NONE', #174, 0.1250000000000000555 ) ;
#168 = PRESENTATION_LAYER_ASSIGNMENT (  '', '', ( #12 ) ) ;
#169 =( LENGTH_UNIT ( ) NAMED_UNIT ( * ) SI_UNIT ( $, .METRE. ) );
#170 = LENGTH_MEASURE_WITH_UNIT ( LENGTH_MEASURE( 0.02539999999999999897 ), #261 );
#171 = DIMENSIONAL_EXPONENTS ( 1.000000000000000000, 0.000000000000000000, 0.000000000000000000, 0.000000000000000000, 0.000000000000000000, 0.000000000000000000, 0.000000000000000000 ) ;
#172 = VECTOR ( 'NONE', #67, 39.37007874015748143 ) ;
#173 = CARTESIAN_POINT ( 'NONE',  ( 1.530808498934191509E-17, 0.000000000000000000, 0.1250000000000000000 ) ) ;
#174 = AXIS2_PLACEMENT_3D ( 'NONE', #144, #291, #90 ) ;
#175 = LINE ( 'NONE', #177, #282 ) ;
#176 = VERTEX_POINT ( 'NONE', #258 ) ;
#177 = CARTESIAN_POINT ( 'NONE',  ( 0.000000000000000000, 0.000000000000000000, -0.1250000000000000000 ) ) ;
#178 = ORIENTED_EDGE ( 'NONE', *, *, #218, .T. ) ;
#179 = CARTESIAN_POINT ( 'NONE',  ( -6.123233995736766036E-17, 2.500000000000000000, 0.000000000000000000 ) ) ;
#180 = ORIENTED_EDGE ( 'NONE', *, *, #212, .F. ) ;
#181 = FACE_OUTER_BOUND ( 'NONE', #16, .T. ) ;
#182 = SURFACE_SIDE_STYLE ('',( #2 ) ) ;
#183 = AXIS2_PLACEMENT_3D ( 'NONE', #227, #58, #150 ) ;
#184 = CARTESIAN_POINT ( 'NONE',  ( 0.000000000000000000, 0.000000000000000000, 0.000000000000000000 ) ) ;
#185 = FACE_OUTER_BOUND ( 'NONE', #38, .T. ) ;
#186 =( NAMED_UNIT ( * ) PLANE_ANGLE_UNIT ( ) SI_UNIT ( $, .RADIAN. ) );
#187 =( CONVERSION_BASED_UNIT ( 'INCH', #27 ) LENGTH_UNIT ( ) NAMED_UNIT ( #274 ) );
#188 = STYLED_ITEM ( 'NONE', ( #207 ), #6 ) ;
#189 = CARTESIAN_POINT ( 'NONE',  ( -6.123233995736766036E-17, 2.500000000000000000, 0.000000000000000000 ) ) ;
#190 =( NAMED_UNIT ( * ) PLANE_ANGLE_UNIT ( ) SI_UNIT ( $, .RADIAN. ) );
#191 = MANIFOLD_SOLID_BREP ( 'Revolve - Tool Body (Straight Shanked)', #287 ) ;
#192 =( CONVERSION_BASED_UNIT ( 'INCH', #284 ) LENGTH_UNIT ( ) NAMED_UNIT ( #56 ) );
#193 = STYLED_ITEM ( 'NONE', ( #139 ), #74 ) ;
#194 = CIRCLE ( 'NONE', #69, 0.1250000000000000555 ) ;
#195 = CARTESIAN_POINT ( 'NONE',  ( 0.1250000000000000000, 0.5000000000000001110, 1.530808498934192125E-17 ) ) ;
#196 = DIRECTION ( 'NONE',  ( 0.000000000000000000, 0.000000000000000000, -1.000000000000000000 ) ) ;
#197 = DIMENSIONAL_EXPONENTS ( 1.000000000000000000, 0.000000000000000000, 0.000000000000000000, 0.000000000000000000, 0.000000000000000000, 0.000000000000000000, 0.000000000000000000 ) ;
#198 =( NAMED_UNIT ( * ) PLANE_ANGLE_UNIT ( ) SI_UNIT ( $, .RADIAN. ) );
#199 = CIRCLE ( 'NONE', #54, 0.1250000000000000000 ) ;
#200 = DIRECTION ( 'NONE',  ( 3.061616997868383018E-17, -1.000000000000000000, 0.000000000000000000 ) ) ;
#201 = AXIS2_PLACEMENT_3D ( 'NONE', #142, #237, #196 ) ;
#202 = ORIENTED_EDGE ( 'NONE', *, *, #162, .F. ) ;
#203 = DIRECTION ( 'NONE',  ( -1.000000000000000000, 0.000000000000000000, 0.000000000000000000 ) ) ;
#204 = ADVANCED_FACE ( 'NONE', ( #141 ), #145, .T. ) ;
#205 = ORIENTED_EDGE ( 'NONE', *, *, #254, .T. ) ;
#206 = SURFACE_STYLE_FILL_AREA ( #245 ) ;
#207 = PRESENTATION_STYLE_ASSIGNMENT (( #100 ) ) ;
#208 = ORIENTED_EDGE ( 'NONE', *, *, #231, .T. ) ;
#209 = ADVANCED_FACE ( 'NONE', ( #239 ), #50, .T. ) ;
#210 = CARTESIAN_POINT ( 'NONE',  ( 0.000000000000000000, 0.000000000000000000, 0.000000000000000000 ) ) ;
#211 = CIRCLE ( 'NONE', #236, 0.1249999999999999861 ) ;
#212 = EDGE_CURVE ( 'NONE', #225, #176, #211, .T. ) ;
#213 = CARTESIAN_POINT ( 'NONE',  ( -6.123233995736766036E-17, 2.500000000000000000, 0.000000000000000000 ) ) ;
#214 = DIRECTION ( 'NONE',  ( 0.000000000000000000, 0.000000000000000000, -1.000000000000000000 ) ) ;
#215 = DIRECTION ( 'NONE',  ( -1.000000000000000000, 0.000000000000000000, 0.000000000000000000 ) ) ;
#216 = MECHANICAL_DESIGN_GEOMETRIC_PRESENTATION_REPRESENTATION (  '', ( #193 ), #276 ) ;
#217 = AXIS2_PLACEMENT_3D ( 'NONE', #240, #42, #79 ) ;
#218 = EDGE_CURVE ( 'NONE', #224, #302, #167, .T. ) ;
#219 = DIRECTION ( 'NONE',  ( 0.000000000000000000, -0.000000000000000000, 1.000000000000000000 ) ) ;
#220 = VERTEX_POINT ( 'NONE', #5 ) ;
#221 = COLOUR_RGB ( '',0.7921568627450980005, 0.8196078431372548767, 0.9333333333333333481 ) ;
#222 = DIRECTION ( 'NONE',  ( -0.000000000000000000, -1.000000000000000000, -0.000000000000000000 ) ) ;
#223 = STYLED_ITEM ( 'NONE', ( #72 ), #283 ) ;
#224 = VERTEX_POINT ( 'NONE', #286 ) ;
#225 = VERTEX_POINT ( 'NONE', #195 ) ;
#226 = FILL_AREA_STYLE_COLOUR ( '', #160 ) ;
#227 = CARTESIAN_POINT ( 'NONE',  ( 5.858436651022881281E-35, 0.5000000000000000000, 0.000000000000000000 ) ) ;
#228 = CIRCLE ( 'NONE', #281, 0.1249999999999999861 ) ;
#229 = ORIENTED_EDGE ( 'NONE', *, *, #130, .T. ) ;
#230 = APPLICATION_PROTOCOL_DEFINITION ( 'draft international standard', 'automotive_design', 1998, #92 ) ;
#231 = EDGE_CURVE ( 'NONE', #220, #265, #290, .T. ) ;
#232 = DIRECTION ( 'NONE',  ( 0.000000000000000000, 0.000000000000000000, -1.000000000000000000 ) ) ;
#233 = CARTESIAN_POINT ( 'NONE',  ( 0.000000000000000000, 0.000000000000000000, 0.000000000000000000 ) ) ;
#234 = COLOUR_RGB ( '',1.000000000000000000, 0.000000000000000000, 0.000000000000000000 ) ;
#235 = SURFACE_SIDE_STYLE ('',( #121 ) ) ;
#236 = AXIS2_PLACEMENT_3D ( 'NONE', #89, #117, #215 ) ;
#237 = DIRECTION ( 'NONE',  ( 0.000000000000000000, -1.000000000000000000, -0.000000000000000000 ) ) ;
#238 = EDGE_CURVE ( 'NONE', #176, #225, #40, .T. ) ;
#239 = FACE_OUTER_BOUND ( 'NONE', #20, .T. ) ;
#240 = CARTESIAN_POINT ( 'NONE',  ( 0.000000000000000000, 0.5000000000000001110, 0.000000000000000000 ) ) ;
#241 = ORIENTED_EDGE ( 'NONE', *, *, #268, .T. ) ;
#242 = UNCERTAINTY_MEASURE_WITH_UNIT (LENGTH_MEASURE( 1.000000000000000082E-05 ), #262, 'distance_accuracy_value', 'NONE');
#243 =( CONVERSION_BASED_UNIT ( 'INCH', #101 ) LENGTH_UNIT ( ) NAMED_UNIT ( #151 ) );
#244 = SURFACE_STYLE_FILL_AREA ( #103 ) ;
#245 = FILL_AREA_STYLE ('',( #293 ) ) ;
#246 = LENGTH_MEASURE_WITH_UNIT ( LENGTH_MEASURE( 0.02539999999999999897 ), #80 );
#247 = ADVANCED_BREP_SHAPE_REPRESENTATION ( '05132', ( #294, #191, #82 ), #55 ) ;
#248 = FACE_OUTER_BOUND ( 'NONE', #131, .T. ) ;
#249 = DIRECTION ( 'NONE',  ( 0.000000000000000000, 0.000000000000000000, -1.000000000000000000 ) ) ;
#250 = FILL_AREA_STYLE_COLOUR ( '', #133 ) ;
#251 = PRESENTATION_LAYER_ASSIGNMENT (  '', '', ( #193 ) ) ;
#252 = SURFACE_STYLE_USAGE ( .BOTH. , #182 ) ;
#253 = DIRECTION ( 'NONE',  ( -1.000000000000000000, 0.000000000000000000, 0.000000000000000000 ) ) ;
#254 = EDGE_CURVE ( 'NONE', #108, #102, #175, .T. ) ;
#255 = EDGE_CURVE ( 'NONE', #108, #220, #271, .T. ) ;
#256 =( NAMED_UNIT ( * ) PLANE_ANGLE_UNIT ( ) SI_UNIT ( $, .RADIAN. ) );
#257 = FILL_AREA_STYLE_COLOUR ( '', #104 ) ;
#258 = CARTESIAN_POINT ( 'NONE',  ( -0.1249999999999999861, 0.5000000000000001110, 0.000000000000000000 ) ) ;
#259 = DIRECTION ( 'NONE',  ( -3.061616997868383018E-17, 1.000000000000000000, -0.000000000000000000 ) ) ;
#260 = SURFACE_STYLE_FILL_AREA ( #53 ) ;
#261 =( LENGTH_UNIT ( ) NAMED_UNIT ( * ) SI_UNIT ( $, .METRE. ) );
#262 =( CONVERSION_BASED_UNIT ( 'INCH', #170 ) LENGTH_UNIT ( ) NAMED_UNIT ( #197 ) );
#263 = PRESENTATION_LAYER_ASSIGNMENT (  '', '', ( #35 ) ) ;
#264 = DIRECTION ( 'NONE',  ( -0.000000000000000000, -1.000000000000000000, -0.000000000000000000 ) ) ;
#265 = VERTEX_POINT ( 'NONE', #272 ) ;
#266 = DIRECTION ( 'NONE',  ( 0.000000000000000000, 1.000000000000000000, 0.000000000000000000 ) ) ;
#267 = EDGE_LOOP ( 'NONE', ( #273, #208, #132, #153 ) ) ;
#268 = EDGE_CURVE ( 'NONE', #302, #224, #194, .T. ) ;
#269 = ORIENTED_EDGE ( 'NONE', *, *, #231, .F. ) ;
#270 = PRESENTATION_LAYER_ASSIGNMENT (  '', '', ( #188 ) ) ;
#271 = CIRCLE ( 'NONE', #91, 0.1249999999999999861 ) ;
#272 = CARTESIAN_POINT ( 'NONE',  ( 1.530808498934191509E-17, 0.000000000000000000, 0.1250000000000000000 ) ) ;
#273 = ORIENTED_EDGE ( 'NONE', *, *, #255, .T. ) ;
#274 = DIMENSIONAL_EXPONENTS ( 1.000000000000000000, 0.000000000000000000, 0.000000000000000000, 0.000000000000000000, 0.000000000000000000, 0.000000000000000000, 0.000000000000000000 ) ;
#275 = ORIENTED_EDGE ( 'NONE', *, *, #255, .F. ) ;
#276 =( GEOMETRIC_REPRESENTATION_CONTEXT ( 3 ) GLOBAL_UNCERTAINTY_ASSIGNED_CONTEXT ( ( #95 ) ) GLOBAL_UNIT_ASSIGNED_CONTEXT ( ( #187, #46, #277 ) ) REPRESENTATION_CONTEXT ( 'NONE', 'WORKASPACE' ) );
#277 =( NAMED_UNIT ( * ) SI_UNIT ( $, .STERADIAN. ) SOLID_ANGLE_UNIT ( ) );
#278 = COLOUR_RGB ( '',0.7921568627450980005, 0.8196078431372548767, 0.9333333333333333481 ) ;
#279 =( LENGTH_UNIT ( ) NAMED_UNIT ( * ) SI_UNIT ( $, .METRE. ) );
#280 = CARTESIAN_POINT ( 'NONE',  ( 0.1249999999999999445, 2.500000000000000000, 1.530808498934191817E-17 ) ) ;
#281 = AXIS2_PLACEMENT_3D ( 'NONE', #28, #113, #214 ) ;
#282 = VECTOR ( 'NONE', #264, 39.37007874015748143 ) ;
#283 = ADVANCED_FACE ( 'NONE', ( #14 ), #122, .T. ) ;
#284 = LENGTH_MEASURE_WITH_UNIT ( LENGTH_MEASURE( 0.02539999999999999897 ), #169 );
#285 =( NAMED_UNIT ( * ) SI_UNIT ( $, .STERADIAN. ) SOLID_ANGLE_UNIT ( ) );
#286 = CARTESIAN_POINT ( 'NONE',  ( -0.1250000000000001110, 2.500000000000000000, 0.000000000000000000 ) ) ;
#287 = CLOSED_SHELL ( 'NONE', ( #44, #1, #204, #288 ) ) ;
#288 = ADVANCED_FACE ( 'NONE', ( #129 ), #96, .F. ) ;
#289 = MECHANICAL_DESIGN_GEOMETRIC_PRESENTATION_REPRESENTATION (  '', ( #111 ), #8 ) ;
#290 = LINE ( 'NONE', #173, #4 ) ;
#291 = DIRECTION ( 'NONE',  ( -3.061616997868383018E-17, 1.000000000000000000, -0.000000000000000000 ) ) ;
#292 = CARTESIAN_POINT ( 'NONE',  ( 0.000000000000000000, 0.5000000000000000000, 0.000000000000000000 ) ) ;
#293 = FILL_AREA_STYLE_COLOUR ( '', #278 ) ;
#294 = MANIFOLD_SOLID_BREP ( 'Revolve - Cutting Edge', #7 ) ;
#295 = FILL_AREA_STYLE ('',( #226 ) ) ;
#296 = EDGE_LOOP ( 'NONE', ( #178, #241 ) ) ;
#297 = PRODUCT_RELATED_PRODUCT_CATEGORY ( 'part', '', ( #93 ) ) ;
#298 = MECHANICAL_DESIGN_GEOMETRIC_PRESENTATION_REPRESENTATION (  '', ( #188 ), #159 ) ;
#299 = SURFACE_SIDE_STYLE ('',( #206 ) ) ;
#300 = DIMENSIONAL_EXPONENTS ( 1.000000000000000000, 0.000000000000000000, 0.000000000000000000, 0.000000000000000000, 0.000000000000000000, 0.000000000000000000, 0.000000000000000000 ) ;
#301 = FACE_OUTER_BOUND ( 'NONE', #267, .T. ) ;
#302 = VERTEX_POINT ( 'NONE', #303 ) ;
#303 = CARTESIAN_POINT ( 'NONE',  ( 0.1250000000000000000, 2.500000000000000000, 1.530808498934192125E-17 ) ) ;
#304 = DIRECTION ( 'NONE',  ( -0.000000000000000000, -1.000000000000000000, -0.000000000000000000 ) ) ;
#305 = LINE ( 'NONE', #280, #172 ) ;
#306 = PRESENTATION_LAYER_ASSIGNMENT (  '', '', ( #223 ) ) ;
#307 = DIRECTION ( 'NONE',  ( -3.061616997868383018E-17, 1.000000000000000000, -0.000000000000000000 ) ) ;
#308 = CARTESIAN_POINT ( 'NONE',  ( 0.000000000000000000, 0.000000000000000000, 0.000000000000000000 ) ) ;
#309 = DIRECTION ( 'NONE',  ( -0.000000000000000000, -1.000000000000000000, -0.000000000000000000 ) ) ;
ENDSEC;
END-ISO-10303-21;
