ISO-10303-21;
HEADER;
FILE_DESCRIPTION (( 'STEP AP214' ),
    '1' );
FILE_NAME ('Micro_GEC-375-2-010X.STEP',
    '2021-09-03T17:20:27',
    ( '' ),
    ( '' ),
    'SwSTEP 2.0',
    'SolidWorks 2020',
    '' );
FILE_SCHEMA (( 'AUTOMOTIVE_DESIGN' ));
ENDSEC;

DATA;
#1 = EDGE_LOOP ( 'NONE', ( #172, #48, #33, #323 ) ) ;
#2 = ADVANCED_FACE ( 'NONE', ( #143 ), #189, .T. ) ;
#3 =( LENGTH_UNIT ( ) NAMED_UNIT ( * ) SI_UNIT ( $, .METRE. ) );
#4 = VERTEX_POINT ( 'NONE', #235 ) ;
#5 = AXIS2_PLACEMENT_3D ( 'NONE', #305, #223, #247 ) ;
#6 = DIMENSIONAL_EXPONENTS ( 1.000000000000000000, 0.0000000000000000000, 0.0000000000000000000, 0.0000000000000000000, 0.0000000000000000000, 0.0000000000000000000, 0.0000000000000000000 ) ;
#7 = CARTESIAN_POINT ( 'NONE',  ( 0.0000000000000000000, 0.0000000000000000000, 0.0000000000000000000 ) ) ;
#8 = DIRECTION ( 'NONE',  ( 0.0000000000000000000, 0.0000000000000000000, 1.000000000000000000 ) ) ;
#9 = EDGE_CURVE ( 'NONE', #238, #4, #158, .T. ) ;
#10 = CARTESIAN_POINT ( 'NONE',  ( 0.0000000000000000000, 0.0000000000000000000, 2.500000000000000000 ) ) ;
#11 = CARTESIAN_POINT ( 'NONE',  ( 0.1873125000000000484, 0.0000000000000000000, 0.8750000000000000000 ) ) ;
#12 = DIRECTION ( 'NONE',  ( 1.000000000000000000, 0.0000000000000000000, 0.0000000000000000000 ) ) ;
#13 = CARTESIAN_POINT ( 'NONE',  ( -0.1873124999999999929, 0.0000000000000000000, 0.01000000000000000194 ) ) ;
#14 = AXIS2_PLACEMENT_3D ( 'NONE', #18, #113, #287 ) ;
#15 = EDGE_LOOP ( 'NONE', ( #341, #82, #151, #100 ) ) ;
#16 = EDGE_CURVE ( 'NONE', #238, #32, #329, .T. ) ;
#17 = DIRECTION ( 'NONE',  ( 1.000000000000000000, 0.0000000000000000000, 0.0000000000000000000 ) ) ;
#18 = CARTESIAN_POINT ( 'NONE',  ( 0.0000000000000000000, 0.0000000000000000000, 0.0000000000000000000 ) ) ;
#19 = AXIS2_PLACEMENT_3D ( 'NONE', #248, #108, #336 ) ;
#20 = FACE_OUTER_BOUND ( 'NONE', #15, .T. ) ;
#21 =( LENGTH_UNIT ( ) NAMED_UNIT ( * ) SI_UNIT ( $, .METRE. ) );
#22 = EDGE_CURVE ( 'NONE', #269, #58, #314, .T. ) ;
#23 = PRODUCT_DEFINITION_CONTEXT ( 'detailed design', #326, 'design' ) ;
#24 = AXIS2_PLACEMENT_3D ( 'NONE', #203, #318, #294 ) ;
#25 = PRODUCT_DEFINITION_FORMATION_WITH_SPECIFIED_SOURCE ( 'ANY', '', #284, .NOT_KNOWN. ) ;
#26 = DIRECTION ( 'NONE',  ( 1.000000000000000000, 0.0000000000000000000, 0.0000000000000000000 ) ) ;
#27 = DIRECTION ( 'NONE',  ( -1.224646799147353207E-16, -0.0000000000000000000, -1.000000000000000000 ) ) ;
#28 = ORIENTED_EDGE ( 'NONE', *, *, #231, .T. ) ;
#29 = PRESENTATION_STYLE_ASSIGNMENT (( #259 ) ) ;
#30 = ORIENTED_EDGE ( 'NONE', *, *, #50, .F. ) ;
#31 = CIRCLE ( 'NONE', #76, 0.1724999999999995981 ) ;
#32 = VERTEX_POINT ( 'NONE', #11 ) ;
#33 = ORIENTED_EDGE ( 'NONE', *, *, #171, .F. ) ;
#34 =( CONVERSION_BASED_UNIT ( 'INCH', #271 ) LENGTH_UNIT ( ) NAMED_UNIT ( #6 ) );
#35 = CYLINDRICAL_SURFACE ( 'NONE', #308, 0.1875000000000000278 ) ;
#36 = DIRECTION ( 'NONE',  ( 0.0000000000000000000, 0.0000000000000000000, 1.000000000000000000 ) ) ;
#37 = LINE ( 'NONE', #187, #40 ) ;
#38 = DIRECTION ( 'NONE',  ( -1.000000000000000000, 1.224646799147354933E-16, 0.0000000000000000000 ) ) ;
#39 =( CONVERSION_BASED_UNIT ( 'INCH', #232 ) LENGTH_UNIT ( ) NAMED_UNIT ( #270 ) );
#40 = VECTOR ( 'NONE', #273, 39.37007874015748143 ) ;
#41 = CARTESIAN_POINT ( 'NONE',  ( 0.0000000000000000000, 0.0000000000000000000, 2.500000000000000000 ) ) ;
#42 = ADVANCED_FACE ( 'NONE', ( #220 ), #200, .T. ) ;
#43 = DIRECTION ( 'NONE',  ( 1.000000000000000000, 0.0000000000000000000, 0.0000000000000000000 ) ) ;
#44 = CARTESIAN_POINT ( 'NONE',  ( 0.1873124999999999929, 2.293916535652885596E-17, 0.01000000000000000194 ) ) ;
#45 = CARTESIAN_POINT ( 'NONE',  ( 1.224646799147353577E-18, 0.0000000000000000000, 0.01000000000000000194 ) ) ;
#46 = CONICAL_SURFACE ( 'NONE', #213, 0.1873124999999999374, 0.1745329251994340025 ) ;
#47 = COLOUR_RGB ( '',0.7921568627450980005, 0.8196078431372548767, 0.9333333333333333481 ) ;
#48 = ORIENTED_EDGE ( 'NONE', *, *, #70, .T. ) ;
#49 = CYLINDRICAL_SURFACE ( 'NONE', #222, 0.1875000000000000278 ) ;
#50 = EDGE_CURVE ( 'NONE', #77, #58, #320, .T. ) ;
#51 = EDGE_CURVE ( 'NONE', #337, #351, #133, .T. ) ;
#52 =( LENGTH_UNIT ( ) NAMED_UNIT ( * ) SI_UNIT ( $, .METRE. ) );
#53 = DIRECTION ( 'NONE',  ( -0.0000000000000000000, -0.0000000000000000000, -1.000000000000000000 ) ) ;
#54 = AXIS2_PLACEMENT_3D ( 'NONE', #90, #191, #277 ) ;
#55 = ORIENTED_EDGE ( 'NONE', *, *, #292, .T. ) ;
#56 = APPLICATION_PROTOCOL_DEFINITION ( 'draft international standard', 'automotive_design', 1998, #326 ) ;
#57 = EDGE_LOOP ( 'NONE', ( #208, #312, #313, #197 ) ) ;
#58 = VERTEX_POINT ( 'NONE', #13 ) ;
#59 = EDGE_LOOP ( 'NONE', ( #288, #295, #230, #211 ) ) ;
#60 = DIRECTION ( 'NONE',  ( 0.0000000000000000000, 0.0000000000000000000, -1.000000000000000000 ) ) ;
#61 = FACE_OUTER_BOUND ( 'NONE', #96, .T. ) ;
#62 = DIRECTION ( 'NONE',  ( -0.1736481776669312749, 2.126576849575784241E-17, 0.9848077530122077983 ) ) ;
#63 =( GEOMETRIC_REPRESENTATION_CONTEXT ( 3 ) GLOBAL_UNCERTAINTY_ASSIGNED_CONTEXT ( ( #242 ) ) GLOBAL_UNIT_ASSIGNED_CONTEXT ( ( #39, #315, #338 ) ) REPRESENTATION_CONTEXT ( 'NONE', 'WORKASPACE' ) );
#64 = SURFACE_STYLE_FILL_AREA ( #299 ) ;
#65 = CARTESIAN_POINT ( 'NONE',  ( -0.1773124999999999840, 2.171451855738150547E-17, 0.01000000000000000021 ) ) ;
#66 = CARTESIAN_POINT ( 'NONE',  ( 0.0000000000000000000, 0.0000000000000000000, 2.484999999999999432 ) ) ;
#67 = DIRECTION ( 'NONE',  ( 1.000000000000000000, 0.0000000000000000000, 0.0000000000000000000 ) ) ;
#68 = AXIS2_PLACEMENT_3D ( 'NONE', #275, #8, #332 ) ;
#69 = DIRECTION ( 'NONE',  ( -1.000000000000000000, 0.0000000000000000000, 0.0000000000000000000 ) ) ;
#70 = EDGE_CURVE ( 'NONE', #103, #297, #281, .T. ) ;
#71 = DIRECTION ( 'NONE',  ( 0.0000000000000000000, 0.0000000000000000000, 1.000000000000000000 ) ) ;
#72 = ORIENTED_EDGE ( 'NONE', *, *, #217, .T. ) ;
#73 = DIRECTION ( 'NONE',  ( -0.0000000000000000000, -0.0000000000000000000, -1.000000000000000000 ) ) ;
#74 = PRODUCT_DEFINITION ( 'UNKNOWN', '', #25, #23 ) ;
#75 = AXIS2_PLACEMENT_3D ( 'NONE', #41, #60, #249 ) ;
#76 = AXIS2_PLACEMENT_3D ( 'NONE', #310, #71, #17 ) ;
#77 = VERTEX_POINT ( 'NONE', #127 ) ;
#78 = EDGE_CURVE ( 'NONE', #32, #99, #245, .T. ) ;
#79 = CIRCLE ( 'NONE', #145, 0.1873124999999999374 ) ;
#80 = ORIENTED_EDGE ( 'NONE', *, *, #51, .T. ) ;
#81 = EDGE_CURVE ( 'NONE', #4, #99, #254, .T. ) ;
#82 = ORIENTED_EDGE ( 'NONE', *, *, #324, .F. ) ;
#83 = ORIENTED_EDGE ( 'NONE', *, *, #16, .F. ) ;
#84 = FACE_OUTER_BOUND ( 'NONE', #57, .T. ) ;
#85 = DIRECTION ( 'NONE',  ( 1.000000000000000000, 0.0000000000000000000, 0.0000000000000000000 ) ) ;
#86 = EDGE_CURVE ( 'NONE', #32, #269, #268, .T. ) ;
#87 = FACE_OUTER_BOUND ( 'NONE', #156, .T. ) ;
#88 = VECTOR ( 'NONE', #234, 39.37007874015748143 ) ;
#89 = CARTESIAN_POINT ( 'NONE',  ( 0.0000000000000000000, 0.0000000000000000000, 2.500000000000000000 ) ) ;
#90 = CARTESIAN_POINT ( 'NONE',  ( 0.0000000000000000000, 0.0000000000000000000, 2.500000000000000000 ) ) ;
#91 = ORIENTED_EDGE ( 'NONE', *, *, #285, .F. ) ;
#92 = CARTESIAN_POINT ( 'NONE',  ( -0.1724999999999995981, 0.0000000000000000000, 2.500000000000000000 ) ) ;
#93 = MECHANICAL_DESIGN_GEOMETRIC_PRESENTATION_REPRESENTATION (  '', ( #121 ), #274 ) ;
#94 = DIRECTION ( 'NONE',  ( 0.0000000000000000000, 0.0000000000000000000, 1.000000000000000000 ) ) ;
#95 = FACE_OUTER_BOUND ( 'NONE', #59, .T. ) ;
#96 = EDGE_LOOP ( 'NONE', ( #83, #261, #167, #322 ) ) ;
#97 = VECTOR ( 'NONE', #62, 39.37007874015748143 ) ;
#98 = FACE_OUTER_BOUND ( 'NONE', #149, .T. ) ;
#99 = VERTEX_POINT ( 'NONE', #346 ) ;
#100 = ORIENTED_EDGE ( 'NONE', *, *, #285, .T. ) ;
#101 = ORIENTED_EDGE ( 'NONE', *, *, #231, .F. ) ;
#102 = DIRECTION ( 'NONE',  ( -0.0000000000000000000, -0.0000000000000000000, -1.000000000000000000 ) ) ;
#103 = VERTEX_POINT ( 'NONE', #116 ) ;
#104 = AXIS2_PLACEMENT_3D ( 'NONE', #89, #160, #243 ) ;
#105 = PRESENTATION_LAYER_ASSIGNMENT (  '', '', ( #276 ) ) ;
#106 = SURFACE_STYLE_USAGE ( .BOTH. , #240 ) ;
#107 = CARTESIAN_POINT ( 'NONE',  ( 0.1873125000000000484, 0.0000000000000000000, 0.8750000000000000000 ) ) ;
#108 = DIRECTION ( 'NONE',  ( -1.224646799147353207E-16, -0.0000000000000000000, -1.000000000000000000 ) ) ;
#109 = CIRCLE ( 'NONE', #5, 0.1875000000000000278 ) ;
#110 = DIRECTION ( 'NONE',  ( -1.000000000000000000, 0.0000000000000000000, 0.0000000000000000000 ) ) ;
#111 = ADVANCED_BREP_SHAPE_REPRESENTATION ( 'Micro_GEC-375-2-010X', ( #258, #194 ), #63 ) ;
#112 = DIRECTION ( 'NONE',  ( -1.224646799147353207E-16, -0.0000000000000000000, -1.000000000000000000 ) ) ;
#113 = DIRECTION ( 'NONE',  ( -1.224646799147353207E-16, -0.0000000000000000000, -1.000000000000000000 ) ) ;
#114 = CARTESIAN_POINT ( 'NONE',  ( 0.1875000000000000278, 2.296212748401287726E-17, 2.484999999999999432 ) ) ;
#115 = ORIENTED_EDGE ( 'NONE', *, *, #81, .F. ) ;
#116 = CARTESIAN_POINT ( 'NONE',  ( 0.1724999999999995981, 2.204364238465233357E-17, 2.500000000000000000 ) ) ;
#117 = AXIS2_PLACEMENT_3D ( 'NONE', #306, #36, #67 ) ;
#118 = AXIS2_PLACEMENT_3D ( 'NONE', #66, #224, #136 ) ;
#119 = ORIENTED_EDGE ( 'NONE', *, *, #86, .T. ) ;
#120 = ORIENTED_EDGE ( 'NONE', *, *, #131, .T. ) ;
#121 = STYLED_ITEM ( 'NONE', ( #186 ), #258 ) ;
#122 = EDGE_CURVE ( 'NONE', #325, #269, #128, .T. ) ;
#123 = ORIENTED_EDGE ( 'NONE', *, *, #262, .F. ) ;
#124 = PLANE ( 'NONE',  #193 ) ;
#125 = ORIENTED_EDGE ( 'NONE', *, *, #279, .T. ) ;
#126 = DIRECTION ( 'NONE',  ( 1.000000000000000000, 0.0000000000000000000, 0.0000000000000000000 ) ) ;
#127 = CARTESIAN_POINT ( 'NONE',  ( -0.1773124999999999840, 2.232684195695518071E-17, 0.0000000000000000000 ) ) ;
#128 = CIRCLE ( 'NONE', #24, 0.01000000000000000021 ) ;
#129 = CARTESIAN_POINT ( 'NONE',  ( -0.1873124999999999929, 0.0000000000000000000, 2.293916535652885596E-17 ) ) ;
#130 =( NAMED_UNIT ( * ) SI_UNIT ( $, .STERADIAN. ) SOLID_ANGLE_UNIT ( ) );
#131 = EDGE_CURVE ( 'NONE', #77, #325, #169, .T. ) ;
#132 = DIRECTION ( 'NONE',  ( 0.0000000000000000000, 0.0000000000000000000, 1.000000000000000000 ) ) ;
#133 = LINE ( 'NONE', #161, #349 ) ;
#134 = ADVANCED_FACE ( 'NONE', ( #98 ), #35, .T. ) ;
#135 = AXIS2_PLACEMENT_3D ( 'NONE', #293, #53, #176 ) ;
#136 = DIRECTION ( 'NONE',  ( 1.000000000000000000, 0.0000000000000000000, 0.0000000000000000000 ) ) ;
#137 = FACE_OUTER_BOUND ( 'NONE', #283, .T. ) ;
#138 = CARTESIAN_POINT ( 'NONE',  ( 1.072868196215332765E-16, 0.0000000000000000000, 0.8760633653411785682 ) ) ;
#139 = ADVANCED_FACE ( 'NONE', ( #87 ), #124, .F. ) ;
#140 = CARTESIAN_POINT ( 'NONE',  ( 1.071565949253934025E-16, 0.0000000000000000000, 0.8750000000000000000 ) ) ;
#141 = COLOUR_RGB ( '',0.7921568627450980005, 0.8196078431372548767, 0.9333333333333333481 ) ;
#142 = TOROIDAL_SURFACE ( 'NONE', #202, 0.1773124999999999840, 0.01000000000000000021 ) ;
#143 = FACE_OUTER_BOUND ( 'NONE', #182, .T. ) ;
#144 = CARTESIAN_POINT ( 'NONE',  ( -0.1875000000000000278, 0.0000000000000000000, 2.484999999999999432 ) ) ;
#145 = AXIS2_PLACEMENT_3D ( 'NONE', #342, #112, #69 ) ;
#146 =( NAMED_UNIT ( * ) PLANE_ANGLE_UNIT ( ) SI_UNIT ( $, .RADIAN. ) );
#147 = CARTESIAN_POINT ( 'NONE',  ( 0.1873124999999999929, 2.293916535652885596E-17, -2.293916535652885596E-17 ) ) ;
#148 = ORIENTED_EDGE ( 'NONE', *, *, #228, .F. ) ;
#149 = EDGE_LOOP ( 'NONE', ( #241, #125, #115, #150 ) ) ;
#150 = ORIENTED_EDGE ( 'NONE', *, *, #217, .F. ) ;
#151 = ORIENTED_EDGE ( 'NONE', *, *, #78, .T. ) ;
#152 = DIRECTION ( 'NONE',  ( 1.224646799147353207E-16, 0.0000000000000000000, 1.000000000000000000 ) ) ;
#153 = CYLINDRICAL_SURFACE ( 'NONE', #19, 0.1873124999999999929 ) ;
#154 = CIRCLE ( 'NONE', #264, 0.1724999999999995981 ) ;
#155 =( NAMED_UNIT ( * ) PLANE_ANGLE_UNIT ( ) SI_UNIT ( $, .RADIAN. ) );
#156 = EDGE_LOOP ( 'NONE', ( #28, #120 ) ) ;
#157 = DIRECTION ( 'NONE',  ( 0.0000000000000000000, 0.0000000000000000000, 1.000000000000000000 ) ) ;
#158 = LINE ( 'NONE', #246, #97 ) ;
#159 = EDGE_CURVE ( 'NONE', #103, #337, #154, .T. ) ;
#160 = DIRECTION ( 'NONE',  ( 0.0000000000000000000, 0.0000000000000000000, 1.000000000000000000 ) ) ;
#161 = CARTESIAN_POINT ( 'NONE',  ( -0.1724999999999995981, 0.0000000000000000000, 2.500000000000000000 ) ) ;
#162 = AXIS2_PLACEMENT_3D ( 'NONE', #65, #278, #38 ) ;
#163 = VECTOR ( 'NONE', #272, 39.37007874015748854 ) ;
#164 = AXIS2_PLACEMENT_3D ( 'NONE', #138, #195, #256 ) ;
#165 = DIRECTION ( 'NONE',  ( 1.224646799147353207E-16, 0.0000000000000000000, 1.000000000000000000 ) ) ;
#166 = DIRECTION ( 'NONE',  ( -1.000000000000000000, 0.0000000000000000000, 0.0000000000000000000 ) ) ;
#167 = ORIENTED_EDGE ( 'NONE', *, *, #81, .T. ) ;
#168 = CYLINDRICAL_SURFACE ( 'NONE', #14, 0.1873124999999999929 ) ;
#169 = CIRCLE ( 'NONE', #135, 0.1773124999999999840 ) ;
#170 = UNCERTAINTY_MEASURE_WITH_UNIT (LENGTH_MEASURE( 1.000000000000000082E-05 ), #34, 'distance_accuracy_value', 'NONE');
#171 = EDGE_CURVE ( 'NONE', #351, #297, #109, .T. ) ;
#172 = ORIENTED_EDGE ( 'NONE', *, *, #159, .F. ) ;
#173 = LENGTH_MEASURE_WITH_UNIT ( LENGTH_MEASURE( 0.02539999999999999897 ), #52 );
#174 = DIRECTION ( 'NONE',  ( 1.000000000000000000, 0.0000000000000000000, 0.0000000000000000000 ) ) ;
#175 = PRODUCT_CONTEXT ( 'NONE', #225, 'mechanical' ) ;
#176 = DIRECTION ( 'NONE',  ( 1.000000000000000000, 0.0000000000000000000, 0.0000000000000000000 ) ) ;
#177 = AXIS2_PLACEMENT_3D ( 'NONE', #219, #102, #126 ) ;
#178 = PRODUCT_RELATED_PRODUCT_CATEGORY ( 'part', '', ( #284 ) ) ;
#179 = EDGE_LOOP ( 'NONE', ( #55, #347 ) ) ;
#180 = DIMENSIONAL_EXPONENTS ( 1.000000000000000000, 0.0000000000000000000, 0.0000000000000000000, 0.0000000000000000000, 0.0000000000000000000, 0.0000000000000000000, 0.0000000000000000000 ) ;
#181 = ADVANCED_FACE ( 'NONE', ( #84 ), #153, .T. ) ;
#182 = EDGE_LOOP ( 'NONE', ( #30, #101, #199, #343 ) ) ;
#183 = ORIENTED_EDGE ( 'NONE', *, *, #292, .F. ) ;
#184 = CONICAL_SURFACE ( 'NONE', #54, 0.1724999999999995981, 0.7853981633974357335 ) ;
#185 = CARTESIAN_POINT ( 'NONE',  ( -0.1873124999999998541, 2.295064642027086199E-17, 0.8750000000000000000 ) ) ;
#186 = PRESENTATION_STYLE_ASSIGNMENT (( #106 ) ) ;
#187 = CARTESIAN_POINT ( 'NONE',  ( -0.1875000000000000278, 0.0000000000000000000, 2.500000000000000000 ) ) ;
#188 = DIRECTION ( 'NONE',  ( -1.224646799147353207E-16, -0.0000000000000000000, -1.000000000000000000 ) ) ;
#189 = TOROIDAL_SURFACE ( 'NONE', #68, 0.1773124999999999840, 0.01000000000000000021 ) ;
#190 = DIRECTION ( 'NONE',  ( -0.0000000000000000000, -0.0000000000000000000, -1.000000000000000000 ) ) ;
#191 = DIRECTION ( 'NONE',  ( 0.0000000000000000000, 0.0000000000000000000, -1.000000000000000000 ) ) ;
#192 = CARTESIAN_POINT ( 'NONE',  ( 1.071565949253934025E-16, 0.0000000000000000000, 0.8750000000000000000 ) ) ;
#193 = AXIS2_PLACEMENT_3D ( 'NONE', #7, #157, #333 ) ;
#194 = AXIS2_PLACEMENT_3D ( 'NONE', #345, #263, #26 ) ;
#195 = DIRECTION ( 'NONE',  ( -1.224646799147353207E-16, -0.0000000000000000000, -1.000000000000000000 ) ) ;
#196 = DIRECTION ( 'NONE',  ( 1.000000000000000000, 0.0000000000000000000, 0.0000000000000000000 ) ) ;
#197 = ORIENTED_EDGE ( 'NONE', *, *, #339, .T. ) ;
#198 = FACE_OUTER_BOUND ( 'NONE', #214, .T. ) ;
#199 = ORIENTED_EDGE ( 'NONE', *, *, #122, .T. ) ;
#200 = CONICAL_SURFACE ( 'NONE', #75, 0.1724999999999995981, 0.7853981633974357335 ) ;
#201 = ADVANCED_FACE ( 'NONE', ( #300 ), #184, .T. ) ;
#202 = AXIS2_PLACEMENT_3D ( 'NONE', #286, #250, #43 ) ;
#203 = CARTESIAN_POINT ( 'NONE',  ( 0.1773124999999999840, 0.0000000000000000000, 0.01000000000000000021 ) ) ;
#204 = FILL_AREA_STYLE_COLOUR ( '', #47 ) ;
#205 = ADVANCED_FACE ( 'NONE', ( #61 ), #46, .T. ) ;
#206 = VECTOR ( 'NONE', #216, 39.37007874015748143 ) ;
#207 = CIRCLE ( 'NONE', #118, 0.1875000000000000278 ) ;
#208 = ORIENTED_EDGE ( 'NONE', *, *, #86, .F. ) ;
#209 = ORIENTED_EDGE ( 'NONE', *, *, #279, .F. ) ;
#210 =( NAMED_UNIT ( * ) SI_UNIT ( $, .STERADIAN. ) SOLID_ANGLE_UNIT ( ) );
#211 = ORIENTED_EDGE ( 'NONE', *, *, #122, .F. ) ;
#212 = CARTESIAN_POINT ( 'NONE',  ( 0.0000000000000000000, 0.0000000000000000000, 2.500000000000000000 ) ) ;
#213 = AXIS2_PLACEMENT_3D ( 'NONE', #307, #152, #85 ) ;
#214 = EDGE_LOOP ( 'NONE', ( #209, #260, #72, #91 ) ) ;
#215 = CIRCLE ( 'NONE', #164, 0.1875000000000000278 ) ;
#216 = DIRECTION ( 'NONE',  ( 0.1736481776669314969, 0.0000000000000000000, 0.9848077530122077983 ) ) ;
#217 = EDGE_CURVE ( 'NONE', #351, #4, #37, .T. ) ;
#218 = LINE ( 'NONE', #129, #233 ) ;
#219 = CARTESIAN_POINT ( 'NONE',  ( 1.224646799147353384E-18, 0.0000000000000000000, 0.0000000000000000000 ) ) ;
#220 = FACE_OUTER_BOUND ( 'NONE', #257, .T. ) ;
#221 = AXIS2_PLACEMENT_3D ( 'NONE', #192, #188, #303 ) ;
#222 = AXIS2_PLACEMENT_3D ( 'NONE', #311, #289, #166 ) ;
#223 = DIRECTION ( 'NONE',  ( 0.0000000000000000000, 0.0000000000000000000, -1.000000000000000000 ) ) ;
#224 = DIRECTION ( 'NONE',  ( 0.0000000000000000000, 0.0000000000000000000, -1.000000000000000000 ) ) ;
#225 = APPLICATION_CONTEXT ( 'automotive_design' ) ;
#226 = PRODUCT_DEFINITION_SHAPE ( 'NONE', 'NONE',  #74 ) ;
#227 = CARTESIAN_POINT ( 'NONE',  ( 0.1773124999999999840, 0.0000000000000000000, 0.0000000000000000000 ) ) ;
#228 = EDGE_CURVE ( 'NONE', #238, #58, #218, .T. ) ;
#229 = DIRECTION ( 'NONE',  ( 1.000000000000000000, 0.0000000000000000000, 0.0000000000000000000 ) ) ;
#230 = ORIENTED_EDGE ( 'NONE', *, *, #22, .F. ) ;
#231 = EDGE_CURVE ( 'NONE', #325, #77, #302, .T. ) ;
#232 = LENGTH_MEASURE_WITH_UNIT ( LENGTH_MEASURE( 0.02539999999999999897 ), #21 );
#233 = VECTOR ( 'NONE', #328, 39.37007874015748143 ) ;
#234 = DIRECTION ( 'NONE',  ( -1.224646799147353207E-16, -0.0000000000000000000, -1.000000000000000000 ) ) ;
#235 = CARTESIAN_POINT ( 'NONE',  ( -0.1874999999999999167, 0.0000000000000000000, 0.8760633653411785682 ) ) ;
#236 =( CONVERSION_BASED_UNIT ( 'INCH', #173 ) LENGTH_UNIT ( ) NAMED_UNIT ( #180 ) );
#237 = CIRCLE ( 'NONE', #282, 0.1873124999999999929 ) ;
#238 = VERTEX_POINT ( 'NONE', #185 ) ;
#239 = ORIENTED_EDGE ( 'NONE', *, *, #16, .T. ) ;
#240 = SURFACE_SIDE_STYLE ('',( #64 ) ) ;
#241 = ORIENTED_EDGE ( 'NONE', *, *, #171, .T. ) ;
#242 = UNCERTAINTY_MEASURE_WITH_UNIT (LENGTH_MEASURE( 1.000000000000000082E-05 ), #39, 'distance_accuracy_value', 'NONE');
#243 = DIRECTION ( 'NONE',  ( 1.000000000000000000, 0.0000000000000000000, -0.0000000000000000000 ) ) ;
#244 = PRESENTATION_LAYER_ASSIGNMENT (  '', '', ( #121 ) ) ;
#245 = LINE ( 'NONE', #107, #206 ) ;
#246 = CARTESIAN_POINT ( 'NONE',  ( -0.1873124999999998541, 2.293916535652885288E-17, 0.8750000000000000000 ) ) ;
#247 = DIRECTION ( 'NONE',  ( 1.000000000000000000, 0.0000000000000000000, 0.0000000000000000000 ) ) ;
#248 = CARTESIAN_POINT ( 'NONE',  ( 0.0000000000000000000, 0.0000000000000000000, 0.0000000000000000000 ) ) ;
#249 = DIRECTION ( 'NONE',  ( -1.000000000000000000, 0.0000000000000000000, 0.0000000000000000000 ) ) ;
#250 = DIRECTION ( 'NONE',  ( 0.0000000000000000000, 0.0000000000000000000, 1.000000000000000000 ) ) ;
#251 = CARTESIAN_POINT ( 'NONE',  ( 0.1724999999999995981, 2.112515728529179297E-17, 2.500000000000000000 ) ) ;
#252 = CARTESIAN_POINT ( 'NONE',  ( 0.1875000000000000278, 2.296212748401287726E-17, 2.500000000000000000 ) ) ;
#253 = ADVANCED_FACE ( 'NONE', ( #334 ), #301, .T. ) ;
#254 = CIRCLE ( 'NONE', #327, 0.1875000000000000278 ) ;
#255 = MECHANICAL_DESIGN_GEOMETRIC_PRESENTATION_REPRESENTATION (  '', ( #276 ), #335 ) ;
#256 = DIRECTION ( 'NONE',  ( 1.000000000000000000, 0.0000000000000000000, 0.0000000000000000000 ) ) ;
#257 = EDGE_LOOP ( 'NONE', ( #266, #183, #80, #123 ) ) ;
#258 = MANIFOLD_SOLID_BREP ( 'Fillet1', #350 ) ;
#259 = SURFACE_STYLE_USAGE ( .BOTH. , #319 ) ;
#260 = ORIENTED_EDGE ( 'NONE', *, *, #262, .T. ) ;
#261 = ORIENTED_EDGE ( 'NONE', *, *, #9, .T. ) ;
#262 = EDGE_CURVE ( 'NONE', #297, #351, #207, .T. ) ;
#263 = DIRECTION ( 'NONE',  ( 0.0000000000000000000, 0.0000000000000000000, 1.000000000000000000 ) ) ;
#264 = AXIS2_PLACEMENT_3D ( 'NONE', #212, #132, #12 ) ;
#265 = VECTOR ( 'NONE', #73, 39.37007874015748143 ) ;
#266 = ORIENTED_EDGE ( 'NONE', *, *, #70, .F. ) ;
#267 = ADVANCED_FACE ( 'NONE', ( #95 ), #142, .T. ) ;
#268 = LINE ( 'NONE', #147, #88 ) ;
#269 = VERTEX_POINT ( 'NONE', #44 ) ;
#270 = DIMENSIONAL_EXPONENTS ( 1.000000000000000000, 0.0000000000000000000, 0.0000000000000000000, 0.0000000000000000000, 0.0000000000000000000, 0.0000000000000000000, 0.0000000000000000000 ) ;
#271 = LENGTH_MEASURE_WITH_UNIT ( LENGTH_MEASURE( 0.02539999999999999897 ), #3 );
#272 = DIRECTION ( 'NONE',  ( 0.7071067811865385799, 8.659560562354823157E-17, -0.7071067811865563435 ) ) ;
#273 = DIRECTION ( 'NONE',  ( -0.0000000000000000000, -0.0000000000000000000, -1.000000000000000000 ) ) ;
#274 =( GEOMETRIC_REPRESENTATION_CONTEXT ( 3 ) GLOBAL_UNCERTAINTY_ASSIGNED_CONTEXT ( ( #170 ) ) GLOBAL_UNIT_ASSIGNED_CONTEXT ( ( #34, #155, #130 ) ) REPRESENTATION_CONTEXT ( 'NONE', 'WORKASPACE' ) );
#275 = CARTESIAN_POINT ( 'NONE',  ( 1.224646799147353384E-18, 0.0000000000000000000, 0.01000000000000000021 ) ) ;
#276 = STYLED_ITEM ( 'NONE', ( #29 ), #111 ) ;
#277 = DIRECTION ( 'NONE',  ( -1.000000000000000000, 0.0000000000000000000, 0.0000000000000000000 ) ) ;
#278 = DIRECTION ( 'NONE',  ( 1.224646799147353207E-16, 1.000000000000000000, -0.0000000000000000000 ) ) ;
#279 = EDGE_CURVE ( 'NONE', #297, #99, #280, .T. ) ;
#280 = LINE ( 'NONE', #252, #265 ) ;
#281 = LINE ( 'NONE', #251, #163 ) ;
#282 = AXIS2_PLACEMENT_3D ( 'NONE', #45, #94, #196 ) ;
#283 = EDGE_LOOP ( 'NONE', ( #239, #119, #296, #148 ) ) ;
#284 = PRODUCT ( 'Micro_GEC-375-2-010X', 'Micro_GEC-375-2-010X', '', ( #175 ) ) ;
#285 = EDGE_CURVE ( 'NONE', #99, #4, #215, .T. ) ;
#286 = CARTESIAN_POINT ( 'NONE',  ( 1.224646799147353384E-18, 0.0000000000000000000, 0.01000000000000000021 ) ) ;
#287 = DIRECTION ( 'NONE',  ( -1.000000000000000000, 0.0000000000000000000, 1.224646799147352961E-16 ) ) ;
#288 = ORIENTED_EDGE ( 'NONE', *, *, #131, .F. ) ;
#289 = DIRECTION ( 'NONE',  ( -0.0000000000000000000, -0.0000000000000000000, -1.000000000000000000 ) ) ;
#290 = CARTESIAN_POINT ( 'NONE',  ( 1.072868196215332765E-16, 0.0000000000000000000, 0.8760633653411785682 ) ) ;
#291 = FILL_AREA_STYLE ('',( #204 ) ) ;
#292 = EDGE_CURVE ( 'NONE', #337, #103, #31, .T. ) ;
#293 = CARTESIAN_POINT ( 'NONE',  ( 1.224646799147353384E-18, 0.0000000000000000000, 0.0000000000000000000 ) ) ;
#294 = DIRECTION ( 'NONE',  ( 0.0000000000000000000, 0.0000000000000000000, -1.000000000000000000 ) ) ;
#295 = ORIENTED_EDGE ( 'NONE', *, *, #50, .T. ) ;
#296 = ORIENTED_EDGE ( 'NONE', *, *, #22, .T. ) ;
#297 = VERTEX_POINT ( 'NONE', #114 ) ;
#298 = ADVANCED_FACE ( 'NONE', ( #137 ), #168, .T. ) ;
#299 = FILL_AREA_STYLE ('',( #331 ) ) ;
#300 = FACE_OUTER_BOUND ( 'NONE', #1, .T. ) ;
#301 = PLANE ( 'NONE',  #104 ) ;
#302 = CIRCLE ( 'NONE', #177, 0.1773124999999999840 ) ;
#303 = DIRECTION ( 'NONE',  ( -1.000000000000000000, 0.0000000000000000000, 0.0000000000000000000 ) ) ;
#304 = CONICAL_SURFACE ( 'NONE', #309, 0.1873124999999999374, 0.1745329251994340025 ) ;
#305 = CARTESIAN_POINT ( 'NONE',  ( 0.0000000000000000000, 0.0000000000000000000, 2.484999999999999432 ) ) ;
#306 = CARTESIAN_POINT ( 'NONE',  ( 1.224646799147353577E-18, 0.0000000000000000000, 0.01000000000000000194 ) ) ;
#307 = CARTESIAN_POINT ( 'NONE',  ( 1.071565949253934025E-16, 0.0000000000000000000, 0.8750000000000000000 ) ) ;
#308 = AXIS2_PLACEMENT_3D ( 'NONE', #10, #190, #110 ) ;
#309 = AXIS2_PLACEMENT_3D ( 'NONE', #140, #165, #229 ) ;
#310 = CARTESIAN_POINT ( 'NONE',  ( 0.0000000000000000000, 0.0000000000000000000, 2.500000000000000000 ) ) ;
#311 = CARTESIAN_POINT ( 'NONE',  ( 0.0000000000000000000, 0.0000000000000000000, 2.500000000000000000 ) ) ;
#312 = ORIENTED_EDGE ( 'NONE', *, *, #324, .T. ) ;
#313 = ORIENTED_EDGE ( 'NONE', *, *, #228, .T. ) ;
#314 = CIRCLE ( 'NONE', #117, 0.1873124999999999929 ) ;
#315 =( NAMED_UNIT ( * ) PLANE_ANGLE_UNIT ( ) SI_UNIT ( $, .RADIAN. ) );
#316 = SHAPE_DEFINITION_REPRESENTATION ( #226, #111 ) ;
#317 = UNCERTAINTY_MEASURE_WITH_UNIT (LENGTH_MEASURE( 1.000000000000000082E-05 ), #236, 'distance_accuracy_value', 'NONE');
#318 = DIRECTION ( 'NONE',  ( 0.0000000000000000000, -1.000000000000000000, 0.0000000000000000000 ) ) ;
#319 = SURFACE_SIDE_STYLE ('',( #321 ) ) ;
#320 = CIRCLE ( 'NONE', #162, 0.009999999999999995004 ) ;
#321 = SURFACE_STYLE_FILL_AREA ( #291 ) ;
#322 = ORIENTED_EDGE ( 'NONE', *, *, #78, .F. ) ;
#323 = ORIENTED_EDGE ( 'NONE', *, *, #51, .F. ) ;
#324 = EDGE_CURVE ( 'NONE', #32, #238, #79, .T. ) ;
#325 = VERTEX_POINT ( 'NONE', #227 ) ;
#326 = APPLICATION_CONTEXT ( 'automotive_design' ) ;
#327 = AXIS2_PLACEMENT_3D ( 'NONE', #290, #27, #174 ) ;
#328 = DIRECTION ( 'NONE',  ( -1.224646799147353207E-16, -0.0000000000000000000, -1.000000000000000000 ) ) ;
#329 = CIRCLE ( 'NONE', #221, 0.1873124999999999374 ) ;
#330 = DIRECTION ( 'NONE',  ( -0.7071067811865385799, 0.0000000000000000000, -0.7071067811865563435 ) ) ;
#331 = FILL_AREA_STYLE_COLOUR ( '', #141 ) ;
#332 = DIRECTION ( 'NONE',  ( 1.000000000000000000, 0.0000000000000000000, 0.0000000000000000000 ) ) ;
#333 = DIRECTION ( 'NONE',  ( 1.000000000000000000, 0.0000000000000000000, -0.0000000000000000000 ) ) ;
#334 = FACE_OUTER_BOUND ( 'NONE', #179, .T. ) ;
#335 =( GEOMETRIC_REPRESENTATION_CONTEXT ( 3 ) GLOBAL_UNCERTAINTY_ASSIGNED_CONTEXT ( ( #317 ) ) GLOBAL_UNIT_ASSIGNED_CONTEXT ( ( #236, #146, #210 ) ) REPRESENTATION_CONTEXT ( 'NONE', 'WORKASPACE' ) );
#336 = DIRECTION ( 'NONE',  ( -1.000000000000000000, 0.0000000000000000000, 1.224646799147352961E-16 ) ) ;
#337 = VERTEX_POINT ( 'NONE', #92 ) ;
#338 =( NAMED_UNIT ( * ) SI_UNIT ( $, .STERADIAN. ) SOLID_ANGLE_UNIT ( ) );
#339 = EDGE_CURVE ( 'NONE', #58, #269, #237, .T. ) ;
#340 = APPLICATION_PROTOCOL_DEFINITION ( 'draft international standard', 'automotive_design', 1998, #225 ) ;
#341 = ORIENTED_EDGE ( 'NONE', *, *, #9, .F. ) ;
#342 = CARTESIAN_POINT ( 'NONE',  ( 1.071565949253934025E-16, 0.0000000000000000000, 0.8750000000000000000 ) ) ;
#343 = ORIENTED_EDGE ( 'NONE', *, *, #339, .F. ) ;
#344 = ADVANCED_FACE ( 'NONE', ( #198 ), #49, .T. ) ;
#345 = CARTESIAN_POINT ( 'NONE',  ( 0.0000000000000000000, 0.0000000000000000000, 0.0000000000000000000 ) ) ;
#346 = CARTESIAN_POINT ( 'NONE',  ( 0.1875000000000000833, 2.296212748401288650E-17, 0.8760633653411785682 ) ) ;
#347 = ORIENTED_EDGE ( 'NONE', *, *, #159, .T. ) ;
#348 = ADVANCED_FACE ( 'NONE', ( #20 ), #304, .T. ) ;
#349 = VECTOR ( 'NONE', #330, 39.37007874015748854 ) ;
#350 = CLOSED_SHELL ( 'NONE', ( #267, #298, #205, #201, #134, #344, #253, #42, #348, #181, #139, #2 ) ) ;
#351 = VERTEX_POINT ( 'NONE', #144 ) ;
ENDSEC;
END-ISO-10303-21;
