ISO-10303-21;
HEADER;
FILE_DESCRIPTION (( 'STEP AP214' ),
    '1' );
FILE_NAME ('30227.STEP',
    '2023-06-22T18:10:41',
    ( '' ),
    ( '' ),
    'SwSTEP 2.0',
    'SolidWorks 2023',
    '' );
FILE_SCHEMA (( 'AUTOMOTIVE_DESIGN' ));
ENDSEC;

DATA;
#1 = DIRECTION ( 'NONE',  ( -1.000000000000000000, 0.000000000000000000, 0.000000000000000000 ) ) ;
#2 = EDGE_CURVE ( 'NONE', #53, #194, #215, .T. ) ;
#3 =( GEOMETRIC_REPRESENTATION_CONTEXT ( 3 ) GLOBAL_UNCERTAINTY_ASSIGNED_CONTEXT ( ( #82 ) ) GLOBAL_UNIT_ASSIGNED_CONTEXT ( ( #135, #217, #121 ) ) REPRESENTATION_CONTEXT ( 'NONE', 'WORKASPACE' ) );
#4 = ORIENTED_EDGE ( 'NONE', *, *, #176, .F. ) ;
#5 = ORIENTED_EDGE ( 'NONE', *, *, #157, .T. ) ;
#6 = ORIENTED_EDGE ( 'NONE', *, *, #132, .F. ) ;
#7 = STYLED_ITEM ( 'NONE', ( #119 ), #129 ) ;
#8 = STYLED_ITEM ( 'NONE', ( #33 ), #272 ) ;
#9 = ORIENTED_EDGE ( 'NONE', *, *, #239, .F. ) ;
#10 = PRESENTATION_STYLE_ASSIGNMENT (( #125 ) ) ;
#11 = ORIENTED_EDGE ( 'NONE', *, *, #182, .T. ) ;
#12 = CARTESIAN_POINT ( 'NONE',  ( 5.207499245353677666E-34, 0.5000000000000000000, 0.000000000000000000 ) ) ;
#13 = DIRECTION ( 'NONE',  ( 0.000000000000000000, 1.000000000000000000, 0.000000000000000000 ) ) ;
#14 = AXIS2_PLACEMENT_3D ( 'NONE', #148, #249, #106 ) ;
#15 =( GEOMETRIC_REPRESENTATION_CONTEXT ( 3 ) GLOBAL_UNCERTAINTY_ASSIGNED_CONTEXT ( ( #143 ) ) GLOBAL_UNIT_ASSIGNED_CONTEXT ( ( #85, #271, #147 ) ) REPRESENTATION_CONTEXT ( 'NONE', 'WORKASPACE' ) );
#16 = SURFACE_SIDE_STYLE ('',( #114 ) ) ;
#17 =( NAMED_UNIT ( * ) PLANE_ANGLE_UNIT ( ) SI_UNIT ( $, .RADIAN. ) );
#18 = PRODUCT ( '30227', '30227', '', ( #93 ) ) ;
#19 = EDGE_CURVE ( 'NONE', #51, #81, #301, .T. ) ;
#20 = CIRCLE ( 'NONE', #308, 0.1562500000000000000 ) ;
#21 =( CONVERSION_BASED_UNIT ( 'INCH', #237 ) LENGTH_UNIT ( ) NAMED_UNIT ( #131 ) );
#22 = AXIS2_PLACEMENT_3D ( 'NONE', #181, #276, #1 ) ;
#23 = DIRECTION ( 'NONE',  ( 8.164311994315692567E-17, 1.000000000000000000, -0.000000000000000000 ) ) ;
#24 = VERTEX_POINT ( 'NONE', #68 ) ;
#25 = ORIENTED_EDGE ( 'NONE', *, *, #299, .T. ) ;
#26 = SURFACE_SIDE_STYLE ('',( #28 ) ) ;
#27 = EDGE_LOOP ( 'NONE', ( #140, #241, #6, #57 ) ) ;
#28 = SURFACE_STYLE_FILL_AREA ( #204 ) ;
#29 = AXIS2_PLACEMENT_3D ( 'NONE', #254, #80, #62 ) ;
#30 = CARTESIAN_POINT ( 'NONE',  ( 0.000000000000000000, 0.5000000000000000000, 0.000000000000000000 ) ) ;
#31 = DIRECTION ( 'NONE',  ( 1.000000000000000000, -8.164311994315692567E-17, 0.000000000000000000 ) ) ;
#32 = ADVANCED_FACE ( 'NONE', ( #96 ), #205, .T. ) ;
#33 = PRESENTATION_STYLE_ASSIGNMENT (( #252 ) ) ;
#34 =( CONVERSION_BASED_UNIT ( 'INCH', #88 ) LENGTH_UNIT ( ) NAMED_UNIT ( #39 ) );
#35 = FACE_OUTER_BOUND ( 'NONE', #200, .T. ) ;
#36 = STYLED_ITEM ( 'NONE', ( #305 ), #109 ) ;
#37 =( GEOMETRIC_REPRESENTATION_CONTEXT ( 3 ) GLOBAL_UNCERTAINTY_ASSIGNED_CONTEXT ( ( #134 ) ) GLOBAL_UNIT_ASSIGNED_CONTEXT ( ( #69, #17, #284 ) ) REPRESENTATION_CONTEXT ( 'NONE', 'WORKASPACE' ) );
#38 =( LENGTH_UNIT ( ) NAMED_UNIT ( * ) SI_UNIT ( $, .METRE. ) );
#39 = DIMENSIONAL_EXPONENTS ( 1.000000000000000000, 0.000000000000000000, 0.000000000000000000, 0.000000000000000000, 0.000000000000000000, 0.000000000000000000, 0.000000000000000000 ) ;
#40 =( GEOMETRIC_REPRESENTATION_CONTEXT ( 3 ) GLOBAL_UNCERTAINTY_ASSIGNED_CONTEXT ( ( #261 ) ) GLOBAL_UNIT_ASSIGNED_CONTEXT ( ( #238, #94, #126 ) ) REPRESENTATION_CONTEXT ( 'NONE', 'WORKASPACE' ) );
#41 = CIRCLE ( 'NONE', #103, 0.1562500000000000000 ) ;
#42 = LENGTH_MEASURE_WITH_UNIT ( LENGTH_MEASURE( 0.02539999999999999897 ), #123 );
#43 =( LENGTH_UNIT ( ) NAMED_UNIT ( * ) SI_UNIT ( $, .METRE. ) );
#44 = APPLICATION_CONTEXT ( 'automotive_design' ) ;
#45 = FILL_AREA_STYLE_COLOUR ( '', #162 ) ;
#46 = LENGTH_MEASURE_WITH_UNIT ( LENGTH_MEASURE( 0.02539999999999999897 ), #144 );
#47 =( NAMED_UNIT ( * ) PLANE_ANGLE_UNIT ( ) SI_UNIT ( $, .RADIAN. ) );
#48 = ORIENTED_EDGE ( 'NONE', *, *, #2, .T. ) ;
#49 = UNCERTAINTY_MEASURE_WITH_UNIT (LENGTH_MEASURE( 1.000000000000000082E-05 ), #21, 'distance_accuracy_value', 'NONE');
#50 = SURFACE_SIDE_STYLE ('',( #289 ) ) ;
#51 = VERTEX_POINT ( 'NONE', #206 ) ;
#52 = SURFACE_SIDE_STYLE ('',( #267 ) ) ;
#53 = VERTEX_POINT ( 'NONE', #151 ) ;
#54 = EDGE_CURVE ( 'NONE', #146, #81, #115, .T. ) ;
#55 = DIRECTION ( 'NONE',  ( -1.000000000000000000, 8.164311994315692567E-17, 0.000000000000000000 ) ) ;
#56 = FILL_AREA_STYLE ('',( #279 ) ) ;
#57 = ORIENTED_EDGE ( 'NONE', *, *, #75, .F. ) ;
#58 = COLOUR_RGB ( '',1.000000000000000000, 0.000000000000000000, 0.000000000000000000 ) ;
#59 = DIRECTION ( 'NONE',  ( 8.164311994315692567E-17, 1.000000000000000000, -0.000000000000000000 ) ) ;
#60 = AXIS2_PLACEMENT_3D ( 'NONE', #30, #13, #196 ) ;
#61 = DIMENSIONAL_EXPONENTS ( 1.000000000000000000, 0.000000000000000000, 0.000000000000000000, 0.000000000000000000, 0.000000000000000000, 0.000000000000000000, 0.000000000000000000 ) ;
#62 = DIRECTION ( 'NONE',  ( -1.000000000000000000, 0.000000000000000000, 0.000000000000000000 ) ) ;
#63 = SURFACE_STYLE_USAGE ( .BOTH. , #16 ) ;
#64 = SURFACE_STYLE_FILL_AREA ( #56 ) ;
#65 = SURFACE_SIDE_STYLE ('',( #73 ) ) ;
#66 = MECHANICAL_DESIGN_GEOMETRIC_PRESENTATION_REPRESENTATION (  '', ( #36 ), #187 ) ;
#67 = PRODUCT_DEFINITION_FORMATION_WITH_SPECIFIED_SOURCE ( 'ANY', '', #18, .NOT_KNOWN. ) ;
#68 = CARTESIAN_POINT ( 'NONE',  ( 0.000000000000000000, 0.5000000000000000000, -0.1562500000000000000 ) ) ;
#69 =( CONVERSION_BASED_UNIT ( 'INCH', #42 ) LENGTH_UNIT ( ) NAMED_UNIT ( #87 ) );
#70 = DIRECTION ( 'NONE',  ( 0.000000000000000000, 0.000000000000000000, 1.000000000000000000 ) ) ;
#71 = DIRECTION ( 'NONE',  ( 0.000000000000000000, 0.000000000000000000, -1.000000000000000000 ) ) ;
#72 = AXIS2_PLACEMENT_3D ( 'NONE', #183, #219, #184 ) ;
#73 = SURFACE_STYLE_FILL_AREA ( #228 ) ;
#74 = FACE_OUTER_BOUND ( 'NONE', #243, .T. ) ;
#75 = EDGE_CURVE ( 'NONE', #24, #194, #282, .T. ) ;
#76 = LINE ( 'NONE', #166, #223 ) ;
#77 = CIRCLE ( 'NONE', #212, 0.1562500000000000000 ) ;
#78 = DIRECTION ( 'NONE',  ( 8.164311994315692567E-17, 1.000000000000000000, -0.000000000000000000 ) ) ;
#79 = FILL_AREA_STYLE_COLOUR ( '', #229 ) ;
#80 = DIRECTION ( 'NONE',  ( 8.164311994315692567E-17, 1.000000000000000000, -0.000000000000000000 ) ) ;
#81 = VERTEX_POINT ( 'NONE', #211 ) ;
#82 = UNCERTAINTY_MEASURE_WITH_UNIT (LENGTH_MEASURE( 1.000000000000000082E-05 ), #135, 'distance_accuracy_value', 'NONE');
#83 = CARTESIAN_POINT ( 'NONE',  ( 1.224646799147353700E-16, 2.000000000000000000, 0.000000000000000000 ) ) ;
#84 = DIRECTION ( 'NONE',  ( -0.000000000000000000, -1.000000000000000000, -0.000000000000000000 ) ) ;
#85 =( CONVERSION_BASED_UNIT ( 'INCH', #227 ) LENGTH_UNIT ( ) NAMED_UNIT ( #307 ) );
#86 = AXIS2_PLACEMENT_3D ( 'NONE', #156, #70, #232 ) ;
#87 = DIMENSIONAL_EXPONENTS ( 1.000000000000000000, 0.000000000000000000, 0.000000000000000000, 0.000000000000000000, 0.000000000000000000, 0.000000000000000000, 0.000000000000000000 ) ;
#88 = LENGTH_MEASURE_WITH_UNIT ( LENGTH_MEASURE( 0.02539999999999999897 ), #43 );
#89 = ADVANCED_FACE ( 'NONE', ( #226 ), #304, .F. ) ;
#90 = DIRECTION ( 'NONE',  ( 8.164311994315692567E-17, 1.000000000000000000, -0.000000000000000000 ) ) ;
#91 = MECHANICAL_DESIGN_GEOMETRIC_PRESENTATION_REPRESENTATION (  '', ( #7 ), #3 ) ;
#92 = DIRECTION ( 'NONE',  ( -1.000000000000000000, 0.000000000000000000, 0.000000000000000000 ) ) ;
#93 = PRODUCT_CONTEXT ( 'NONE', #185, 'mechanical' ) ;
#94 =( NAMED_UNIT ( * ) PLANE_ANGLE_UNIT ( ) SI_UNIT ( $, .RADIAN. ) );
#95 = MECHANICAL_DESIGN_GEOMETRIC_PRESENTATION_REPRESENTATION (  '', ( #255 ), #15 ) ;
#96 = FACE_OUTER_BOUND ( 'NONE', #266, .T. ) ;
#97 = DIRECTION ( 'NONE',  ( -0.000000000000000000, -1.000000000000000000, -0.000000000000000000 ) ) ;
#98 = FILL_AREA_STYLE ('',( #79 ) ) ;
#99 = CARTESIAN_POINT ( 'NONE',  ( 0.1562500000000000833, 2.000000000000000000, 1.913510623667738539E-17 ) ) ;
#100 = PLANE ( 'NONE',  #72 ) ;
#101 = PRODUCT_DEFINITION_CONTEXT ( 'detailed design', #44, 'design' ) ;
#102 = EDGE_LOOP ( 'NONE', ( #170, #4 ) ) ;
#103 = AXIS2_PLACEMENT_3D ( 'NONE', #250, #230, #171 ) ;
#104 = ORIENTED_EDGE ( 'NONE', *, *, #19, .T. ) ;
#105 = FILL_AREA_STYLE_COLOUR ( '', #168 ) ;
#106 = DIRECTION ( 'NONE',  ( 0.000000000000000000, 0.000000000000000000, -1.000000000000000000 ) ) ;
#107 = DIRECTION ( 'NONE',  ( 0.000000000000000000, 0.000000000000000000, -1.000000000000000000 ) ) ;
#108 =( NAMED_UNIT ( * ) PLANE_ANGLE_UNIT ( ) SI_UNIT ( $, .RADIAN. ) );
#109 = MANIFOLD_SOLID_BREP ( 'Revolve - Tool Body (Straight Shanked)', #207 ) ;
#110 = DIRECTION ( 'NONE',  ( -1.000000000000000000, 0.000000000000000000, 0.000000000000000000 ) ) ;
#111 = AXIS2_PLACEMENT_3D ( 'NONE', #213, #97, #191 ) ;
#112 = DIRECTION ( 'NONE',  ( -0.000000000000000000, -1.000000000000000000, -0.000000000000000000 ) ) ;
#113 = ADVANCED_FACE ( 'NONE', ( #280 ), #133, .T. ) ;
#114 = SURFACE_STYLE_FILL_AREA ( #231 ) ;
#115 = CIRCLE ( 'NONE', #22, 0.1562499999999998612 ) ;
#116 = DIMENSIONAL_EXPONENTS ( 1.000000000000000000, 0.000000000000000000, 0.000000000000000000, 0.000000000000000000, 0.000000000000000000, 0.000000000000000000, 0.000000000000000000 ) ;
#117 = DIRECTION ( 'NONE',  ( -0.000000000000000000, -1.000000000000000000, -0.000000000000000000 ) ) ;
#118 = CARTESIAN_POINT ( 'NONE',  ( 0.000000000000000000, 0.000000000000000000, -0.1562500000000000000 ) ) ;
#119 = PRESENTATION_STYLE_ASSIGNMENT (( #265 ) ) ;
#120 = PLANE ( 'NONE',  #60 ) ;
#121 =( NAMED_UNIT ( * ) SI_UNIT ( $, .STERADIAN. ) SOLID_ANGLE_UNIT ( ) );
#122 = ORIENTED_EDGE ( 'NONE', *, *, #75, .T. ) ;
#123 =( LENGTH_UNIT ( ) NAMED_UNIT ( * ) SI_UNIT ( $, .METRE. ) );
#124 = VERTEX_POINT ( 'NONE', #292 ) ;
#125 = SURFACE_STYLE_USAGE ( .BOTH. , #26 ) ;
#126 =( NAMED_UNIT ( * ) SI_UNIT ( $, .STERADIAN. ) SOLID_ANGLE_UNIT ( ) );
#127 = COLOUR_RGB ( '',0.7921568627450980005, 0.8196078431372548767, 0.9333333333333333481 ) ;
#128 = FACE_OUTER_BOUND ( 'NONE', #102, .T. ) ;
#129 = ADVANCED_FACE ( 'NONE', ( #189 ), #100, .T. ) ;
#130 =( NAMED_UNIT ( * ) PLANE_ANGLE_UNIT ( ) SI_UNIT ( $, .RADIAN. ) );
#131 = DIMENSIONAL_EXPONENTS ( 1.000000000000000000, 0.000000000000000000, 0.000000000000000000, 0.000000000000000000, 0.000000000000000000, 0.000000000000000000, 0.000000000000000000 ) ;
#132 = EDGE_CURVE ( 'NONE', #194, #53, #242, .T. ) ;
#133 = CYLINDRICAL_SURFACE ( 'NONE', #274, 0.1562500000000000000 ) ;
#134 = UNCERTAINTY_MEASURE_WITH_UNIT (LENGTH_MEASURE( 1.000000000000000082E-05 ), #69, 'distance_accuracy_value', 'NONE');
#135 =( CONVERSION_BASED_UNIT ( 'INCH', #294 ) LENGTH_UNIT ( ) NAMED_UNIT ( #153 ) );
#136 = STYLED_ITEM ( 'NONE', ( #257 ), #113 ) ;
#137 = AXIS2_PLACEMENT_3D ( 'NONE', #270, #246, #110 ) ;
#138 =( CONVERSION_BASED_UNIT ( 'INCH', #46 ) LENGTH_UNIT ( ) NAMED_UNIT ( #116 ) );
#139 = FILL_AREA_STYLE ('',( #45 ) ) ;
#140 = ORIENTED_EDGE ( 'NONE', *, *, #179, .T. ) ;
#141 = EDGE_CURVE ( 'NONE', #124, #53, #76, .T. ) ;
#142 =( LENGTH_UNIT ( ) NAMED_UNIT ( * ) SI_UNIT ( $, .METRE. ) );
#143 = UNCERTAINTY_MEASURE_WITH_UNIT (LENGTH_MEASURE( 1.000000000000000082E-05 ), #85, 'distance_accuracy_value', 'NONE');
#144 =( LENGTH_UNIT ( ) NAMED_UNIT ( * ) SI_UNIT ( $, .METRE. ) );
#145 = CARTESIAN_POINT ( 'NONE',  ( -0.1562500000000000000, 0.5000000000000001110, 0.000000000000000000 ) ) ;
#146 = VERTEX_POINT ( 'NONE', #161 ) ;
#147 =( NAMED_UNIT ( * ) SI_UNIT ( $, .STERADIAN. ) SOLID_ANGLE_UNIT ( ) );
#148 = CARTESIAN_POINT ( 'NONE',  ( 0.000000000000000000, 0.000000000000000000, 0.000000000000000000 ) ) ;
#149 = STYLED_ITEM ( 'NONE', ( #244 ), #160 ) ;
#150 = CARTESIAN_POINT ( 'NONE',  ( 0.000000000000000000, 0.000000000000000000, -0.1562500000000000000 ) ) ;
#151 = CARTESIAN_POINT ( 'NONE',  ( 1.913510623667739463E-17, 0.000000000000000000, 0.1562500000000000000 ) ) ;
#152 = SURFACE_STYLE_USAGE ( .BOTH. , #65 ) ;
#153 = DIMENSIONAL_EXPONENTS ( 1.000000000000000000, 0.000000000000000000, 0.000000000000000000, 0.000000000000000000, 0.000000000000000000, 0.000000000000000000, 0.000000000000000000 ) ;
#154 = MECHANICAL_DESIGN_GEOMETRIC_PRESENTATION_REPRESENTATION (  '', ( #149 ), #291 ) ;
#155 = CARTESIAN_POINT ( 'NONE',  ( 0.1562500000000000000, 2.000000000000000000, 0.000000000000000000 ) ) ;
#156 = CARTESIAN_POINT ( 'NONE',  ( 0.000000000000000000, 0.000000000000000000, 0.000000000000000000 ) ) ;
#157 = EDGE_CURVE ( 'NONE', #245, #146, #240, .T. ) ;
#158 = CARTESIAN_POINT ( 'NONE',  ( 0.000000000000000000, 0.000000000000000000, 0.000000000000000000 ) ) ;
#159 = PRESENTATION_LAYER_ASSIGNMENT (  '', '', ( #136 ) ) ;
#160 = ADVANCED_FACE ( 'NONE', ( #74 ), #120, .T. ) ;
#161 = CARTESIAN_POINT ( 'NONE',  ( -0.1562499999999997224, 2.000000000000000000, 0.000000000000000000 ) ) ;
#162 = COLOUR_RGB ( '',1.000000000000000000, 0.000000000000000000, 0.000000000000000000 ) ;
#163 = VECTOR ( 'NONE', #78, 39.37007874015748143 ) ;
#164 = DIRECTION ( 'NONE',  ( -0.000000000000000000, -1.000000000000000000, -0.000000000000000000 ) ) ;
#165 = EDGE_LOOP ( 'NONE', ( #269, #11 ) ) ;
#166 = CARTESIAN_POINT ( 'NONE',  ( 1.913510623667739463E-17, 0.000000000000000000, 0.1562500000000000000 ) ) ;
#167 = ORIENTED_EDGE ( 'NONE', *, *, #239, .T. ) ;
#168 = COLOUR_RGB ( '',0.7921568627450980005, 0.8196078431372548767, 0.9333333333333333481 ) ;
#169 = DIRECTION ( 'NONE',  ( 8.164311994315692567E-17, 1.000000000000000000, -0.000000000000000000 ) ) ;
#170 = ORIENTED_EDGE ( 'NONE', *, *, #299, .F. ) ;
#171 = DIRECTION ( 'NONE',  ( 0.000000000000000000, 0.000000000000000000, -1.000000000000000000 ) ) ;
#172 = FILL_AREA_STYLE_COLOUR ( '', #127 ) ;
#173 = UNCERTAINTY_MEASURE_WITH_UNIT (LENGTH_MEASURE( 1.000000000000000082E-05 ), #138, 'distance_accuracy_value', 'NONE');
#174 = CYLINDRICAL_SURFACE ( 'NONE', #236, 0.1562500000000000000 ) ;
#175 =( NAMED_UNIT ( * ) SI_UNIT ( $, .STERADIAN. ) SOLID_ANGLE_UNIT ( ) );
#176 = EDGE_CURVE ( 'NONE', #51, #245, #268, .T. ) ;
#177 = PRESENTATION_LAYER_ASSIGNMENT (  '', '', ( #7 ) ) ;
#178 = PRESENTATION_LAYER_ASSIGNMENT (  '', '', ( #255 ) ) ;
#179 = EDGE_CURVE ( 'NONE', #24, #124, #41, .T. ) ;
#180 = VECTOR ( 'NONE', #23, 39.37007874015748143 ) ;
#181 = CARTESIAN_POINT ( 'NONE',  ( 1.224646799147353700E-16, 2.000000000000000000, 0.000000000000000000 ) ) ;
#182 = EDGE_CURVE ( 'NONE', #81, #146, #195, .T. ) ;
#183 = CARTESIAN_POINT ( 'NONE',  ( 0.000000000000000000, 0.000000000000000000, 0.000000000000000000 ) ) ;
#184 = DIRECTION ( 'NONE',  ( 0.000000000000000000, 0.000000000000000000, -1.000000000000000000 ) ) ;
#185 = APPLICATION_CONTEXT ( 'automotive_design' ) ;
#186 = ADVANCED_FACE ( 'NONE', ( #35 ), #221, .T. ) ;
#187 =( GEOMETRIC_REPRESENTATION_CONTEXT ( 3 ) GLOBAL_UNCERTAINTY_ASSIGNED_CONTEXT ( ( #288 ) ) GLOBAL_UNIT_ASSIGNED_CONTEXT ( ( #34, #108, #175 ) ) REPRESENTATION_CONTEXT ( 'NONE', 'WORKASPACE' ) );
#188 = COLOUR_RGB ( '',1.000000000000000000, 0.000000000000000000, 0.000000000000000000 ) ;
#189 = FACE_OUTER_BOUND ( 'NONE', #273, .T. ) ;
#190 = PRODUCT_DEFINITION ( 'UNKNOWN', '', #67, #101 ) ;
#191 = DIRECTION ( 'NONE',  ( 0.000000000000000000, 0.000000000000000000, -1.000000000000000000 ) ) ;
#192 = ORIENTED_EDGE ( 'NONE', *, *, #132, .T. ) ;
#193 = AXIS2_PLACEMENT_3D ( 'NONE', #155, #253, #31 ) ;
#194 = VERTEX_POINT ( 'NONE', #150 ) ;
#195 = CIRCLE ( 'NONE', #209, 0.1562499999999998612 ) ;
#196 = DIRECTION ( 'NONE',  ( 0.000000000000000000, -0.000000000000000000, 1.000000000000000000 ) ) ;
#197 = ORIENTED_EDGE ( 'NONE', *, *, #2, .F. ) ;
#198 = MANIFOLD_SOLID_BREP ( 'Revolve - Cutting Edge', #283 ) ;
#199 = CARTESIAN_POINT ( 'NONE',  ( 0.000000000000000000, 0.5000000000000000000, 0.000000000000000000 ) ) ;
#200 = EDGE_LOOP ( 'NONE', ( #222, #220, #5, #218 ) ) ;
#201 = FACE_OUTER_BOUND ( 'NONE', #27, .T. ) ;
#202 = ADVANCED_FACE ( 'NONE', ( #128 ), #225, .F. ) ;
#203 = PRESENTATION_LAYER_ASSIGNMENT (  '', '', ( #149 ) ) ;
#204 = FILL_AREA_STYLE ('',( #105 ) ) ;
#205 = CYLINDRICAL_SURFACE ( 'NONE', #259, 0.1562499999999999445 ) ;
#206 = CARTESIAN_POINT ( 'NONE',  ( 0.1562500000000000000, 0.5000000000000001110, 1.913510623667738847E-17 ) ) ;
#207 = CLOSED_SHELL ( 'NONE', ( #32, #202, #186, #89 ) ) ;
#208 = APPLICATION_PROTOCOL_DEFINITION ( 'draft international standard', 'automotive_design', 1998, #44 ) ;
#209 = AXIS2_PLACEMENT_3D ( 'NONE', #83, #169, #302 ) ;
#210 = CARTESIAN_POINT ( 'NONE',  ( 0.000000000000000000, 0.5000000000000001110, 0.000000000000000000 ) ) ;
#211 = CARTESIAN_POINT ( 'NONE',  ( 0.1562500000000000000, 2.000000000000000000, 1.913510623667738847E-17 ) ) ;
#212 = AXIS2_PLACEMENT_3D ( 'NONE', #210, #309, #92 ) ;
#213 = CARTESIAN_POINT ( 'NONE',  ( 0.000000000000000000, 0.000000000000000000, 0.000000000000000000 ) ) ;
#214 = SURFACE_STYLE_USAGE ( .BOTH. , #52 ) ;
#215 = CIRCLE ( 'NONE', #14, 0.1562500000000000000 ) ;
#216 = ORIENTED_EDGE ( 'NONE', *, *, #54, .F. ) ;
#217 =( NAMED_UNIT ( * ) PLANE_ANGLE_UNIT ( ) SI_UNIT ( $, .RADIAN. ) );
#218 = ORIENTED_EDGE ( 'NONE', *, *, #182, .F. ) ;
#219 = DIRECTION ( 'NONE',  ( 0.000000000000000000, -1.000000000000000000, -0.000000000000000000 ) ) ;
#220 = ORIENTED_EDGE ( 'NONE', *, *, #176, .T. ) ;
#221 = CYLINDRICAL_SURFACE ( 'NONE', #137, 0.1562499999999999445 ) ;
#222 = ORIENTED_EDGE ( 'NONE', *, *, #19, .F. ) ;
#223 = VECTOR ( 'NONE', #295, 39.37007874015748143 ) ;
#224 =( LENGTH_UNIT ( ) NAMED_UNIT ( * ) SI_UNIT ( $, .METRE. ) );
#225 = PLANE ( 'NONE',  #293 ) ;
#226 = FACE_OUTER_BOUND ( 'NONE', #165, .T. ) ;
#227 = LENGTH_MEASURE_WITH_UNIT ( LENGTH_MEASURE( 0.02539999999999999897 ), #224 );
#228 = FILL_AREA_STYLE ('',( #286 ) ) ;
#229 = COLOUR_RGB ( '',1.000000000000000000, 0.000000000000000000, 0.000000000000000000 ) ;
#230 = DIRECTION ( 'NONE',  ( -0.000000000000000000, -1.000000000000000000, -0.000000000000000000 ) ) ;
#231 = FILL_AREA_STYLE ('',( #172 ) ) ;
#232 = DIRECTION ( 'NONE',  ( 1.000000000000000000, 0.000000000000000000, 0.000000000000000000 ) ) ;
#233 = PRODUCT_DEFINITION_SHAPE ( 'NONE', 'NONE',  #190 ) ;
#234 =( LENGTH_UNIT ( ) NAMED_UNIT ( * ) SI_UNIT ( $, .METRE. ) );
#235 = MECHANICAL_DESIGN_GEOMETRIC_PRESENTATION_REPRESENTATION (  '', ( #136 ), #40 ) ;
#236 = AXIS2_PLACEMENT_3D ( 'NONE', #158, #117, #71 ) ;
#237 = LENGTH_MEASURE_WITH_UNIT ( LENGTH_MEASURE( 0.02539999999999999897 ), #234 );
#238 =( CONVERSION_BASED_UNIT ( 'INCH', #251 ) LENGTH_UNIT ( ) NAMED_UNIT ( #61 ) );
#239 = EDGE_CURVE ( 'NONE', #124, #24, #20, .T. ) ;
#240 = LINE ( 'NONE', #263, #163 ) ;
#241 = ORIENTED_EDGE ( 'NONE', *, *, #141, .T. ) ;
#242 = CIRCLE ( 'NONE', #111, 0.1562500000000000000 ) ;
#243 = EDGE_LOOP ( 'NONE', ( #296, #9 ) ) ;
#244 = PRESENTATION_STYLE_ASSIGNMENT (( #214 ) ) ;
#245 = VERTEX_POINT ( 'NONE', #145 ) ;
#246 = DIRECTION ( 'NONE',  ( 8.164311994315692567E-17, 1.000000000000000000, -0.000000000000000000 ) ) ;
#247 = ORIENTED_EDGE ( 'NONE', *, *, #157, .F. ) ;
#248 = ADVANCED_BREP_SHAPE_REPRESENTATION ( '30227', ( #198, #109, #86 ), #297 ) ;
#249 = DIRECTION ( 'NONE',  ( -0.000000000000000000, -1.000000000000000000, -0.000000000000000000 ) ) ;
#250 = CARTESIAN_POINT ( 'NONE',  ( 0.000000000000000000, 0.5000000000000000000, 0.000000000000000000 ) ) ;
#251 = LENGTH_MEASURE_WITH_UNIT ( LENGTH_MEASURE( 0.02539999999999999897 ), #38 );
#252 = SURFACE_STYLE_USAGE ( .BOTH. , #277 ) ;
#253 = DIRECTION ( 'NONE',  ( -8.164311994315692567E-17, -1.000000000000000000, 0.000000000000000000 ) ) ;
#254 = CARTESIAN_POINT ( 'NONE',  ( 0.000000000000000000, 0.5000000000000001110, 0.000000000000000000 ) ) ;
#255 = STYLED_ITEM ( 'NONE', ( #10 ), #198 ) ;
#256 = PRODUCT_RELATED_PRODUCT_CATEGORY ( 'part', '', ( #18 ) ) ;
#257 = PRESENTATION_STYLE_ASSIGNMENT (( #152 ) ) ;
#258 = APPLICATION_PROTOCOL_DEFINITION ( 'draft international standard', 'automotive_design', 1998, #185 ) ;
#259 = AXIS2_PLACEMENT_3D ( 'NONE', #306, #90, #278 ) ;
#260 =( NAMED_UNIT ( * ) SI_UNIT ( $, .STERADIAN. ) SOLID_ANGLE_UNIT ( ) );
#261 = UNCERTAINTY_MEASURE_WITH_UNIT (LENGTH_MEASURE( 1.000000000000000082E-05 ), #238, 'distance_accuracy_value', 'NONE');
#262 = CARTESIAN_POINT ( 'NONE',  ( 0.000000000000000000, 0.000000000000000000, 0.000000000000000000 ) ) ;
#263 = CARTESIAN_POINT ( 'NONE',  ( -0.1562499999999998057, 2.000000000000000000, 0.000000000000000000 ) ) ;
#264 =( NAMED_UNIT ( * ) SI_UNIT ( $, .STERADIAN. ) SOLID_ANGLE_UNIT ( ) );
#265 = SURFACE_STYLE_USAGE ( .BOTH. , #50 ) ;
#266 = EDGE_LOOP ( 'NONE', ( #25, #104, #216, #247 ) ) ;
#267 = SURFACE_STYLE_FILL_AREA ( #98 ) ;
#268 = CIRCLE ( 'NONE', #29, 0.1562500000000000000 ) ;
#269 = ORIENTED_EDGE ( 'NONE', *, *, #54, .T. ) ;
#270 = CARTESIAN_POINT ( 'NONE',  ( 1.224646799147353700E-16, 2.000000000000000000, 0.000000000000000000 ) ) ;
#271 =( NAMED_UNIT ( * ) PLANE_ANGLE_UNIT ( ) SI_UNIT ( $, .RADIAN. ) );
#272 = ADVANCED_FACE ( 'NONE', ( #201 ), #174, .T. ) ;
#273 = EDGE_LOOP ( 'NONE', ( #192, #48 ) ) ;
#274 = AXIS2_PLACEMENT_3D ( 'NONE', #262, #164, #287 ) ;
#275 = MECHANICAL_DESIGN_GEOMETRIC_PRESENTATION_REPRESENTATION (  '', ( #8 ), #37 ) ;
#276 = DIRECTION ( 'NONE',  ( 8.164311994315692567E-17, 1.000000000000000000, -0.000000000000000000 ) ) ;
#277 = SURFACE_SIDE_STYLE ('',( #64 ) ) ;
#278 = DIRECTION ( 'NONE',  ( -1.000000000000000000, 0.000000000000000000, 0.000000000000000000 ) ) ;
#279 = FILL_AREA_STYLE_COLOUR ( '', #188 ) ;
#280 = FACE_OUTER_BOUND ( 'NONE', #300, .T. ) ;
#281 = SHAPE_DEFINITION_REPRESENTATION ( #233, #248 ) ;
#282 = LINE ( 'NONE', #118, #285 ) ;
#283 = CLOSED_SHELL ( 'NONE', ( #272, #160, #113, #129 ) ) ;
#284 =( NAMED_UNIT ( * ) SI_UNIT ( $, .STERADIAN. ) SOLID_ANGLE_UNIT ( ) );
#285 = VECTOR ( 'NONE', #112, 39.37007874015748143 ) ;
#286 = FILL_AREA_STYLE_COLOUR ( '', #58 ) ;
#287 = DIRECTION ( 'NONE',  ( 0.000000000000000000, 0.000000000000000000, -1.000000000000000000 ) ) ;
#288 = UNCERTAINTY_MEASURE_WITH_UNIT (LENGTH_MEASURE( 1.000000000000000082E-05 ), #34, 'distance_accuracy_value', 'NONE');
#289 = SURFACE_STYLE_FILL_AREA ( #139 ) ;
#290 = PRESENTATION_LAYER_ASSIGNMENT (  '', '', ( #36 ) ) ;
#291 =( GEOMETRIC_REPRESENTATION_CONTEXT ( 3 ) GLOBAL_UNCERTAINTY_ASSIGNED_CONTEXT ( ( #173 ) ) GLOBAL_UNIT_ASSIGNED_CONTEXT ( ( #138, #47, #264 ) ) REPRESENTATION_CONTEXT ( 'NONE', 'WORKASPACE' ) );
#292 = CARTESIAN_POINT ( 'NONE',  ( 1.913510623667739463E-17, 0.5000000000000000000, 0.1562500000000000000 ) ) ;
#293 = AXIS2_PLACEMENT_3D ( 'NONE', #12, #59, #55 ) ;
#294 = LENGTH_MEASURE_WITH_UNIT ( LENGTH_MEASURE( 0.02539999999999999897 ), #142 );
#295 = DIRECTION ( 'NONE',  ( -0.000000000000000000, -1.000000000000000000, -0.000000000000000000 ) ) ;
#296 = ORIENTED_EDGE ( 'NONE', *, *, #179, .F. ) ;
#297 =( GEOMETRIC_REPRESENTATION_CONTEXT ( 3 ) GLOBAL_UNCERTAINTY_ASSIGNED_CONTEXT ( ( #49 ) ) GLOBAL_UNIT_ASSIGNED_CONTEXT ( ( #21, #130, #260 ) ) REPRESENTATION_CONTEXT ( 'NONE', 'WORKASPACE' ) );
#298 = ORIENTED_EDGE ( 'NONE', *, *, #141, .F. ) ;
#299 = EDGE_CURVE ( 'NONE', #245, #51, #77, .T. ) ;
#300 = EDGE_LOOP ( 'NONE', ( #298, #167, #122, #197 ) ) ;
#301 = LINE ( 'NONE', #99, #180 ) ;
#302 = DIRECTION ( 'NONE',  ( -1.000000000000000000, 0.000000000000000000, 0.000000000000000000 ) ) ;
#303 = PRESENTATION_LAYER_ASSIGNMENT (  '', '', ( #8 ) ) ;
#304 = PLANE ( 'NONE',  #193 ) ;
#305 = PRESENTATION_STYLE_ASSIGNMENT (( #63 ) ) ;
#306 = CARTESIAN_POINT ( 'NONE',  ( 1.224646799147353700E-16, 2.000000000000000000, 0.000000000000000000 ) ) ;
#307 = DIMENSIONAL_EXPONENTS ( 1.000000000000000000, 0.000000000000000000, 0.000000000000000000, 0.000000000000000000, 0.000000000000000000, 0.000000000000000000, 0.000000000000000000 ) ;
#308 = AXIS2_PLACEMENT_3D ( 'NONE', #199, #84, #107 ) ;
#309 = DIRECTION ( 'NONE',  ( 8.164311994315692567E-17, 1.000000000000000000, -0.000000000000000000 ) ) ;
ENDSEC;
END-ISO-10303-21;
