ISO-10303-21;
HEADER;
FILE_DESCRIPTION (( 'STEP AP214' ),
    '1' );
FILE_NAME ('84092.STEP',
    '2023-06-23T11:53:09',
    ( '' ),
    ( '' ),
    'SwSTEP 2.0',
    'SolidWorks 2023',
    '' );
FILE_SCHEMA (( 'AUTOMOTIVE_DESIGN' ));
ENDSEC;

DATA;
#1 = ORIENTED_EDGE ( 'NONE', *, *, #21, .T. ) ;
#2 = DIRECTION ( 'NONE',  ( -2.881521880346713429E-17, 1.000000000000000000, -0.000000000000000000 ) ) ;
#3 = AXIS2_PLACEMENT_3D ( 'NONE', #206, #146, #257 ) ;
#4 = DIRECTION ( 'NONE',  ( -2.881521880346713429E-17, 1.000000000000000000, -0.000000000000000000 ) ) ;
#5 = DIRECTION ( 'NONE',  ( -0.000000000000000000, -1.000000000000000000, -0.000000000000000000 ) ) ;
#6 = PRODUCT ( '84092', '84092', '', ( #346 ) ) ;
#7 = ORIENTED_EDGE ( 'NONE', *, *, #241, .T. ) ;
#8 = EDGE_CURVE ( 'NONE', #10, #120, #114, .T. ) ;
#9 = AXIS2_PLACEMENT_3D ( 'NONE', #189, #53, #163 ) ;
#10 = VERTEX_POINT ( 'NONE', #217 ) ;
#11 = UNCERTAINTY_MEASURE_WITH_UNIT (LENGTH_MEASURE( 1.000000000000000082E-05 ), #234, 'distance_accuracy_value', 'NONE');
#12 = DIRECTION ( 'NONE',  ( -1.000000000000000000, 0.000000000000000000, 0.000000000000000000 ) ) ;
#13 = PRESENTATION_LAYER_ASSIGNMENT (  '', '', ( #289 ) ) ;
#14 = ADVANCED_FACE ( 'NONE', ( #193 ), #215, .T. ) ;
#15 = CIRCLE ( 'NONE', #153, 0.06250000000000000000 ) ;
#16 = SURFACE_STYLE_FILL_AREA ( #349 ) ;
#17 = FACE_OUTER_BOUND ( 'NONE', #93, .T. ) ;
#18 = DIMENSIONAL_EXPONENTS ( 1.000000000000000000, 0.000000000000000000, 0.000000000000000000, 0.000000000000000000, 0.000000000000000000, 0.000000000000000000, 0.000000000000000000 ) ;
#19 = CIRCLE ( 'NONE', #299, 0.06250000000000000000 ) ;
#20 =( GEOMETRIC_REPRESENTATION_CONTEXT ( 3 ) GLOBAL_UNCERTAINTY_ASSIGNED_CONTEXT ( ( #83 ) ) GLOBAL_UNIT_ASSIGNED_CONTEXT ( ( #350, #56, #317 ) ) REPRESENTATION_CONTEXT ( 'NONE', 'WORKASPACE' ) );
#21 = EDGE_CURVE ( 'NONE', #140, #154, #187, .T. ) ;
#22 = DIRECTION ( 'NONE',  ( -0.000000000000000000, -1.000000000000000000, -0.000000000000000000 ) ) ;
#23 = CYLINDRICAL_SURFACE ( 'NONE', #333, 0.1250000000000000278 ) ;
#24 = SURFACE_STYLE_FILL_AREA ( #269 ) ;
#25 = VECTOR ( 'NONE', #158, 39.37007874015748854 ) ;
#26 = CONICAL_SURFACE ( 'NONE', #260, 0.06250000000000000000, 0.2617993877991499074 ) ;
#27 = ORIENTED_EDGE ( 'NONE', *, *, #261, .T. ) ;
#28 = ORIENTED_EDGE ( 'NONE', *, *, #220, .T. ) ;
#29 = LENGTH_MEASURE_WITH_UNIT ( LENGTH_MEASURE( 0.02539999999999999897 ), #274 );
#30 = CARTESIAN_POINT ( 'NONE',  ( -0.1250000000000001110, 2.500000000000000000, 0.000000000000000000 ) ) ;
#31 = PRESENTATION_LAYER_ASSIGNMENT (  '', '', ( #43 ) ) ;
#32 =( NAMED_UNIT ( * ) PLANE_ANGLE_UNIT ( ) SI_UNIT ( $, .RADIAN. ) );
#33 = DIRECTION ( 'NONE',  ( -1.000000000000000000, 0.000000000000000000, 0.000000000000000000 ) ) ;
#34 = UNCERTAINTY_MEASURE_WITH_UNIT (LENGTH_MEASURE( 1.000000000000000082E-05 ), #230, 'distance_accuracy_value', 'NONE');
#35 = DIRECTION ( 'NONE',  ( 0.000000000000000000, -1.000000000000000000, -0.000000000000000000 ) ) ;
#36 = LENGTH_MEASURE_WITH_UNIT ( LENGTH_MEASURE( 0.02539999999999999897 ), #119 );
#37 = ORIENTED_EDGE ( 'NONE', *, *, #311, .T. ) ;
#38 = DIRECTION ( 'NONE',  ( -2.881521880346713429E-17, 1.000000000000000000, -0.000000000000000000 ) ) ;
#39 = FACE_OUTER_BOUND ( 'NONE', #273, .T. ) ;
#40 = CARTESIAN_POINT ( 'NONE',  ( 0.1250000000000000000, 0.6082531754730543527, 1.530808498934191509E-17 ) ) ;
#41 = CARTESIAN_POINT ( 'NONE',  ( 0.000000000000000000, 0.3750000000000000555, 0.000000000000000000 ) ) ;
#42 = DIMENSIONAL_EXPONENTS ( 1.000000000000000000, 0.000000000000000000, 0.000000000000000000, 0.000000000000000000, 0.000000000000000000, 0.000000000000000000, 0.000000000000000000 ) ;
#43 = STYLED_ITEM ( 'NONE', ( #181 ), #209 ) ;
#44 = MECHANICAL_DESIGN_GEOMETRIC_PRESENTATION_REPRESENTATION (  '', ( #94 ), #248 ) ;
#45 = DIMENSIONAL_EXPONENTS ( 1.000000000000000000, 0.000000000000000000, 0.000000000000000000, 0.000000000000000000, 0.000000000000000000, 0.000000000000000000, 0.000000000000000000 ) ;
#46 = DIRECTION ( 'NONE',  ( 1.000000000000000000, 0.000000000000000000, 0.000000000000000000 ) ) ;
#47 = EDGE_CURVE ( 'NONE', #222, #252, #322, .T. ) ;
#48 = LENGTH_MEASURE_WITH_UNIT ( LENGTH_MEASURE( 0.02539999999999999897 ), #341 );
#49 = AXIS2_PLACEMENT_3D ( 'NONE', #160, #35, #339 ) ;
#50 = SURFACE_STYLE_USAGE ( .BOTH. , #52 ) ;
#51 = DIRECTION ( 'NONE',  ( -2.881521880346713429E-17, 1.000000000000000000, -0.000000000000000000 ) ) ;
#52 = SURFACE_SIDE_STYLE ('',( #24 ) ) ;
#53 = DIRECTION ( 'NONE',  ( -2.881521880346713429E-17, 1.000000000000000000, -0.000000000000000000 ) ) ;
#54 = COLOUR_RGB ( '',1.000000000000000000, 0.000000000000000000, 0.000000000000000000 ) ;
#55 = CARTESIAN_POINT ( 'NONE',  ( -0.06250000000000000000, 0.3749999999999999445, 0.000000000000000000 ) ) ;
#56 =( NAMED_UNIT ( * ) PLANE_ANGLE_UNIT ( ) SI_UNIT ( $, .RADIAN. ) );
#57 =( NAMED_UNIT ( * ) PLANE_ANGLE_UNIT ( ) SI_UNIT ( $, .RADIAN. ) );
#58 = EDGE_LOOP ( 'NONE', ( #258, #7 ) ) ;
#59 =( GEOMETRIC_REPRESENTATION_CONTEXT ( 3 ) GLOBAL_UNCERTAINTY_ASSIGNED_CONTEXT ( ( #148 ) ) GLOBAL_UNIT_ASSIGNED_CONTEXT ( ( #113, #239, #157 ) ) REPRESENTATION_CONTEXT ( 'NONE', 'WORKASPACE' ) );
#60 = DIRECTION ( 'NONE',  ( 0.000000000000000000, 0.000000000000000000, -1.000000000000000000 ) ) ;
#61 = VECTOR ( 'NONE', #137, 39.37007874015748143 ) ;
#62 = DIRECTION ( 'NONE',  ( -1.000000000000000000, 0.000000000000000000, 0.000000000000000000 ) ) ;
#63 = CYLINDRICAL_SURFACE ( 'NONE', #99, 0.06250000000000000000 ) ;
#64 = CIRCLE ( 'NONE', #213, 0.1250000000000000278 ) ;
#65 = PRODUCT_DEFINITION ( 'UNKNOWN', '', #256, #194 ) ;
#66 = FACE_OUTER_BOUND ( 'NONE', #121, .T. ) ;
#67 = CARTESIAN_POINT ( 'NONE',  ( -6.123233995736766036E-17, 2.500000000000000000, 0.000000000000000000 ) ) ;
#68 = SURFACE_SIDE_STYLE ('',( #171 ) ) ;
#69 =( CONVERSION_BASED_UNIT ( 'INCH', #36 ) LENGTH_UNIT ( ) NAMED_UNIT ( #45 ) );
#70 = UNCERTAINTY_MEASURE_WITH_UNIT (LENGTH_MEASURE( 1.000000000000000082E-05 ), #69, 'distance_accuracy_value', 'NONE');
#71 = VECTOR ( 'NONE', #5, 39.37007874015748143 ) ;
#72 = SURFACE_STYLE_USAGE ( .BOTH. , #312 ) ;
#73 = PRESENTATION_LAYER_ASSIGNMENT (  '', '', ( #182 ) ) ;
#74 = STYLED_ITEM ( 'NONE', ( #123 ), #348 ) ;
#75 = SHAPE_DEFINITION_REPRESENTATION ( #115, #106 ) ;
#76 = LENGTH_MEASURE_WITH_UNIT ( LENGTH_MEASURE( 0.02539999999999999897 ), #290 );
#77 = SURFACE_STYLE_USAGE ( .BOTH. , #280 ) ;
#78 = CARTESIAN_POINT ( 'NONE',  ( -6.123233995736766036E-17, 2.500000000000000000, 0.000000000000000000 ) ) ;
#79 = LENGTH_MEASURE_WITH_UNIT ( LENGTH_MEASURE( 0.02539999999999999897 ), #240 );
#80 = MECHANICAL_DESIGN_GEOMETRIC_PRESENTATION_REPRESENTATION (  '', ( #43 ), #126 ) ;
#81 = CARTESIAN_POINT ( 'NONE',  ( 0.000000000000000000, 0.000000000000000000, 0.000000000000000000 ) ) ;
#82 = CARTESIAN_POINT ( 'NONE',  ( 0.06250000000000000000, 0.3749999999999999445, 7.654042494670957545E-18 ) ) ;
#83 = UNCERTAINTY_MEASURE_WITH_UNIT (LENGTH_MEASURE( 1.000000000000000082E-05 ), #350, 'distance_accuracy_value', 'NONE');
#84 = SURFACE_STYLE_USAGE ( .BOTH. , #139 ) ;
#85 = DIRECTION ( 'NONE',  ( -2.881521880346713429E-17, 1.000000000000000000, -0.000000000000000000 ) ) ;
#86 = ADVANCED_FACE ( 'NONE', ( #66 ), #284, .T. ) ;
#87 = VECTOR ( 'NONE', #188, 39.37007874015748854 ) ;
#88 = MECHANICAL_DESIGN_GEOMETRIC_PRESENTATION_REPRESENTATION (  '', ( #74 ), #295 ) ;
#89 = ORIENTED_EDGE ( 'NONE', *, *, #271, .F. ) ;
#90 = CARTESIAN_POINT ( 'NONE',  ( 7.654042494670957545E-18, 0.000000000000000000, 0.06250000000000000000 ) ) ;
#91 = ADVANCED_FACE ( 'NONE', ( #195 ), #96, .T. ) ;
#92 = CARTESIAN_POINT ( 'NONE',  ( -0.1250000000000001388, 2.500000000000000000, 0.000000000000000000 ) ) ;
#93 = EDGE_LOOP ( 'NONE', ( #344, #335, #141, #174 ) ) ;
#94 = STYLED_ITEM ( 'NONE', ( #129 ), #354 ) ;
#95 = PLANE ( 'NONE',  #175 ) ;
#96 = PLANE ( 'NONE',  #219 ) ;
#97 = ORIENTED_EDGE ( 'NONE', *, *, #241, .F. ) ;
#98 = DIRECTION ( 'NONE',  ( -2.881521880346713429E-17, 1.000000000000000000, -0.000000000000000000 ) ) ;
#99 = AXIS2_PLACEMENT_3D ( 'NONE', #216, #162, #358 ) ;
#100 = SURFACE_STYLE_FILL_AREA ( #342 ) ;
#101 = SURFACE_SIDE_STYLE ('',( #231 ) ) ;
#102 =( NAMED_UNIT ( * ) SI_UNIT ( $, .STERADIAN. ) SOLID_ANGLE_UNIT ( ) );
#103 = FILL_AREA_STYLE ('',( #228 ) ) ;
#104 = VECTOR ( 'NONE', #134, 39.37007874015748143 ) ;
#105 = CARTESIAN_POINT ( 'NONE',  ( 0.000000000000000000, 0.3750000000000000555, 0.000000000000000000 ) ) ;
#106 = ADVANCED_BREP_SHAPE_REPRESENTATION ( '84092', ( #338, #218, #186 ), #320 ) ;
#107 = ADVANCED_FACE ( 'NONE', ( #267 ), #23, .T. ) ;
#108 = DIRECTION ( 'NONE',  ( -1.000000000000000000, 0.000000000000000000, 0.000000000000000000 ) ) ;
#109 = FACE_OUTER_BOUND ( 'NONE', #167, .T. ) ;
#110 = PRESENTATION_LAYER_ASSIGNMENT (  '', '', ( #74 ) ) ;
#111 = CARTESIAN_POINT ( 'NONE',  ( -0.1250000000000000000, 0.6082531754730543527, 0.000000000000000000 ) ) ;
#112 = DIRECTION ( 'NONE',  ( -0.000000000000000000, -1.000000000000000000, -0.000000000000000000 ) ) ;
#113 =( CONVERSION_BASED_UNIT ( 'INCH', #243 ) LENGTH_UNIT ( ) NAMED_UNIT ( #125 ) );
#114 = LINE ( 'NONE', #165, #319 ) ;
#115 = PRODUCT_DEFINITION_SHAPE ( 'NONE', 'NONE',  #65 ) ;
#116 = AXIS2_PLACEMENT_3D ( 'NONE', #67, #223, #166 ) ;
#117 = UNCERTAINTY_MEASURE_WITH_UNIT (LENGTH_MEASURE( 1.000000000000000082E-05 ), #135, 'distance_accuracy_value', 'NONE');
#118 = FACE_OUTER_BOUND ( 'NONE', #169, .T. ) ;
#119 =( LENGTH_UNIT ( ) NAMED_UNIT ( * ) SI_UNIT ( $, .METRE. ) );
#120 = VERTEX_POINT ( 'NONE', #356 ) ;
#121 = EDGE_LOOP ( 'NONE', ( #328, #301, #1, #245 ) ) ;
#122 = EDGE_CURVE ( 'NONE', #222, #140, #325, .T. ) ;
#123 = PRESENTATION_STYLE_ASSIGNMENT (( #77 ) ) ;
#124 = PLANE ( 'NONE',  #355 ) ;
#125 = DIMENSIONAL_EXPONENTS ( 1.000000000000000000, 0.000000000000000000, 0.000000000000000000, 0.000000000000000000, 0.000000000000000000, 0.000000000000000000, 0.000000000000000000 ) ;
#126 =( GEOMETRIC_REPRESENTATION_CONTEXT ( 3 ) GLOBAL_UNCERTAINTY_ASSIGNED_CONTEXT ( ( #34 ) ) GLOBAL_UNIT_ASSIGNED_CONTEXT ( ( #230, #128, #238 ) ) REPRESENTATION_CONTEXT ( 'NONE', 'WORKASPACE' ) );
#127 = MECHANICAL_DESIGN_GEOMETRIC_PRESENTATION_REPRESENTATION (  '', ( #227 ), #20 ) ;
#128 =( NAMED_UNIT ( * ) PLANE_ANGLE_UNIT ( ) SI_UNIT ( $, .RADIAN. ) );
#129 = PRESENTATION_STYLE_ASSIGNMENT (( #72 ) ) ;
#130 = CARTESIAN_POINT ( 'NONE',  ( 0.000000000000000000, 0.000000000000000000, 0.000000000000000000 ) ) ;
#131 = CARTESIAN_POINT ( 'NONE',  ( 7.654042494670957545E-18, 0.3750000000000000555, 0.06250000000000000000 ) ) ;
#132 = DIRECTION ( 'NONE',  ( -0.000000000000000000, -1.000000000000000000, -0.000000000000000000 ) ) ;
#133 = ORIENTED_EDGE ( 'NONE', *, *, #285, .F. ) ;
#134 = DIRECTION ( 'NONE',  ( -2.881521880346713429E-17, 1.000000000000000000, -0.000000000000000000 ) ) ;
#135 =( CONVERSION_BASED_UNIT ( 'INCH', #29 ) LENGTH_UNIT ( ) NAMED_UNIT ( #287 ) );
#136 = CIRCLE ( 'NONE', #198, 0.1250000000000000278 ) ;
#137 = DIRECTION ( 'NONE',  ( -2.881521880346713429E-17, 1.000000000000000000, -0.000000000000000000 ) ) ;
#138 = PRESENTATION_LAYER_ASSIGNMENT (  '', '', ( #94 ) ) ;
#139 = SURFACE_SIDE_STYLE ('',( #16 ) ) ;
#140 = VERTEX_POINT ( 'NONE', #265 ) ;
#141 = ORIENTED_EDGE ( 'NONE', *, *, #8, .T. ) ;
#142 = DIMENSIONAL_EXPONENTS ( 1.000000000000000000, 0.000000000000000000, 0.000000000000000000, 0.000000000000000000, 0.000000000000000000, 0.000000000000000000, 0.000000000000000000 ) ;
#143 = PRESENTATION_STYLE_ASSIGNMENT (( #282 ) ) ;
#144 = CIRCLE ( 'NONE', #347, 0.1250000000000000555 ) ;
#145 = DIRECTION ( 'NONE',  ( -0.000000000000000000, -1.000000000000000000, -0.000000000000000000 ) ) ;
#146 = DIRECTION ( 'NONE',  ( -0.000000000000000000, -1.000000000000000000, -0.000000000000000000 ) ) ;
#147 = ORIENTED_EDGE ( 'NONE', *, *, #122, .F. ) ;
#148 = UNCERTAINTY_MEASURE_WITH_UNIT (LENGTH_MEASURE( 1.000000000000000082E-05 ), #113, 'distance_accuracy_value', 'NONE');
#149 = DIMENSIONAL_EXPONENTS ( 1.000000000000000000, 0.000000000000000000, 0.000000000000000000, 0.000000000000000000, 0.000000000000000000, 0.000000000000000000, 0.000000000000000000 ) ;
#150 = CARTESIAN_POINT ( 'NONE',  ( -6.721241287859572235E-18, 0.6082531754730543527, 0.000000000000000000 ) ) ;
#151 = APPLICATION_PROTOCOL_DEFINITION ( 'draft international standard', 'automotive_design', 1998, #250 ) ;
#152 = DIRECTION ( 'NONE',  ( 0.000000000000000000, 0.000000000000000000, 1.000000000000000000 ) ) ;
#153 = AXIS2_PLACEMENT_3D ( 'NONE', #306, #38, #203 ) ;
#154 = VERTEX_POINT ( 'NONE', #111 ) ;
#155 = DIRECTION ( 'NONE',  ( -0.000000000000000000, -1.000000000000000000, -0.000000000000000000 ) ) ;
#156 = COLOUR_RGB ( '',0.7921568627450980005, 0.8196078431372548767, 0.9333333333333333481 ) ;
#157 =( NAMED_UNIT ( * ) SI_UNIT ( $, .STERADIAN. ) SOLID_ANGLE_UNIT ( ) );
#158 = DIRECTION ( 'NONE',  ( -0.2588190451025212391, 0.9659258262890679791, 0.000000000000000000 ) ) ;
#159 = DIRECTION ( 'NONE',  ( -1.000000000000000000, 0.000000000000000000, 0.000000000000000000 ) ) ;
#160 = CARTESIAN_POINT ( 'NONE',  ( 0.000000000000000000, 0.000000000000000000, 0.000000000000000000 ) ) ;
#161 = DIRECTION ( 'NONE',  ( 0.000000000000000000, 0.000000000000000000, -1.000000000000000000 ) ) ;
#162 = DIRECTION ( 'NONE',  ( -0.000000000000000000, -1.000000000000000000, -0.000000000000000000 ) ) ;
#163 = DIRECTION ( 'NONE',  ( -1.000000000000000000, 0.000000000000000000, 0.000000000000000000 ) ) ;
#164 = FACE_OUTER_BOUND ( 'NONE', #316, .T. ) ;
#165 = CARTESIAN_POINT ( 'NONE',  ( 0.000000000000000000, 0.000000000000000000, -0.06250000000000000000 ) ) ;
#166 = DIRECTION ( 'NONE',  ( -1.000000000000000000, 0.000000000000000000, 0.000000000000000000 ) ) ;
#167 = EDGE_LOOP ( 'NONE', ( #305, #279, #324, #225 ) ) ;
#168 = EDGE_CURVE ( 'NONE', #10, #226, #19, .T. ) ;
#169 = EDGE_LOOP ( 'NONE', ( #27, #278, #235, #302 ) ) ;
#170 = AXIS2_PLACEMENT_3D ( 'NONE', #81, #112, #161 ) ;
#171 = SURFACE_STYLE_FILL_AREA ( #173 ) ;
#172 =( NAMED_UNIT ( * ) SI_UNIT ( $, .STERADIAN. ) SOLID_ANGLE_UNIT ( ) );
#173 = FILL_AREA_STYLE ('',( #229 ) ) ;
#174 = ORIENTED_EDGE ( 'NONE', *, *, #311, .F. ) ;
#175 = AXIS2_PLACEMENT_3D ( 'NONE', #176, #199, #303 ) ;
#176 = CARTESIAN_POINT ( 'NONE',  ( 2.594740108411518231E-35, 0.3750000000000000555, 0.000000000000000000 ) ) ;
#177 = CARTESIAN_POINT ( 'NONE',  ( 7.582401355855259480E-33, 0.3749999999999999445, 0.000000000000000000 ) ) ;
#178 = ORIENTED_EDGE ( 'NONE', *, *, #200, .F. ) ;
#179 =( CONVERSION_BASED_UNIT ( 'INCH', #76 ) LENGTH_UNIT ( ) NAMED_UNIT ( #42 ) );
#180 = ADVANCED_FACE ( 'NONE', ( #318 ), #124, .F. ) ;
#181 = PRESENTATION_STYLE_ASSIGNMENT (( #205 ) ) ;
#182 = STYLED_ITEM ( 'NONE', ( #323 ), #218 ) ;
#183 = PRESENTATION_LAYER_ASSIGNMENT (  '', '', ( #227 ) ) ;
#184 = CARTESIAN_POINT ( 'NONE',  ( 0.06250000000000000000, 0.3749999999999999445, 1.148106374200643555E-17 ) ) ;
#185 = AXIS2_PLACEMENT_3D ( 'NONE', #272, #4, #108 ) ;
#186 = AXIS2_PLACEMENT_3D ( 'NONE', #233, #152, #46 ) ;
#187 = LINE ( 'NONE', #55, #25 ) ;
#188 = DIRECTION ( 'NONE',  ( 0.2588190451025211281, 0.9659258262890679791, 3.169619151431769872E-17 ) ) ;
#189 = CARTESIAN_POINT ( 'NONE',  ( 7.582401355855259480E-33, 0.3749999999999999445, 0.000000000000000000 ) ) ;
#190 = CIRCLE ( 'NONE', #236, 0.06250000000000000000 ) ;
#191 = DIRECTION ( 'NONE',  ( -2.881521880346713429E-17, 1.000000000000000000, -0.000000000000000000 ) ) ;
#192 = CARTESIAN_POINT ( 'NONE',  ( 0.1250000000000000278, 2.500000000000000000, 1.530808498934192125E-17 ) ) ;
#193 = FACE_OUTER_BOUND ( 'NONE', #197, .T. ) ;
#194 = PRODUCT_DEFINITION_CONTEXT ( 'detailed design', #359, 'design' ) ;
#195 = FACE_OUTER_BOUND ( 'NONE', #327, .T. ) ;
#196 = ORIENTED_EDGE ( 'NONE', *, *, #207, .T. ) ;
#197 = EDGE_LOOP ( 'NONE', ( #254, #28, #89, #133 ) ) ;
#198 = AXIS2_PLACEMENT_3D ( 'NONE', #297, #2, #62 ) ;
#199 = DIRECTION ( 'NONE',  ( -2.881521880346713429E-17, 1.000000000000000000, 0.000000000000000000 ) ) ;
#200 = EDGE_CURVE ( 'NONE', #226, #10, #291, .T. ) ;
#201 = VERTEX_POINT ( 'NONE', #192 ) ;
#202 = DIRECTION ( 'NONE',  ( -2.881521880346713429E-17, 1.000000000000000000, -0.000000000000000000 ) ) ;
#203 = DIRECTION ( 'NONE',  ( -1.000000000000000000, 0.000000000000000000, 0.000000000000000000 ) ) ;
#204 = AXIS2_PLACEMENT_3D ( 'NONE', #177, #202, #12 ) ;
#205 = SURFACE_STYLE_USAGE ( .BOTH. , #101 ) ;
#206 = CARTESIAN_POINT ( 'NONE',  ( 0.000000000000000000, 0.000000000000000000, 0.000000000000000000 ) ) ;
#207 = EDGE_CURVE ( 'NONE', #252, #154, #136, .T. ) ;
#208 = FILL_AREA_STYLE ('',( #232 ) ) ;
#209 = ADVANCED_FACE ( 'NONE', ( #164 ), #259, .T. ) ;
#210 =( NAMED_UNIT ( * ) PLANE_ANGLE_UNIT ( ) SI_UNIT ( $, .RADIAN. ) );
#211 = DIRECTION ( 'NONE',  ( 0.000000000000000000, 0.000000000000000000, -1.000000000000000000 ) ) ;
#212 = ADVANCED_FACE ( 'NONE', ( #39 ), #95, .F. ) ;
#213 = AXIS2_PLACEMENT_3D ( 'NONE', #150, #98, #33 ) ;
#214 = FILL_AREA_STYLE_COLOUR ( '', #156 ) ;
#215 = CYLINDRICAL_SURFACE ( 'NONE', #185, 0.1250000000000000278 ) ;
#216 = CARTESIAN_POINT ( 'NONE',  ( 0.000000000000000000, 0.000000000000000000, 0.000000000000000000 ) ) ;
#217 = CARTESIAN_POINT ( 'NONE',  ( 0.000000000000000000, 0.3750000000000000555, -0.06250000000000000000 ) ) ;
#218 = MANIFOLD_SOLID_BREP ( 'Revolve - Tool Body (Reduced Cut Diameter)', #308 ) ;
#219 = AXIS2_PLACEMENT_3D ( 'NONE', #345, #315, #292 ) ;
#220 = EDGE_CURVE ( 'NONE', #252, #201, #352, .T. ) ;
#221 = VERTEX_POINT ( 'NONE', #92 ) ;
#222 = VERTEX_POINT ( 'NONE', #184 ) ;
#223 = DIRECTION ( 'NONE',  ( -2.881521880346713429E-17, 1.000000000000000000, -0.000000000000000000 ) ) ;
#224 = DIRECTION ( 'NONE',  ( 2.881521880346713429E-17, -1.000000000000000000, 0.000000000000000000 ) ) ;
#225 = ORIENTED_EDGE ( 'NONE', *, *, #8, .F. ) ;
#226 = VERTEX_POINT ( 'NONE', #131 ) ;
#227 = STYLED_ITEM ( 'NONE', ( #264 ), #338 ) ;
#228 = FILL_AREA_STYLE_COLOUR ( '', #340 ) ;
#229 = FILL_AREA_STYLE_COLOUR ( '', #54 ) ;
#230 =( CONVERSION_BASED_UNIT ( 'INCH', #343 ) LENGTH_UNIT ( ) NAMED_UNIT ( #149 ) );
#231 = SURFACE_STYLE_FILL_AREA ( #103 ) ;
#232 = FILL_AREA_STYLE_COLOUR ( '', #266 ) ;
#233 = CARTESIAN_POINT ( 'NONE',  ( 0.000000000000000000, 0.000000000000000000, 0.000000000000000000 ) ) ;
#234 =( CONVERSION_BASED_UNIT ( 'INCH', #48 ) LENGTH_UNIT ( ) NAMED_UNIT ( #142 ) );
#235 = ORIENTED_EDGE ( 'NONE', *, *, #268, .F. ) ;
#236 = AXIS2_PLACEMENT_3D ( 'NONE', #130, #132, #60 ) ;
#237 = ORIENTED_EDGE ( 'NONE', *, *, #220, .F. ) ;
#238 =( NAMED_UNIT ( * ) SI_UNIT ( $, .STERADIAN. ) SOLID_ANGLE_UNIT ( ) );
#239 =( NAMED_UNIT ( * ) PLANE_ANGLE_UNIT ( ) SI_UNIT ( $, .RADIAN. ) );
#240 =( LENGTH_UNIT ( ) NAMED_UNIT ( * ) SI_UNIT ( $, .METRE. ) );
#241 = EDGE_CURVE ( 'NONE', #201, #221, #144, .T. ) ;
#242 = COLOUR_RGB ( '',0.7921568627450980005, 0.8196078431372548767, 0.9333333333333333481 ) ;
#243 = LENGTH_MEASURE_WITH_UNIT ( LENGTH_MEASURE( 0.02539999999999999897 ), #296 );
#244 = ORIENTED_EDGE ( 'NONE', *, *, #168, .F. ) ;
#245 = ORIENTED_EDGE ( 'NONE', *, *, #207, .F. ) ;
#246 = PRODUCT_RELATED_PRODUCT_CATEGORY ( 'part', '', ( #6 ) ) ;
#247 = CLOSED_SHELL ( 'NONE', ( #348, #91, #354, #209 ) ) ;
#248 =( GEOMETRIC_REPRESENTATION_CONTEXT ( 3 ) GLOBAL_UNCERTAINTY_ASSIGNED_CONTEXT ( ( #294 ) ) GLOBAL_UNIT_ASSIGNED_CONTEXT ( ( #179, #210, #353 ) ) REPRESENTATION_CONTEXT ( 'NONE', 'WORKASPACE' ) );
#249 = LINE ( 'NONE', #90, #71 ) ;
#250 = APPLICATION_CONTEXT ( 'automotive_design' ) ;
#251 = EDGE_CURVE ( 'NONE', #120, #337, #190, .T. ) ;
#252 = VERTEX_POINT ( 'NONE', #40 ) ;
#253 = SURFACE_STYLE_FILL_AREA ( #208 ) ;
#254 = ORIENTED_EDGE ( 'NONE', *, *, #268, .T. ) ;
#255 = MECHANICAL_DESIGN_GEOMETRIC_PRESENTATION_REPRESENTATION (  '', ( #289 ), #277 ) ;
#256 = PRODUCT_DEFINITION_FORMATION_WITH_SPECIFIED_SOURCE ( 'ANY', '', #6, .NOT_KNOWN. ) ;
#257 = DIRECTION ( 'NONE',  ( 0.000000000000000000, 0.000000000000000000, -1.000000000000000000 ) ) ;
#258 = ORIENTED_EDGE ( 'NONE', *, *, #271, .T. ) ;
#259 = PLANE ( 'NONE',  #49 ) ;
#260 = AXIS2_PLACEMENT_3D ( 'NONE', #329, #191, #357 ) ;
#261 = EDGE_CURVE ( 'NONE', #140, #222, #15, .T. ) ;
#262 =( NAMED_UNIT ( * ) SI_UNIT ( $, .STERADIAN. ) SOLID_ANGLE_UNIT ( ) );
#263 = CARTESIAN_POINT ( 'NONE',  ( -6.123233995736766036E-17, 2.500000000000000000, 0.000000000000000000 ) ) ;
#264 = PRESENTATION_STYLE_ASSIGNMENT (( #50 ) ) ;
#265 = CARTESIAN_POINT ( 'NONE',  ( -0.06250000000000000000, 0.3749999999999999445, 0.000000000000000000 ) ) ;
#266 = COLOUR_RGB ( '',1.000000000000000000, 0.000000000000000000, 0.000000000000000000 ) ;
#267 = FACE_OUTER_BOUND ( 'NONE', #332, .T. ) ;
#268 = EDGE_CURVE ( 'NONE', #154, #252, #64, .T. ) ;
#269 = FILL_AREA_STYLE ('',( #214 ) ) ;
#270 = AXIS2_PLACEMENT_3D ( 'NONE', #41, #145, #331 ) ;
#271 = EDGE_CURVE ( 'NONE', #221, #201, #326, .T. ) ;
#272 = CARTESIAN_POINT ( 'NONE',  ( -6.123233995736766036E-17, 2.500000000000000000, 0.000000000000000000 ) ) ;
#273 = EDGE_LOOP ( 'NONE', ( #334, #147 ) ) ;
#274 =( LENGTH_UNIT ( ) NAMED_UNIT ( * ) SI_UNIT ( $, .METRE. ) );
#275 = ORIENTED_EDGE ( 'NONE', *, *, #251, .T. ) ;
#276 = CARTESIAN_POINT ( 'NONE',  ( 0.1250000000000000000, 2.500000000000000000, 0.000000000000000000 ) ) ;
#277 =( GEOMETRIC_REPRESENTATION_CONTEXT ( 3 ) GLOBAL_UNCERTAINTY_ASSIGNED_CONTEXT ( ( #70 ) ) GLOBAL_UNIT_ASSIGNED_CONTEXT ( ( #69, #310, #262 ) ) REPRESENTATION_CONTEXT ( 'NONE', 'WORKASPACE' ) );
#278 = ORIENTED_EDGE ( 'NONE', *, *, #47, .T. ) ;
#279 = ORIENTED_EDGE ( 'NONE', *, *, #288, .T. ) ;
#280 = SURFACE_SIDE_STYLE ('',( #253 ) ) ;
#281 = FILL_AREA_STYLE_COLOUR ( '', #242 ) ;
#282 = SURFACE_STYLE_USAGE ( .BOTH. , #68 ) ;
#283 = CYLINDRICAL_SURFACE ( 'NONE', #3, 0.06250000000000000000 ) ;
#284 = CONICAL_SURFACE ( 'NONE', #204, 0.06250000000000000000, 0.2617993877991499074 ) ;
#285 = EDGE_CURVE ( 'NONE', #154, #221, #298, .T. ) ;
#286 = DIRECTION ( 'NONE',  ( -1.000000000000000000, 0.000000000000000000, 0.000000000000000000 ) ) ;
#287 = DIMENSIONAL_EXPONENTS ( 1.000000000000000000, 0.000000000000000000, 0.000000000000000000, 0.000000000000000000, 0.000000000000000000, 0.000000000000000000, 0.000000000000000000 ) ;
#288 = EDGE_CURVE ( 'NONE', #226, #337, #249, .T. ) ;
#289 = STYLED_ITEM ( 'NONE', ( #143 ), #91 ) ;
#290 =( LENGTH_UNIT ( ) NAMED_UNIT ( * ) SI_UNIT ( $, .METRE. ) );
#291 = CIRCLE ( 'NONE', #270, 0.06250000000000000000 ) ;
#292 = DIRECTION ( 'NONE',  ( 0.000000000000000000, -0.000000000000000000, 1.000000000000000000 ) ) ;
#293 = CARTESIAN_POINT ( 'NONE',  ( 7.654042494670957545E-18, 0.000000000000000000, 0.06250000000000000000 ) ) ;
#294 = UNCERTAINTY_MEASURE_WITH_UNIT (LENGTH_MEASURE( 1.000000000000000082E-05 ), #179, 'distance_accuracy_value', 'NONE');
#295 =( GEOMETRIC_REPRESENTATION_CONTEXT ( 3 ) GLOBAL_UNCERTAINTY_ASSIGNED_CONTEXT ( ( #11 ) ) GLOBAL_UNIT_ASSIGNED_CONTEXT ( ( #234, #57, #172 ) ) REPRESENTATION_CONTEXT ( 'NONE', 'WORKASPACE' ) );
#296 =( LENGTH_UNIT ( ) NAMED_UNIT ( * ) SI_UNIT ( $, .METRE. ) );
#297 = CARTESIAN_POINT ( 'NONE',  ( -6.721241287859572235E-18, 0.6082531754730543527, 0.000000000000000000 ) ) ;
#298 = LINE ( 'NONE', #30, #61 ) ;
#299 = AXIS2_PLACEMENT_3D ( 'NONE', #105, #155, #211 ) ;
#300 = COLOUR_RGB ( '',1.000000000000000000, 0.000000000000000000, 0.000000000000000000 ) ;
#301 = ORIENTED_EDGE ( 'NONE', *, *, #122, .T. ) ;
#302 = ORIENTED_EDGE ( 'NONE', *, *, #21, .F. ) ;
#303 = DIRECTION ( 'NONE',  ( -1.000000000000000000, -2.881521880346713429E-17, 0.000000000000000000 ) ) ;
#304 = ADVANCED_FACE ( 'NONE', ( #118 ), #26, .T. ) ;
#305 = ORIENTED_EDGE ( 'NONE', *, *, #168, .T. ) ;
#306 = CARTESIAN_POINT ( 'NONE',  ( 7.582401355855259480E-33, 0.3749999999999999445, 0.000000000000000000 ) ) ;
#307 = FILL_AREA_STYLE_COLOUR ( '', #300 ) ;
#308 = CLOSED_SHELL ( 'NONE', ( #14, #304, #212, #86, #107, #180 ) ) ;
#309 = CIRCLE ( 'NONE', #170, 0.06250000000000000000 ) ;
#310 =( NAMED_UNIT ( * ) PLANE_ANGLE_UNIT ( ) SI_UNIT ( $, .RADIAN. ) );
#311 = EDGE_CURVE ( 'NONE', #337, #120, #309, .T. ) ;
#312 = SURFACE_SIDE_STYLE ('',( #100 ) ) ;
#313 = MECHANICAL_DESIGN_GEOMETRIC_PRESENTATION_REPRESENTATION (  '', ( #182 ), #59 ) ;
#314 = APPLICATION_PROTOCOL_DEFINITION ( 'draft international standard', 'automotive_design', 1998, #359 ) ;
#315 = DIRECTION ( 'NONE',  ( 0.000000000000000000, 1.000000000000000000, 0.000000000000000000 ) ) ;
#316 = EDGE_LOOP ( 'NONE', ( #275, #37 ) ) ;
#317 =( NAMED_UNIT ( * ) SI_UNIT ( $, .STERADIAN. ) SOLID_ANGLE_UNIT ( ) );
#318 = FACE_OUTER_BOUND ( 'NONE', #58, .T. ) ;
#319 = VECTOR ( 'NONE', #22, 39.37007874015748143 ) ;
#320 =( GEOMETRIC_REPRESENTATION_CONTEXT ( 3 ) GLOBAL_UNCERTAINTY_ASSIGNED_CONTEXT ( ( #117 ) ) GLOBAL_UNIT_ASSIGNED_CONTEXT ( ( #135, #32, #102 ) ) REPRESENTATION_CONTEXT ( 'NONE', 'WORKASPACE' ) );
#321 = CARTESIAN_POINT ( 'NONE',  ( 0.1249999999999999584, 2.500000000000000000, 1.530808498934191817E-17 ) ) ;
#322 = LINE ( 'NONE', #82, #87 ) ;
#323 = PRESENTATION_STYLE_ASSIGNMENT (( #84 ) ) ;
#324 = ORIENTED_EDGE ( 'NONE', *, *, #251, .F. ) ;
#325 = CIRCLE ( 'NONE', #9, 0.06250000000000000000 ) ;
#326 = CIRCLE ( 'NONE', #116, 0.1250000000000000555 ) ;
#327 = EDGE_LOOP ( 'NONE', ( #244, #178 ) ) ;
#328 = ORIENTED_EDGE ( 'NONE', *, *, #47, .F. ) ;
#329 = CARTESIAN_POINT ( 'NONE',  ( 7.582401355855259480E-33, 0.3749999999999999445, 0.000000000000000000 ) ) ;
#330 = ORIENTED_EDGE ( 'NONE', *, *, #285, .T. ) ;
#331 = DIRECTION ( 'NONE',  ( 0.000000000000000000, 0.000000000000000000, -1.000000000000000000 ) ) ;
#332 = EDGE_LOOP ( 'NONE', ( #237, #196, #330, #97 ) ) ;
#333 = AXIS2_PLACEMENT_3D ( 'NONE', #263, #85, #159 ) ;
#334 = ORIENTED_EDGE ( 'NONE', *, *, #261, .F. ) ;
#335 = ORIENTED_EDGE ( 'NONE', *, *, #200, .T. ) ;
#336 = DIRECTION ( 'NONE',  ( 1.000000000000000000, 2.881521880346713429E-17, 0.000000000000000000 ) ) ;
#337 = VERTEX_POINT ( 'NONE', #293 ) ;
#338 = MANIFOLD_SOLID_BREP ( 'Revolve - Cutting Edge', #247 ) ;
#339 = DIRECTION ( 'NONE',  ( 0.000000000000000000, 0.000000000000000000, -1.000000000000000000 ) ) ;
#340 = COLOUR_RGB ( '',1.000000000000000000, 0.000000000000000000, 0.000000000000000000 ) ;
#341 =( LENGTH_UNIT ( ) NAMED_UNIT ( * ) SI_UNIT ( $, .METRE. ) );
#342 = FILL_AREA_STYLE ('',( #307 ) ) ;
#343 = LENGTH_MEASURE_WITH_UNIT ( LENGTH_MEASURE( 0.02539999999999999897 ), #351 );
#344 = ORIENTED_EDGE ( 'NONE', *, *, #288, .F. ) ;
#345 = CARTESIAN_POINT ( 'NONE',  ( 0.000000000000000000, 0.3750000000000000555, 0.000000000000000000 ) ) ;
#346 = PRODUCT_CONTEXT ( 'NONE', #250, 'mechanical' ) ;
#347 = AXIS2_PLACEMENT_3D ( 'NONE', #78, #51, #286 ) ;
#348 = ADVANCED_FACE ( 'NONE', ( #109 ), #283, .T. ) ;
#349 = FILL_AREA_STYLE ('',( #281 ) ) ;
#350 =( CONVERSION_BASED_UNIT ( 'INCH', #79 ) LENGTH_UNIT ( ) NAMED_UNIT ( #18 ) );
#351 =( LENGTH_UNIT ( ) NAMED_UNIT ( * ) SI_UNIT ( $, .METRE. ) );
#352 = LINE ( 'NONE', #321, #104 ) ;
#353 =( NAMED_UNIT ( * ) SI_UNIT ( $, .STERADIAN. ) SOLID_ANGLE_UNIT ( ) );
#354 = ADVANCED_FACE ( 'NONE', ( #17 ), #63, .T. ) ;
#355 = AXIS2_PLACEMENT_3D ( 'NONE', #276, #224, #336 ) ;
#356 = CARTESIAN_POINT ( 'NONE',  ( 0.000000000000000000, 0.000000000000000000, -0.06250000000000000000 ) ) ;
#357 = DIRECTION ( 'NONE',  ( -1.000000000000000000, 0.000000000000000000, 0.000000000000000000 ) ) ;
#358 = DIRECTION ( 'NONE',  ( 0.000000000000000000, 0.000000000000000000, -1.000000000000000000 ) ) ;
#359 = APPLICATION_CONTEXT ( 'automotive_design' ) ;
ENDSEC;
END-ISO-10303-21;
