ISO-10303-21;
HEADER;
FILE_DESCRIPTION (( 'STEP AP214' ),
    '1' );
FILE_NAME ('Micro_RMEM-002-2X.STEP',
    '2021-09-01T23:30:27',
    ( '' ),
    ( '' ),
    'SwSTEP 2.0',
    'SolidWorks 2020',
    '' );
FILE_SCHEMA (( 'AUTOMOTIVE_DESIGN' ));
ENDSEC;

DATA;
#1 = ORIENTED_EDGE ( 'NONE', *, *, #65, .F. ) ;
#2 = VERTEX_POINT ( 'NONE', #40 ) ;
#3 = ORIENTED_EDGE ( 'NONE', *, *, #279, .T. ) ;
#4 = ADVANCED_FACE ( 'NONE', ( #266 ), #86, .T. ) ;
#5 = CARTESIAN_POINT ( 'NONE',  ( -0.05905499999999996169, 0.0000000000000000000, 0.3283600391702111154 ) ) ;
#6 = CARTESIAN_POINT ( 'NONE',  ( 0.05905500000000000332, 7.232151672364695422E-18, 1.496062999999999921 ) ) ;
#7 = ORIENTED_EDGE ( 'NONE', *, *, #29, .F. ) ;
#8 = DIRECTION ( 'NONE',  ( -0.0000000000000000000, -0.0000000000000000000, -1.000000000000000000 ) ) ;
#9 = CONICAL_SURFACE ( 'NONE', #103, 0.04405499999999973326, 0.7853981633974491672 ) ;
#10 = ORIENTED_EDGE ( 'NONE', *, *, #269, .F. ) ;
#11 = CARTESIAN_POINT ( 'NONE',  ( 0.05905500000000004496, 7.232151672364700045E-18, 0.3283600391702111154 ) ) ;
#12 = CARTESIAN_POINT ( 'NONE',  ( 1.928573779297251317E-18, 0.0000000000000000000, 0.01574799999999999811 ) ) ;
#13 =( LENGTH_UNIT ( ) NAMED_UNIT ( * ) SI_UNIT ( $, .METRE. ) );
#14 = FACE_OUTER_BOUND ( 'NONE', #139, .T. ) ;
#15 = PRODUCT_DEFINITION_FORMATION_WITH_SPECIFIED_SOURCE ( 'ANY', '', #49, .NOT_KNOWN. ) ;
#16 = PRODUCT_CONTEXT ( 'NONE', #111, 'mechanical' ) ;
#17 = EDGE_CURVE ( 'NONE', #233, #2, #114, .T. ) ;
#18 = DIRECTION ( 'NONE',  ( -1.224646799147353207E-16, -0.0000000000000000000, -1.000000000000000000 ) ) ;
#19 = CARTESIAN_POINT ( 'NONE',  ( 0.0000000000000000000, 0.0000000000000000000, 1.481062999999999574 ) ) ;
#20 = AXIS2_PLACEMENT_3D ( 'NONE', #158, #226, #291 ) ;
#21 = AXIS2_PLACEMENT_3D ( 'NONE', #66, #207, #182 ) ;
#22 = DIRECTION ( 'NONE',  ( 0.0000000000000000000, 0.0000000000000000000, 1.000000000000000000 ) ) ;
#23 = CARTESIAN_POINT ( 'NONE',  ( 0.0000000000000000000, 0.0000000000000000000, 0.0000000000000000000 ) ) ;
#24 = PRESENTATION_STYLE_ASSIGNMENT (( #254 ) ) ;
#25 = VERTEX_POINT ( 'NONE', #157 ) ;
#26 = ORIENTED_EDGE ( 'NONE', *, *, #73, .T. ) ;
#27 = ORIENTED_EDGE ( 'NONE', *, *, #126, .T. ) ;
#28 = VECTOR ( 'NONE', #36, 39.37007874015748143 ) ;
#29 = EDGE_CURVE ( 'NONE', #78, #25, #58, .T. ) ;
#30 = EDGE_LOOP ( 'NONE', ( #43, #95, #1, #271 ) ) ;
#31 = ORIENTED_EDGE ( 'NONE', *, *, #73, .F. ) ;
#32 = FACE_OUTER_BOUND ( 'NONE', #214, .T. ) ;
#33 = CIRCLE ( 'NONE', #217, 0.05905500000000000332 ) ;
#34 = ORIENTED_EDGE ( 'NONE', *, *, #181, .F. ) ;
#35 = DIRECTION ( 'NONE',  ( -0.0000000000000000000, -0.0000000000000000000, -1.000000000000000000 ) ) ;
#36 = DIRECTION ( 'NONE',  ( -0.7071067811865482389, 0.0000000000000000000, -0.7071067811865469066 ) ) ;
#37 = ORIENTED_EDGE ( 'NONE', *, *, #83, .T. ) ;
#38 = VECTOR ( 'NONE', #155, 39.37007874015748143 ) ;
#39 = DIRECTION ( 'NONE',  ( 1.000000000000000000, 0.0000000000000000000, 0.0000000000000000000 ) ) ;
#40 = CARTESIAN_POINT ( 'NONE',  ( -0.04405499999999973326, 0.0000000000000000000, 1.496062999999999921 ) ) ;
#41 = CARTESIAN_POINT ( 'NONE',  ( -0.04405499999999973326, 0.0000000000000000000, 1.496062999999999921 ) ) ;
#42 = DIRECTION ( 'NONE',  ( 0.7071067811865482389, 8.659560562354941486E-17, -0.7071067811865469066 ) ) ;
#43 = ORIENTED_EDGE ( 'NONE', *, *, #17, .F. ) ;
#44 =( CONVERSION_BASED_UNIT ( 'INCH', #274 ) LENGTH_UNIT ( ) NAMED_UNIT ( #123 ) );
#45 = CIRCLE ( 'NONE', #153, 0.003933062999999995327 ) ;
#46 = APPLICATION_PROTOCOL_DEFINITION ( 'draft international standard', 'automotive_design', 1998, #111 ) ;
#47 = SURFACE_SIDE_STYLE ('',( #165 ) ) ;
#48 = AXIS2_PLACEMENT_3D ( 'NONE', #265, #202, #125 ) ;
#49 = PRODUCT ( 'Micro_RMEM-002-2X', 'Micro_RMEM-002-2X', '', ( #16 ) ) ;
#50 = DIRECTION ( 'NONE',  ( 1.000000000000000000, 0.0000000000000000000, 0.0000000000000000000 ) ) ;
#51 = VERTEX_POINT ( 'NONE', #133 ) ;
#52 = ORIENTED_EDGE ( 'NONE', *, *, #258, .T. ) ;
#53 = DIRECTION ( 'NONE',  ( 1.000000000000000000, 0.0000000000000000000, 0.0000000000000000000 ) ) ;
#54 = DIRECTION ( 'NONE',  ( -1.000000000000000000, 0.0000000000000000000, 1.224646799147353207E-16 ) ) ;
#55 = ORIENTED_EDGE ( 'NONE', *, *, #286, .F. ) ;
#56 = ADVANCED_FACE ( 'NONE', ( #14 ), #235, .T. ) ;
#57 = DIRECTION ( 'NONE',  ( -1.000000000000000000, 0.0000000000000000000, 1.224646799147352961E-16 ) ) ;
#58 = LINE ( 'NONE', #223, #38 ) ;
#59 = COLOUR_RGB ( '',0.7921568627450980005, 0.8196078431372548767, 0.9333333333333333481 ) ;
#60 = CARTESIAN_POINT ( 'NONE',  ( -0.003933062999999998796, 0.0000000000000000000, 4.816613013794884084E-19 ) ) ;
#61 = EDGE_LOOP ( 'NONE', ( #136, #70, #26, #120 ) ) ;
#62 = EDGE_CURVE ( 'NONE', #2, #233, #152, .T. ) ;
#63 = CARTESIAN_POINT ( 'NONE',  ( 0.04405499999999973326, 5.395181473643630390E-18, 1.496062999999999921 ) ) ;
#64 = CARTESIAN_POINT ( 'NONE',  ( 0.0000000000000000000, 0.0000000000000000000, 1.496062999999999921 ) ) ;
#65 = EDGE_CURVE ( 'NONE', #298, #51, #178, .T. ) ;
#66 = CARTESIAN_POINT ( 'NONE',  ( 0.0000000000000000000, 0.0000000000000000000, 0.0000000000000000000 ) ) ;
#67 = CIRCLE ( 'NONE', #143, 0.003933062999999995327 ) ;
#68 = FILL_AREA_STYLE_COLOUR ( '', #59 ) ;
#69 =( LENGTH_UNIT ( ) NAMED_UNIT ( * ) SI_UNIT ( $, .METRE. ) );
#70 = ORIENTED_EDGE ( 'NONE', *, *, #126, .F. ) ;
#71 = DIRECTION ( 'NONE',  ( -0.0000000000000000000, -0.0000000000000000000, -1.000000000000000000 ) ) ;
#72 = AXIS2_PLACEMENT_3D ( 'NONE', #183, #273, #50 ) ;
#73 = EDGE_CURVE ( 'NONE', #78, #119, #91, .T. ) ;
#74 = DIMENSIONAL_EXPONENTS ( 1.000000000000000000, 0.0000000000000000000, 0.0000000000000000000, 0.0000000000000000000, 0.0000000000000000000, 0.0000000000000000000, 0.0000000000000000000 ) ;
#75 = FACE_OUTER_BOUND ( 'NONE', #166, .T. ) ;
#76 = CIRCLE ( 'NONE', #129, 0.003933063000000001398 ) ;
#77 = LINE ( 'NONE', #41, #28 ) ;
#78 = VERTEX_POINT ( 'NONE', #187 ) ;
#79 = MANIFOLD_SOLID_BREP ( 'Cut-Revolve1', #105 ) ;
#80 = DIRECTION ( 'NONE',  ( 0.0000000000000000000, 0.0000000000000000000, -1.000000000000000000 ) ) ;
#81 = ORIENTED_EDGE ( 'NONE', *, *, #206, .F. ) ;
#82 = DIRECTION ( 'NONE',  ( -1.000000000000000000, 0.0000000000000000000, 1.224646799147353207E-16 ) ) ;
#83 = EDGE_CURVE ( 'NONE', #298, #144, #116, .T. ) ;
#84 = DIRECTION ( 'NONE',  ( -1.000000000000000000, 0.0000000000000000000, 0.0000000000000000000 ) ) ;
#85 = AXIS2_PLACEMENT_3D ( 'NONE', #156, #201, #53 ) ;
#86 = CYLINDRICAL_SURFACE ( 'NONE', #108, 0.05905500000000000332 ) ;
#87 = APPLICATION_CONTEXT ( 'automotive_design' ) ;
#88 = ADVANCED_FACE ( 'NONE', ( #32 ), #147, .F. ) ;
#89 = DIRECTION ( 'NONE',  ( 1.000000000000000000, 0.0000000000000000000, 0.0000000000000000000 ) ) ;
#90 = VECTOR ( 'NONE', #42, 39.37007874015748143 ) ;
#91 = LINE ( 'NONE', #208, #256 ) ;
#92 = ADVANCED_BREP_SHAPE_REPRESENTATION ( 'Micro_RMEM-002-2X', ( #79, #21 ), #288 ) ;
#93 = PRESENTATION_STYLE_ASSIGNMENT (( #164 ) ) ;
#94 = FILL_AREA_STYLE_COLOUR ( '', #299 ) ;
#95 = ORIENTED_EDGE ( 'NONE', *, *, #286, .T. ) ;
#96 = ORIENTED_EDGE ( 'NONE', *, *, #297, .T. ) ;
#97 = ORIENTED_EDGE ( 'NONE', *, *, #269, .T. ) ;
#98 = AXIS2_PLACEMENT_3D ( 'NONE', #287, #35, #197 ) ;
#99 = CARTESIAN_POINT ( 'NONE',  ( 0.0000000000000000000, 0.0000000000000000000, 0.0000000000000000000 ) ) ;
#100 = EDGE_LOOP ( 'NONE', ( #234, #122, #245, #10 ) ) ;
#101 = CYLINDRICAL_SURFACE ( 'NONE', #98, 0.05905500000000000332 ) ;
#102 = ADVANCED_FACE ( 'NONE', ( #222 ), #9, .T. ) ;
#103 = AXIS2_PLACEMENT_3D ( 'NONE', #132, #80, #263 ) ;
#104 = FACE_OUTER_BOUND ( 'NONE', #216, .T. ) ;
#105 = CLOSED_SHELL ( 'NONE', ( #292, #56, #102, #211, #4, #110, #242, #238, #184, #88 ) ) ;
#106 = FACE_OUTER_BOUND ( 'NONE', #61, .T. ) ;
#107 = CARTESIAN_POINT ( 'NONE',  ( -0.003933062999999999663, 3.856906486872091675E-18, 0.01574799999999999811 ) ) ;
#108 = AXIS2_PLACEMENT_3D ( 'NONE', #203, #221, #228 ) ;
#109 = CIRCLE ( 'NONE', #85, 0.05905500000000000332 ) ;
#110 = ADVANCED_FACE ( 'NONE', ( #175 ), #249, .T. ) ;
#111 = APPLICATION_CONTEXT ( 'automotive_design' ) ;
#112 =( CONVERSION_BASED_UNIT ( 'INCH', #272 ) LENGTH_UNIT ( ) NAMED_UNIT ( #74 ) );
#113 = DIRECTION ( 'NONE',  ( 1.000000000000000000, 0.0000000000000000000, 0.0000000000000000000 ) ) ;
#114 = CIRCLE ( 'NONE', #232, 0.04405499999999973326 ) ;
#115 = UNCERTAINTY_MEASURE_WITH_UNIT (LENGTH_MEASURE( 1.000000000000000082E-05 ), #112, 'distance_accuracy_value', 'NONE');
#116 = LINE ( 'NONE', #194, #190 ) ;
#117 = EDGE_CURVE ( 'NONE', #118, #25, #45, .T. ) ;
#118 = VERTEX_POINT ( 'NONE', #199 ) ;
#119 = VERTEX_POINT ( 'NONE', #11 ) ;
#120 = ORIENTED_EDGE ( 'NONE', *, *, #181, .T. ) ;
#121 = PRESENTATION_LAYER_ASSIGNMENT (  '', '', ( #268 ) ) ;
#122 = ORIENTED_EDGE ( 'NONE', *, *, #29, .T. ) ;
#123 = DIMENSIONAL_EXPONENTS ( 1.000000000000000000, 0.0000000000000000000, 0.0000000000000000000, 0.0000000000000000000, 0.0000000000000000000, 0.0000000000000000000, 0.0000000000000000000 ) ;
#124 = ORIENTED_EDGE ( 'NONE', *, *, #297, .F. ) ;
#125 = DIRECTION ( 'NONE',  ( 1.000000000000000000, 0.0000000000000000000, -0.0000000000000000000 ) ) ;
#126 = EDGE_CURVE ( 'NONE', #78, #210, #169, .T. ) ;
#127 = FACE_OUTER_BOUND ( 'NONE', #237, .T. ) ;
#128 = ORIENTED_EDGE ( 'NONE', *, *, #294, .T. ) ;
#129 = AXIS2_PLACEMENT_3D ( 'NONE', #12, #246, #146 ) ;
#130 = CARTESIAN_POINT ( 'NONE',  ( 5.898649710075387327E-35, 0.0000000000000000000, 4.816613013794881195E-19 ) ) ;
#131 = ORIENTED_EDGE ( 'NONE', *, *, #65, .T. ) ;
#132 = CARTESIAN_POINT ( 'NONE',  ( 0.0000000000000000000, 0.0000000000000000000, 1.496062999999999921 ) ) ;
#133 = CARTESIAN_POINT ( 'NONE',  ( 0.05905500000000000332, 7.232151672364695422E-18, 1.481062999999999574 ) ) ;
#134 = CYLINDRICAL_SURFACE ( 'NONE', #236, 0.003933062999999998796 ) ;
#135 =( NAMED_UNIT ( * ) SI_UNIT ( $, .STERADIAN. ) SOLID_ANGLE_UNIT ( ) );
#136 = ORIENTED_EDGE ( 'NONE', *, *, #279, .F. ) ;
#137 = AXIS2_PLACEMENT_3D ( 'NONE', #290, #18, #140 ) ;
#138 = LENGTH_MEASURE_WITH_UNIT ( LENGTH_MEASURE( 0.02539999999999999897 ), #295 );
#139 = EDGE_LOOP ( 'NONE', ( #81, #3, #96, #31 ) ) ;
#140 = DIRECTION ( 'NONE',  ( 1.000000000000000000, 0.0000000000000000000, 0.0000000000000000000 ) ) ;
#141 = AXIS2_PLACEMENT_3D ( 'NONE', #219, #148, #281 ) ;
#142 = ORIENTED_EDGE ( 'NONE', *, *, #151, .T. ) ;
#143 = AXIS2_PLACEMENT_3D ( 'NONE', #270, #284, #82 ) ;
#144 = VERTEX_POINT ( 'NONE', #5 ) ;
#145 = DIMENSIONAL_EXPONENTS ( 1.000000000000000000, 0.0000000000000000000, 0.0000000000000000000, 0.0000000000000000000, 0.0000000000000000000, 0.0000000000000000000, 0.0000000000000000000 ) ;
#146 = DIRECTION ( 'NONE',  ( -1.000000000000000000, 0.0000000000000000000, 0.0000000000000000000 ) ) ;
#147 = PLANE ( 'NONE',  #239 ) ;
#148 = DIRECTION ( 'NONE',  ( -1.224646799147353207E-16, -0.0000000000000000000, -1.000000000000000000 ) ) ;
#149 = ORIENTED_EDGE ( 'NONE', *, *, #62, .F. ) ;
#150 = LINE ( 'NONE', #6, #283 ) ;
#151 = EDGE_CURVE ( 'NONE', #2, #298, #77, .T. ) ;
#152 = CIRCLE ( 'NONE', #20, 0.04405499999999973326 ) ;
#153 = AXIS2_PLACEMENT_3D ( 'NONE', #130, #244, #54 ) ;
#154 = CARTESIAN_POINT ( 'NONE',  ( -0.003933062999999999663, 4.816613013794888899E-19, 0.01574799999999999811 ) ) ;
#155 = DIRECTION ( 'NONE',  ( -1.224646799147353207E-16, -0.0000000000000000000, -1.000000000000000000 ) ) ;
#156 = CARTESIAN_POINT ( 'NONE',  ( 4.021250709376985475E-17, 0.0000000000000000000, 0.3283600391702111154 ) ) ;
#157 = CARTESIAN_POINT ( 'NONE',  ( 0.003933062999999995327, 4.816613013794882158E-19, 1.184750211852384294E-34 ) ) ;
#158 = CARTESIAN_POINT ( 'NONE',  ( 0.0000000000000000000, 0.0000000000000000000, 1.496062999999999921 ) ) ;
#159 = DIRECTION ( 'NONE',  ( 1.000000000000000000, 0.0000000000000000000, 0.0000000000000000000 ) ) ;
#160 = AXIS2_PLACEMENT_3D ( 'NONE', #260, #198, #39 ) ;
#161 =( GEOMETRIC_REPRESENTATION_CONTEXT ( 3 ) GLOBAL_UNCERTAINTY_ASSIGNED_CONTEXT ( ( #255 ) ) GLOBAL_UNIT_ASSIGNED_CONTEXT ( ( #44, #231, #135 ) ) REPRESENTATION_CONTEXT ( 'NONE', 'WORKASPACE' ) );
#162 = SURFACE_STYLE_FILL_AREA ( #167 ) ;
#163 = UNCERTAINTY_MEASURE_WITH_UNIT (LENGTH_MEASURE( 1.000000000000000082E-05 ), #191, 'distance_accuracy_value', 'NONE');
#164 = SURFACE_STYLE_USAGE ( .BOTH. , #188 ) ;
#165 = SURFACE_STYLE_FILL_AREA ( #250 ) ;
#166 = EDGE_LOOP ( 'NONE', ( #55, #149, #142, #196 ) ) ;
#167 = FILL_AREA_STYLE ('',( #94 ) ) ;
#168 = MECHANICAL_DESIGN_GEOMETRIC_PRESENTATION_REPRESENTATION (  '', ( #268 ), #204 ) ;
#169 = CIRCLE ( 'NONE', #141, 0.003933063000000001398 ) ;
#170 =( NAMED_UNIT ( * ) SI_UNIT ( $, .STERADIAN. ) SOLID_ANGLE_UNIT ( ) );
#171 = VECTOR ( 'NONE', #180, 39.37007874015747433 ) ;
#172 = FACE_OUTER_BOUND ( 'NONE', #100, .T. ) ;
#173 = STYLED_ITEM ( 'NONE', ( #93 ), #92 ) ;
#174 = DIRECTION ( 'NONE',  ( 1.000000000000000000, 0.0000000000000000000, -0.0000000000000000000 ) ) ;
#175 = FACE_OUTER_BOUND ( 'NONE', #192, .T. ) ;
#176 = ORIENTED_EDGE ( 'NONE', *, *, #193, .T. ) ;
#177 = LINE ( 'NONE', #60, #205 ) ;
#178 = CIRCLE ( 'NONE', #195, 0.05905500000000000332 ) ;
#179 = CONICAL_SURFACE ( 'NONE', #240, 0.04405499999999973326, 0.7853981633974491672 ) ;
#180 = DIRECTION ( 'NONE',  ( -0.1736481776669311639, 2.126576849575783008E-17, 0.9848077530122080203 ) ) ;
#181 = EDGE_CURVE ( 'NONE', #119, #144, #109, .T. ) ;
#182 = DIRECTION ( 'NONE',  ( 1.000000000000000000, 0.0000000000000000000, 0.0000000000000000000 ) ) ;
#183 = CARTESIAN_POINT ( 'NONE',  ( 1.928573779297251317E-18, 0.0000000000000000000, 0.01574799999999999811 ) ) ;
#184 = ADVANCED_FACE ( 'NONE', ( #127 ), #218, .T. ) ;
#185 = DIRECTION ( 'NONE',  ( -1.224646799147353207E-16, -0.0000000000000000000, -1.000000000000000000 ) ) ;
#186 = CARTESIAN_POINT ( 'NONE',  ( 0.0000000000000000000, 0.0000000000000000000, 1.481062999999999574 ) ) ;
#187 = CARTESIAN_POINT ( 'NONE',  ( 0.003933063000000004000, 0.0000000000000000000, 0.01574799999999999811 ) ) ;
#188 = SURFACE_SIDE_STYLE ('',( #162 ) ) ;
#189 = ORIENTED_EDGE ( 'NONE', *, *, #62, .T. ) ;
#190 = VECTOR ( 'NONE', #71, 39.37007874015748143 ) ;
#191 =( CONVERSION_BASED_UNIT ( 'INCH', #138 ) LENGTH_UNIT ( ) NAMED_UNIT ( #145 ) );
#192 = EDGE_LOOP ( 'NONE', ( #189, #280 ) ) ;
#193 = EDGE_CURVE ( 'NONE', #51, #119, #150, .T. ) ;
#194 = CARTESIAN_POINT ( 'NONE',  ( -0.05905500000000000332, 0.0000000000000000000, 1.496062999999999921 ) ) ;
#195 = AXIS2_PLACEMENT_3D ( 'NONE', #19, #252, #113 ) ;
#196 = ORIENTED_EDGE ( 'NONE', *, *, #294, .F. ) ;
#197 = DIRECTION ( 'NONE',  ( -1.000000000000000000, 0.0000000000000000000, 0.0000000000000000000 ) ) ;
#198 = DIRECTION ( 'NONE',  ( 1.224646799147353207E-16, 0.0000000000000000000, 1.000000000000000000 ) ) ;
#199 = CARTESIAN_POINT ( 'NONE',  ( -0.003933062999999995327, 0.0000000000000000000, 9.633226027589762390E-19 ) ) ;
#200 = DIRECTION ( 'NONE',  ( 0.0000000000000000000, 0.0000000000000000000, 1.000000000000000000 ) ) ;
#201 = DIRECTION ( 'NONE',  ( -1.224646799147353207E-16, -0.0000000000000000000, -1.000000000000000000 ) ) ;
#202 = DIRECTION ( 'NONE',  ( 0.0000000000000000000, 0.0000000000000000000, 1.000000000000000000 ) ) ;
#203 = CARTESIAN_POINT ( 'NONE',  ( 0.0000000000000000000, 0.0000000000000000000, 1.496062999999999921 ) ) ;
#204 =( GEOMETRIC_REPRESENTATION_CONTEXT ( 3 ) GLOBAL_UNCERTAINTY_ASSIGNED_CONTEXT ( ( #163 ) ) GLOBAL_UNIT_ASSIGNED_CONTEXT ( ( #191, #229, #170 ) ) REPRESENTATION_CONTEXT ( 'NONE', 'WORKASPACE' ) );
#205 = VECTOR ( 'NONE', #224, 39.37007874015748143 ) ;
#206 = EDGE_CURVE ( 'NONE', #210, #78, #76, .T. ) ;
#207 = DIRECTION ( 'NONE',  ( 0.0000000000000000000, 0.0000000000000000000, 1.000000000000000000 ) ) ;
#208 = CARTESIAN_POINT ( 'NONE',  ( 0.003933063000000004000, 0.0000000000000000000, 0.01574799999999999811 ) ) ;
#209 =( NAMED_UNIT ( * ) PLANE_ANGLE_UNIT ( ) SI_UNIT ( $, .RADIAN. ) );
#210 = VERTEX_POINT ( 'NONE', #107 ) ;
#211 = ADVANCED_FACE ( 'NONE', ( #104 ), #101, .T. ) ;
#212 = PRODUCT_DEFINITION_SHAPE ( 'NONE', 'NONE',  #262 ) ;
#213 = PRODUCT_RELATED_PRODUCT_CATEGORY ( 'part', '', ( #49 ) ) ;
#214 = EDGE_LOOP ( 'NONE', ( #275, #52 ) ) ;
#215 = ORIENTED_EDGE ( 'NONE', *, *, #83, .F. ) ;
#216 = EDGE_LOOP ( 'NONE', ( #131, #176, #124, #215 ) ) ;
#217 = AXIS2_PLACEMENT_3D ( 'NONE', #186, #225, #89 ) ;
#218 = CYLINDRICAL_SURFACE ( 'NONE', #276, 0.003933062999999998796 ) ;
#219 = CARTESIAN_POINT ( 'NONE',  ( 1.928573779297251317E-18, 0.0000000000000000000, 0.01574799999999999811 ) ) ;
#220 = DIRECTION ( 'NONE',  ( -1.224646799147353207E-16, -0.0000000000000000000, -1.000000000000000000 ) ) ;
#221 = DIRECTION ( 'NONE',  ( -0.0000000000000000000, -0.0000000000000000000, -1.000000000000000000 ) ) ;
#222 = FACE_OUTER_BOUND ( 'NONE', #30, .T. ) ;
#223 = CARTESIAN_POINT ( 'NONE',  ( 0.003933062999999998796, 4.816613013794884084E-19, -4.816613013794884084E-19 ) ) ;
#224 = DIRECTION ( 'NONE',  ( -1.224646799147353207E-16, -0.0000000000000000000, -1.000000000000000000 ) ) ;
#225 = DIRECTION ( 'NONE',  ( 0.0000000000000000000, 0.0000000000000000000, -1.000000000000000000 ) ) ;
#226 = DIRECTION ( 'NONE',  ( 0.0000000000000000000, 0.0000000000000000000, 1.000000000000000000 ) ) ;
#227 = SHAPE_DEFINITION_REPRESENTATION ( #212, #92 ) ;
#228 = DIRECTION ( 'NONE',  ( -1.000000000000000000, 0.0000000000000000000, 0.0000000000000000000 ) ) ;
#229 =( NAMED_UNIT ( * ) PLANE_ANGLE_UNIT ( ) SI_UNIT ( $, .RADIAN. ) );
#230 = CARTESIAN_POINT ( 'NONE',  ( -0.05905500000000000332, 0.0000000000000000000, 1.481062999999999574 ) ) ;
#231 =( NAMED_UNIT ( * ) PLANE_ANGLE_UNIT ( ) SI_UNIT ( $, .RADIAN. ) );
#232 = AXIS2_PLACEMENT_3D ( 'NONE', #64, #200, #159 ) ;
#233 = VERTEX_POINT ( 'NONE', #241 ) ;
#234 = ORIENTED_EDGE ( 'NONE', *, *, #206, .T. ) ;
#235 = CONICAL_SURFACE ( 'NONE', #72, 0.003933063000000001398, 0.1745329251994338637 ) ;
#236 = AXIS2_PLACEMENT_3D ( 'NONE', #23, #185, #289 ) ;
#237 = EDGE_LOOP ( 'NONE', ( #7, #27, #97, #264 ) ) ;
#238 = ADVANCED_FACE ( 'NONE', ( #106 ), #261, .T. ) ;
#239 = AXIS2_PLACEMENT_3D ( 'NONE', #277, #22, #174 ) ;
#240 = AXIS2_PLACEMENT_3D ( 'NONE', #282, #285, #84 ) ;
#241 = CARTESIAN_POINT ( 'NONE',  ( 0.04405499999999973326, 6.313666573004162521E-18, 1.496062999999999921 ) ) ;
#242 = ADVANCED_FACE ( 'NONE', ( #75 ), #179, .T. ) ;
#243 = ORIENTED_EDGE ( 'NONE', *, *, #193, .F. ) ;
#244 = DIRECTION ( 'NONE',  ( -1.224646799147353207E-16, -0.0000000000000000000, -1.000000000000000000 ) ) ;
#245 = ORIENTED_EDGE ( 'NONE', *, *, #117, .F. ) ;
#246 = DIRECTION ( 'NONE',  ( -1.224646799147353207E-16, -0.0000000000000000000, -1.000000000000000000 ) ) ;
#247 = EDGE_LOOP ( 'NONE', ( #243, #128, #37, #34 ) ) ;
#248 = LINE ( 'NONE', #63, #90 ) ;
#249 = PLANE ( 'NONE',  #48 ) ;
#250 = FILL_AREA_STYLE ('',( #68 ) ) ;
#251 = PRESENTATION_LAYER_ASSIGNMENT (  '', '', ( #173 ) ) ;
#252 = DIRECTION ( 'NONE',  ( 0.0000000000000000000, 0.0000000000000000000, -1.000000000000000000 ) ) ;
#253 =( NAMED_UNIT ( * ) SI_UNIT ( $, .STERADIAN. ) SOLID_ANGLE_UNIT ( ) );
#254 = SURFACE_STYLE_USAGE ( .BOTH. , #47 ) ;
#255 = UNCERTAINTY_MEASURE_WITH_UNIT (LENGTH_MEASURE( 1.000000000000000082E-05 ), #44, 'distance_accuracy_value', 'NONE');
#256 = VECTOR ( 'NONE', #296, 39.37007874015748143 ) ;
#257 = CIRCLE ( 'NONE', #137, 0.05905500000000000332 ) ;
#258 = EDGE_CURVE ( 'NONE', #25, #118, #67, .T. ) ;
#259 = PRODUCT_DEFINITION_CONTEXT ( 'detailed design', #87, 'design' ) ;
#260 = CARTESIAN_POINT ( 'NONE',  ( 1.928573779297251317E-18, 0.0000000000000000000, 0.01574799999999999811 ) ) ;
#261 = CONICAL_SURFACE ( 'NONE', #160, 0.003933063000000001398, 0.1745329251994338637 ) ;
#262 = PRODUCT_DEFINITION ( 'UNKNOWN', '', #15, #259 ) ;
#263 = DIRECTION ( 'NONE',  ( -1.000000000000000000, 0.0000000000000000000, 0.0000000000000000000 ) ) ;
#264 = ORIENTED_EDGE ( 'NONE', *, *, #258, .F. ) ;
#265 = CARTESIAN_POINT ( 'NONE',  ( 0.0000000000000000000, 0.0000000000000000000, 1.496062999999999921 ) ) ;
#266 = FACE_OUTER_BOUND ( 'NONE', #247, .T. ) ;
#267 = LINE ( 'NONE', #154, #171 ) ;
#268 = STYLED_ITEM ( 'NONE', ( #24 ), #79 ) ;
#269 = EDGE_CURVE ( 'NONE', #210, #118, #177, .T. ) ;
#270 = CARTESIAN_POINT ( 'NONE',  ( 5.898649710075387327E-35, 0.0000000000000000000, 4.816613013794881195E-19 ) ) ;
#271 = ORIENTED_EDGE ( 'NONE', *, *, #151, .F. ) ;
#272 = LENGTH_MEASURE_WITH_UNIT ( LENGTH_MEASURE( 0.02539999999999999897 ), #69 );
#273 = DIRECTION ( 'NONE',  ( 1.224646799147353207E-16, 0.0000000000000000000, 1.000000000000000000 ) ) ;
#274 = LENGTH_MEASURE_WITH_UNIT ( LENGTH_MEASURE( 0.02539999999999999897 ), #13 );
#275 = ORIENTED_EDGE ( 'NONE', *, *, #117, .T. ) ;
#276 = AXIS2_PLACEMENT_3D ( 'NONE', #99, #220, #57 ) ;
#277 = CARTESIAN_POINT ( 'NONE',  ( 0.0000000000000000000, 0.0000000000000000000, 0.0000000000000000000 ) ) ;
#278 = MECHANICAL_DESIGN_GEOMETRIC_PRESENTATION_REPRESENTATION (  '', ( #173 ), #161 ) ;
#279 = EDGE_CURVE ( 'NONE', #210, #144, #267, .T. ) ;
#280 = ORIENTED_EDGE ( 'NONE', *, *, #17, .T. ) ;
#281 = DIRECTION ( 'NONE',  ( -1.000000000000000000, 0.0000000000000000000, 0.0000000000000000000 ) ) ;
#282 = CARTESIAN_POINT ( 'NONE',  ( 0.0000000000000000000, 0.0000000000000000000, 1.496062999999999921 ) ) ;
#283 = VECTOR ( 'NONE', #8, 39.37007874015748143 ) ;
#284 = DIRECTION ( 'NONE',  ( -1.224646799147353207E-16, -0.0000000000000000000, -1.000000000000000000 ) ) ;
#285 = DIRECTION ( 'NONE',  ( 0.0000000000000000000, 0.0000000000000000000, -1.000000000000000000 ) ) ;
#286 = EDGE_CURVE ( 'NONE', #233, #51, #248, .T. ) ;
#287 = CARTESIAN_POINT ( 'NONE',  ( 0.0000000000000000000, 0.0000000000000000000, 1.496062999999999921 ) ) ;
#288 =( GEOMETRIC_REPRESENTATION_CONTEXT ( 3 ) GLOBAL_UNCERTAINTY_ASSIGNED_CONTEXT ( ( #115 ) ) GLOBAL_UNIT_ASSIGNED_CONTEXT ( ( #112, #209, #253 ) ) REPRESENTATION_CONTEXT ( 'NONE', 'WORKASPACE' ) );
#289 = DIRECTION ( 'NONE',  ( -1.000000000000000000, 0.0000000000000000000, 1.224646799147352961E-16 ) ) ;
#290 = CARTESIAN_POINT ( 'NONE',  ( 4.021250709376985475E-17, 0.0000000000000000000, 0.3283600391702111154 ) ) ;
#291 = DIRECTION ( 'NONE',  ( 1.000000000000000000, 0.0000000000000000000, 0.0000000000000000000 ) ) ;
#292 = ADVANCED_FACE ( 'NONE', ( #172 ), #134, .T. ) ;
#293 = APPLICATION_PROTOCOL_DEFINITION ( 'draft international standard', 'automotive_design', 1998, #87 ) ;
#294 = EDGE_CURVE ( 'NONE', #51, #298, #33, .T. ) ;
#295 =( LENGTH_UNIT ( ) NAMED_UNIT ( * ) SI_UNIT ( $, .METRE. ) );
#296 = DIRECTION ( 'NONE',  ( 0.1736481776669313581, 0.0000000000000000000, 0.9848077530122077983 ) ) ;
#297 = EDGE_CURVE ( 'NONE', #144, #119, #257, .T. ) ;
#298 = VERTEX_POINT ( 'NONE', #230 ) ;
#299 = COLOUR_RGB ( '',0.7921568627450980005, 0.8196078431372548767, 0.9333333333333333481 ) ;
ENDSEC;
END-ISO-10303-21;
