ISO-10303-21;
HEADER;
FILE_DESCRIPTION (( 'STEP AP214' ),
    '1' );
FILE_NAME ('Micro_SEM-375-03.STEP',
    '2021-09-02T03:06:12',
    ( '' ),
    ( '' ),
    'SwSTEP 2.0',
    'SolidWorks 2020',
    '' );
FILE_SCHEMA (( 'AUTOMOTIVE_DESIGN' ));
ENDSEC;

DATA;
#1 = LINE ( 'NONE', #187, #244 ) ;
#2 = CIRCLE ( 'NONE', #90, 0.1873124999999999929 ) ;
#3 = PRESENTATION_LAYER_ASSIGNMENT (  '', '', ( #85 ) ) ;
#4 = CARTESIAN_POINT ( 'NONE',  ( -0.1875000000000000278, 0.0000000000000000000, 2.000000000000000000 ) ) ;
#5 = CARTESIAN_POINT ( 'NONE',  ( 0.1873124999999999929, 2.293916535652885596E-17, -2.293916535652885596E-17 ) ) ;
#6 = LINE ( 'NONE', #4, #298 ) ;
#7 = DIRECTION ( 'NONE',  ( -1.000000000000000000, 0.0000000000000000000, 1.224646799147352961E-16 ) ) ;
#8 = VERTEX_POINT ( 'NONE', #204 ) ;
#9 = EDGE_LOOP ( 'NONE', ( #177, #81 ) ) ;
#10 = APPLICATION_CONTEXT ( 'automotive_design' ) ;
#11 = ORIENTED_EDGE ( 'NONE', *, *, #36, .T. ) ;
#12 = ADVANCED_FACE ( 'NONE', ( #39 ), #41, .T. ) ;
#13 = LENGTH_MEASURE_WITH_UNIT ( LENGTH_MEASURE( 0.02539999999999999897 ), #243 );
#14 = ORIENTED_EDGE ( 'NONE', *, *, #221, .F. ) ;
#15 = ORIENTED_EDGE ( 'NONE', *, *, #50, .F. ) ;
#16 = CARTESIAN_POINT ( 'NONE',  ( 7.654042494670957853E-17, 0.0000000000000000000, 0.6250000000000000000 ) ) ;
#17 = DIRECTION ( 'NONE',  ( 1.224646799147353207E-16, 0.0000000000000000000, 1.000000000000000000 ) ) ;
#18 = AXIS2_PLACEMENT_3D ( 'NONE', #191, #167, #257 ) ;
#19 = CARTESIAN_POINT ( 'NONE',  ( 7.667064964284941550E-17, 0.0000000000000000000, 0.6260633653411784572 ) ) ;
#20 = PRODUCT_RELATED_PRODUCT_CATEGORY ( 'part', '', ( #249 ) ) ;
#21 = DIRECTION ( 'NONE',  ( 1.000000000000000000, 0.0000000000000000000, 0.0000000000000000000 ) ) ;
#22 = SURFACE_SIDE_STYLE ('',( #121 ) ) ;
#23 = AXIS2_PLACEMENT_3D ( 'NONE', #62, #299, #276 ) ;
#24 = CARTESIAN_POINT ( 'NONE',  ( 2.809237542898491532E-33, 0.0000000000000000000, 2.293916535652885596E-17 ) ) ;
#25 = CARTESIAN_POINT ( 'NONE',  ( -0.1873124999999999096, 2.295064642027086507E-17, 0.6250000000000000000 ) ) ;
#26 = CARTESIAN_POINT ( 'NONE',  ( 0.1875000000000000278, 2.296212748401287726E-17, 1.984999999999999654 ) ) ;
#27 = ADVANCED_FACE ( 'NONE', ( #275 ), #229, .T. ) ;
#28 =( NAMED_UNIT ( * ) SI_UNIT ( $, .STERADIAN. ) SOLID_ANGLE_UNIT ( ) );
#29 = VERTEX_POINT ( 'NONE', #34 ) ;
#30 = AXIS2_PLACEMENT_3D ( 'NONE', #137, #273, #93 ) ;
#31 = ORIENTED_EDGE ( 'NONE', *, *, #157, .T. ) ;
#32 = SURFACE_STYLE_FILL_AREA ( #51 ) ;
#33 = APPLICATION_PROTOCOL_DEFINITION ( 'draft international standard', 'automotive_design', 1998, #10 ) ;
#34 = CARTESIAN_POINT ( 'NONE',  ( -0.1873124999999999929, 0.0000000000000000000, 4.587833071305771192E-17 ) ) ;
#35 = CIRCLE ( 'NONE', #161, 0.1875000000000000278 ) ;
#36 = EDGE_CURVE ( 'NONE', #240, #266, #274, .T. ) ;
#37 =( GEOMETRIC_REPRESENTATION_CONTEXT ( 3 ) GLOBAL_UNCERTAINTY_ASSIGNED_CONTEXT ( ( #280 ) ) GLOBAL_UNIT_ASSIGNED_CONTEXT ( ( #111, #78, #28 ) ) REPRESENTATION_CONTEXT ( 'NONE', 'WORKASPACE' ) );
#38 = CARTESIAN_POINT ( 'NONE',  ( 2.809237542898491532E-33, 0.0000000000000000000, 2.293916535652885596E-17 ) ) ;
#39 = FACE_OUTER_BOUND ( 'NONE', #220, .T. ) ;
#40 = ADVANCED_BREP_SHAPE_REPRESENTATION ( 'Micro_SEM-375-03', ( #291, #238 ), #173 ) ;
#41 = CYLINDRICAL_SURFACE ( 'NONE', #30, 0.1873124999999999929 ) ;
#42 = ORIENTED_EDGE ( 'NONE', *, *, #193, .T. ) ;
#43 = DIMENSIONAL_EXPONENTS ( 1.000000000000000000, 0.0000000000000000000, 0.0000000000000000000, 0.0000000000000000000, 0.0000000000000000000, 0.0000000000000000000, 0.0000000000000000000 ) ;
#44 = LINE ( 'NONE', #99, #171 ) ;
#45 = CARTESIAN_POINT ( 'NONE',  ( 0.1873125000000000484, 0.0000000000000000000, 0.6250000000000000000 ) ) ;
#46 = CARTESIAN_POINT ( 'NONE',  ( 0.0000000000000000000, 0.0000000000000000000, 2.000000000000000000 ) ) ;
#47 = VECTOR ( 'NONE', #136, 39.37007874015748143 ) ;
#48 = DIRECTION ( 'NONE',  ( 0.0000000000000000000, 0.0000000000000000000, 1.000000000000000000 ) ) ;
#49 = FACE_OUTER_BOUND ( 'NONE', #218, .T. ) ;
#50 = EDGE_CURVE ( 'NONE', #266, #242, #35, .T. ) ;
#51 = FILL_AREA_STYLE ('',( #269 ) ) ;
#52 = CONICAL_SURFACE ( 'NONE', #223, 0.1873124999999999929, 0.1745329251994338915 ) ;
#53 = VERTEX_POINT ( 'NONE', #160 ) ;
#54 = ADVANCED_FACE ( 'NONE', ( #118 ), #252, .T. ) ;
#55 = VERTEX_POINT ( 'NONE', #222 ) ;
#56 = LENGTH_MEASURE_WITH_UNIT ( LENGTH_MEASURE( 0.02539999999999999897 ), #83 );
#57 = ORIENTED_EDGE ( 'NONE', *, *, #245, .F. ) ;
#58 = PRODUCT_DEFINITION_SHAPE ( 'NONE', 'NONE',  #103 ) ;
#59 = DIRECTION ( 'NONE',  ( 1.000000000000000000, 0.0000000000000000000, 0.0000000000000000000 ) ) ;
#60 = ORIENTED_EDGE ( 'NONE', *, *, #140, .F. ) ;
#61 = ORIENTED_EDGE ( 'NONE', *, *, #214, .F. ) ;
#62 = CARTESIAN_POINT ( 'NONE',  ( 0.0000000000000000000, 0.0000000000000000000, 2.000000000000000000 ) ) ;
#63 = ADVANCED_FACE ( 'NONE', ( #297 ), #250, .T. ) ;
#64 = VECTOR ( 'NONE', #256, 39.37007874015748143 ) ;
#65 = DIRECTION ( 'NONE',  ( 0.0000000000000000000, 0.0000000000000000000, 1.000000000000000000 ) ) ;
#66 = APPLICATION_CONTEXT ( 'automotive_design' ) ;
#67 = CARTESIAN_POINT ( 'NONE',  ( 0.0000000000000000000, 0.0000000000000000000, 2.000000000000000000 ) ) ;
#68 = CLOSED_SHELL ( 'NONE', ( #12, #97, #188, #54, #27, #63, #170, #296, #281, #112 ) ) ;
#69 = CARTESIAN_POINT ( 'NONE',  ( 0.0000000000000000000, 0.0000000000000000000, 2.000000000000000000 ) ) ;
#70 = AXIS2_PLACEMENT_3D ( 'NONE', #69, #186, #282 ) ;
#71 = CARTESIAN_POINT ( 'NONE',  ( 7.654042494670957853E-17, 0.0000000000000000000, 0.6250000000000000000 ) ) ;
#72 = LINE ( 'NONE', #5, #228 ) ;
#73 = DIRECTION ( 'NONE',  ( -1.000000000000000000, 0.0000000000000000000, 0.0000000000000000000 ) ) ;
#74 = CIRCLE ( 'NONE', #253, 0.1725000000000001532 ) ;
#75 = CARTESIAN_POINT ( 'NONE',  ( -0.1875000000000000278, 0.0000000000000000000, 1.984999999999999654 ) ) ;
#76 = APPLICATION_PROTOCOL_DEFINITION ( 'draft international standard', 'automotive_design', 1998, #66 ) ;
#77 = EDGE_CURVE ( 'NONE', #194, #8, #181, .T. ) ;
#78 =( NAMED_UNIT ( * ) PLANE_ANGLE_UNIT ( ) SI_UNIT ( $, .RADIAN. ) );
#79 = AXIS2_PLACEMENT_3D ( 'NONE', #46, #164, #189 ) ;
#80 = COLOUR_RGB ( '',0.7921568627450980005, 0.8196078431372548767, 0.9333333333333333481 ) ;
#81 = ORIENTED_EDGE ( 'NONE', *, *, #87, .T. ) ;
#82 = PRESENTATION_STYLE_ASSIGNMENT (( #286 ) ) ;
#83 =( LENGTH_UNIT ( ) NAMED_UNIT ( * ) SI_UNIT ( $, .METRE. ) );
#84 = AXIS2_PLACEMENT_3D ( 'NONE', #98, #213, #73 ) ;
#85 = STYLED_ITEM ( 'NONE', ( #82 ), #40 ) ;
#86 = ORIENTED_EDGE ( 'NONE', *, *, #50, .T. ) ;
#87 = EDGE_CURVE ( 'NONE', #240, #53, #277, .T. ) ;
#88 = DIRECTION ( 'NONE',  ( 0.0000000000000000000, 0.0000000000000000000, 1.000000000000000000 ) ) ;
#89 = CARTESIAN_POINT ( 'NONE',  ( 0.1725000000000001532, 2.112515728529185460E-17, 2.000000000000000000 ) ) ;
#90 = AXIS2_PLACEMENT_3D ( 'NONE', #38, #134, #278 ) ;
#91 = PRODUCT_CONTEXT ( 'NONE', #66, 'mechanical' ) ;
#92 = EDGE_LOOP ( 'NONE', ( #263, #184, #125, #151 ) ) ;
#93 = DIRECTION ( 'NONE',  ( -1.000000000000000000, 0.0000000000000000000, 1.224646799147352961E-16 ) ) ;
#94 = ORIENTED_EDGE ( 'NONE', *, *, #264, .F. ) ;
#95 = CARTESIAN_POINT ( 'NONE',  ( -0.1725000000000001532, 0.0000000000000000000, 2.000000000000000000 ) ) ;
#96 = AXIS2_PLACEMENT_3D ( 'NONE', #139, #180, #224 ) ;
#97 = ADVANCED_FACE ( 'NONE', ( #154 ), #113, .T. ) ;
#98 = CARTESIAN_POINT ( 'NONE',  ( 7.654042494670957853E-17, 0.0000000000000000000, 0.6250000000000000000 ) ) ;
#99 = CARTESIAN_POINT ( 'NONE',  ( 0.1875000000000000278, 2.296212748401287726E-17, 2.000000000000000000 ) ) ;
#100 = DIRECTION ( 'NONE',  ( 1.000000000000000000, 0.0000000000000000000, 0.0000000000000000000 ) ) ;
#101 = CIRCLE ( 'NONE', #237, 0.1875000000000000278 ) ;
#102 = CARTESIAN_POINT ( 'NONE',  ( 7.654042494670957853E-17, 0.0000000000000000000, 0.6250000000000000000 ) ) ;
#103 = PRODUCT_DEFINITION ( 'UNKNOWN', '', #114, #207 ) ;
#104 = DIMENSIONAL_EXPONENTS ( 1.000000000000000000, 0.0000000000000000000, 0.0000000000000000000, 0.0000000000000000000, 0.0000000000000000000, 0.0000000000000000000, 0.0000000000000000000 ) ;
#105 = ORIENTED_EDGE ( 'NONE', *, *, #272, .T. ) ;
#106 =( LENGTH_UNIT ( ) NAMED_UNIT ( * ) SI_UNIT ( $, .METRE. ) );
#107 = EDGE_LOOP ( 'NONE', ( #198, #57, #105, #15 ) ) ;
#108 = ORIENTED_EDGE ( 'NONE', *, *, #140, .T. ) ;
#109 = LENGTH_MEASURE_WITH_UNIT ( LENGTH_MEASURE( 0.02539999999999999897 ), #106 );
#110 = ORIENTED_EDGE ( 'NONE', *, *, #205, .F. ) ;
#111 =( CONVERSION_BASED_UNIT ( 'INCH', #13 ) LENGTH_UNIT ( ) NAMED_UNIT ( #190 ) );
#112 = ADVANCED_FACE ( 'NONE', ( #115 ), #202, .F. ) ;
#113 = CONICAL_SURFACE ( 'NONE', #152, 0.1873124999999999929, 0.1745329251994338915 ) ;
#114 = PRODUCT_DEFINITION_FORMATION_WITH_SPECIFIED_SOURCE ( 'ANY', '', #249, .NOT_KNOWN. ) ;
#115 = FACE_OUTER_BOUND ( 'NONE', #128, .T. ) ;
#116 = DIRECTION ( 'NONE',  ( 1.000000000000000000, 0.0000000000000000000, 0.0000000000000000000 ) ) ;
#117 = STYLED_ITEM ( 'NONE', ( #153 ), #291 ) ;
#118 = FACE_OUTER_BOUND ( 'NONE', #130, .T. ) ;
#119 = DIRECTION ( 'NONE',  ( -1.224646799147353207E-16, -0.0000000000000000000, -1.000000000000000000 ) ) ;
#120 = CARTESIAN_POINT ( 'NONE',  ( 0.1725000000000001532, 2.204364238465236130E-17, 2.000000000000000000 ) ) ;
#121 = SURFACE_STYLE_FILL_AREA ( #231 ) ;
#122 = DIRECTION ( 'NONE',  ( -0.0000000000000000000, -0.0000000000000000000, -1.000000000000000000 ) ) ;
#123 = DIRECTION ( 'NONE',  ( -1.224646799147353207E-16, -0.0000000000000000000, -1.000000000000000000 ) ) ;
#124 = DIRECTION ( 'NONE',  ( -1.000000000000000000, 0.0000000000000000000, 1.224646799147352961E-16 ) ) ;
#125 = ORIENTED_EDGE ( 'NONE', *, *, #77, .T. ) ;
#126 = ORIENTED_EDGE ( 'NONE', *, *, #214, .T. ) ;
#127 =( CONVERSION_BASED_UNIT ( 'INCH', #56 ) LENGTH_UNIT ( ) NAMED_UNIT ( #43 ) );
#128 = EDGE_LOOP ( 'NONE', ( #268, #108 ) ) ;
#129 = CIRCLE ( 'NONE', #84, 0.1873124999999999929 ) ;
#130 = EDGE_LOOP ( 'NONE', ( #131, #197, #216, #270 ) ) ;
#131 = ORIENTED_EDGE ( 'NONE', *, *, #149, .T. ) ;
#132 = DIRECTION ( 'NONE',  ( 0.0000000000000000000, 0.0000000000000000000, -1.000000000000000000 ) ) ;
#133 = AXIS2_PLACEMENT_3D ( 'NONE', #19, #119, #206 ) ;
#134 = DIRECTION ( 'NONE',  ( -1.224646799147353207E-16, -0.0000000000000000000, -1.000000000000000000 ) ) ;
#135 = SHAPE_DEFINITION_REPRESENTATION ( #58, #40 ) ;
#136 = DIRECTION ( 'NONE',  ( 0.7071067811865386910, 8.659560562354824390E-17, -0.7071067811865563435 ) ) ;
#137 = CARTESIAN_POINT ( 'NONE',  ( 0.0000000000000000000, 0.0000000000000000000, 0.0000000000000000000 ) ) ;
#138 = CONICAL_SURFACE ( 'NONE', #70, 0.1725000000000001532, 0.7853981633974357335 ) ;
#139 = CARTESIAN_POINT ( 'NONE',  ( 0.0000000000000000000, 0.0000000000000000000, 2.000000000000000000 ) ) ;
#140 = EDGE_CURVE ( 'NONE', #55, #29, #2, .T. ) ;
#141 = DIRECTION ( 'NONE',  ( -1.224646799147353207E-16, -0.0000000000000000000, -1.000000000000000000 ) ) ;
#142 = FILL_AREA_STYLE_COLOUR ( '', #283 ) ;
#143 = AXIS2_PLACEMENT_3D ( 'NONE', #24, #141, #124 ) ;
#144 = CARTESIAN_POINT ( 'NONE',  ( 0.1873125000000000484, 0.0000000000000000000, 0.6250000000000000000 ) ) ;
#145 = LINE ( 'NONE', #95, #209 ) ;
#146 = DIRECTION ( 'NONE',  ( 0.1736481776669313859, 0.0000000000000000000, 0.9848077530122077983 ) ) ;
#147 =( NAMED_UNIT ( * ) PLANE_ANGLE_UNIT ( ) SI_UNIT ( $, .RADIAN. ) );
#148 = CONICAL_SURFACE ( 'NONE', #79, 0.1725000000000001532, 0.7853981633974357335 ) ;
#149 = EDGE_CURVE ( 'NONE', #242, #266, #196, .T. ) ;
#150 = ORIENTED_EDGE ( 'NONE', *, *, #157, .F. ) ;
#151 = ORIENTED_EDGE ( 'NONE', *, *, #165, .F. ) ;
#152 = AXIS2_PLACEMENT_3D ( 'NONE', #16, #17, #116 ) ;
#153 = PRESENTATION_STYLE_ASSIGNMENT (( #169 ) ) ;
#154 = FACE_OUTER_BOUND ( 'NONE', #92, .T. ) ;
#155 = DIRECTION ( 'NONE',  ( 0.0000000000000000000, 0.0000000000000000000, 1.000000000000000000 ) ) ;
#156 = AXIS2_PLACEMENT_3D ( 'NONE', #67, #227, #248 ) ;
#157 = EDGE_CURVE ( 'NONE', #8, #194, #101, .T. ) ;
#158 = EDGE_LOOP ( 'NONE', ( #174, #110, #183, #31 ) ) ;
#159 = ORIENTED_EDGE ( 'NONE', *, *, #149, .F. ) ;
#160 = CARTESIAN_POINT ( 'NONE',  ( -0.1725000000000001532, 0.0000000000000000000, 2.000000000000000000 ) ) ;
#161 = AXIS2_PLACEMENT_3D ( 'NONE', #203, #132, #225 ) ;
#162 = DIRECTION ( 'NONE',  ( -1.000000000000000000, 0.0000000000000000000, 0.0000000000000000000 ) ) ;
#163 = UNCERTAINTY_MEASURE_WITH_UNIT (LENGTH_MEASURE( 1.000000000000000082E-05 ), #127, 'distance_accuracy_value', 'NONE');
#164 = DIRECTION ( 'NONE',  ( 0.0000000000000000000, 0.0000000000000000000, -1.000000000000000000 ) ) ;
#165 = EDGE_CURVE ( 'NONE', #239, #8, #233, .T. ) ;
#166 = DIRECTION ( 'NONE',  ( -1.224646799147353207E-16, -0.0000000000000000000, -1.000000000000000000 ) ) ;
#167 = DIRECTION ( 'NONE',  ( 0.0000000000000000000, 0.0000000000000000000, -1.000000000000000000 ) ) ;
#168 = CARTESIAN_POINT ( 'NONE',  ( 0.0000000000000000000, 0.0000000000000000000, 2.000000000000000000 ) ) ;
#169 = SURFACE_STYLE_USAGE ( .BOTH. , #22 ) ;
#170 = ADVANCED_FACE ( 'NONE', ( #284 ), #148, .T. ) ;
#171 = VECTOR ( 'NONE', #236, 39.37007874015748143 ) ;
#172 = VECTOR ( 'NONE', #146, 39.37007874015748143 ) ;
#173 =( GEOMETRIC_REPRESENTATION_CONTEXT ( 3 ) GLOBAL_UNCERTAINTY_ASSIGNED_CONTEXT ( ( #163 ) ) GLOBAL_UNIT_ASSIGNED_CONTEXT ( ( #127, #288, #241 ) ) REPRESENTATION_CONTEXT ( 'NONE', 'WORKASPACE' ) );
#174 = ORIENTED_EDGE ( 'NONE', *, *, #260, .F. ) ;
#175 = EDGE_CURVE ( 'NONE', #29, #55, #201, .T. ) ;
#176 = ORIENTED_EDGE ( 'NONE', *, *, #272, .F. ) ;
#177 = ORIENTED_EDGE ( 'NONE', *, *, #245, .T. ) ;
#178 = MECHANICAL_DESIGN_GEOMETRIC_PRESENTATION_REPRESENTATION (  '', ( #117 ), #287 ) ;
#179 = ORIENTED_EDGE ( 'NONE', *, *, #221, .T. ) ;
#180 = DIRECTION ( 'NONE',  ( -0.0000000000000000000, -0.0000000000000000000, -1.000000000000000000 ) ) ;
#181 = CIRCLE ( 'NONE', #133, 0.1875000000000000278 ) ;
#182 = CARTESIAN_POINT ( 'NONE',  ( 0.0000000000000000000, 0.0000000000000000000, 2.000000000000000000 ) ) ;
#183 = ORIENTED_EDGE ( 'NONE', *, *, #165, .T. ) ;
#184 = ORIENTED_EDGE ( 'NONE', *, *, #260, .T. ) ;
#185 = AXIS2_PLACEMENT_3D ( 'NONE', #208, #166, #7 ) ;
#186 = DIRECTION ( 'NONE',  ( 0.0000000000000000000, 0.0000000000000000000, -1.000000000000000000 ) ) ;
#187 = CARTESIAN_POINT ( 'NONE',  ( -0.1873124999999999096, 2.293916535652885596E-17, 0.6250000000000000000 ) ) ;
#188 = ADVANCED_FACE ( 'NONE', ( #49 ), #138, .T. ) ;
#189 = DIRECTION ( 'NONE',  ( -1.000000000000000000, 0.0000000000000000000, 0.0000000000000000000 ) ) ;
#190 = DIMENSIONAL_EXPONENTS ( 1.000000000000000000, 0.0000000000000000000, 0.0000000000000000000, 0.0000000000000000000, 0.0000000000000000000, 0.0000000000000000000, 0.0000000000000000000 ) ;
#191 = CARTESIAN_POINT ( 'NONE',  ( 0.0000000000000000000, 0.0000000000000000000, 1.984999999999999654 ) ) ;
#192 = CARTESIAN_POINT ( 'NONE',  ( -0.1874999999999999445, 0.0000000000000000000, 0.6260633653411784572 ) ) ;
#193 = EDGE_CURVE ( 'NONE', #289, #239, #247, .T. ) ;
#194 = VERTEX_POINT ( 'NONE', #192 ) ;
#195 = SURFACE_SIDE_STYLE ('',( #32 ) ) ;
#196 = CIRCLE ( 'NONE', #18, 0.1875000000000000278 ) ;
#197 = ORIENTED_EDGE ( 'NONE', *, *, #264, .T. ) ;
#198 = ORIENTED_EDGE ( 'NONE', *, *, #36, .F. ) ;
#199 = ORIENTED_EDGE ( 'NONE', *, *, #175, .F. ) ;
#200 = ORIENTED_EDGE ( 'NONE', *, *, #205, .T. ) ;
#201 = CIRCLE ( 'NONE', #143, 0.1873124999999999929 ) ;
#202 = PLANE ( 'NONE',  #217 ) ;
#203 = CARTESIAN_POINT ( 'NONE',  ( 0.0000000000000000000, 0.0000000000000000000, 1.984999999999999654 ) ) ;
#204 = CARTESIAN_POINT ( 'NONE',  ( 0.1875000000000000833, 2.296212748401288650E-17, 0.6260633653411784572 ) ) ;
#205 = EDGE_CURVE ( 'NONE', #239, #289, #129, .T. ) ;
#206 = DIRECTION ( 'NONE',  ( 1.000000000000000000, 0.0000000000000000000, 0.0000000000000000000 ) ) ;
#207 = PRODUCT_DEFINITION_CONTEXT ( 'detailed design', #10, 'design' ) ;
#208 = CARTESIAN_POINT ( 'NONE',  ( 0.0000000000000000000, 0.0000000000000000000, 0.0000000000000000000 ) ) ;
#209 = VECTOR ( 'NONE', #210, 39.37007874015748143 ) ;
#210 = DIRECTION ( 'NONE',  ( -0.7071067811865386910, 0.0000000000000000000, -0.7071067811865563435 ) ) ;
#211 = EDGE_CURVE ( 'NONE', #242, #194, #6, .T. ) ;
#212 = CARTESIAN_POINT ( 'NONE',  ( 7.667064964284941550E-17, 0.0000000000000000000, 0.6260633653411784572 ) ) ;
#213 = DIRECTION ( 'NONE',  ( -1.224646799147353207E-16, -0.0000000000000000000, -1.000000000000000000 ) ) ;
#214 = EDGE_CURVE ( 'NONE', #289, #29, #230, .T. ) ;
#215 = CYLINDRICAL_SURFACE ( 'NONE', #185, 0.1873124999999999929 ) ;
#216 = ORIENTED_EDGE ( 'NONE', *, *, #77, .F. ) ;
#217 = AXIS2_PLACEMENT_3D ( 'NONE', #295, #155, #246 ) ;
#218 = EDGE_LOOP ( 'NONE', ( #290, #11, #159, #176 ) ) ;
#219 = EDGE_LOOP ( 'NONE', ( #94, #86, #293, #150 ) ) ;
#220 = EDGE_LOOP ( 'NONE', ( #42, #179, #199, #61 ) ) ;
#221 = EDGE_CURVE ( 'NONE', #239, #55, #72, .T. ) ;
#222 = CARTESIAN_POINT ( 'NONE',  ( 0.1873124999999999929, 2.293916535652885596E-17, 0.0000000000000000000 ) ) ;
#223 = AXIS2_PLACEMENT_3D ( 'NONE', #71, #285, #59 ) ;
#224 = DIRECTION ( 'NONE',  ( -1.000000000000000000, 0.0000000000000000000, 0.0000000000000000000 ) ) ;
#225 = DIRECTION ( 'NONE',  ( 1.000000000000000000, 0.0000000000000000000, 0.0000000000000000000 ) ) ;
#226 = DIRECTION ( 'NONE',  ( 1.000000000000000000, 0.0000000000000000000, 0.0000000000000000000 ) ) ;
#227 = DIRECTION ( 'NONE',  ( -0.0000000000000000000, -0.0000000000000000000, -1.000000000000000000 ) ) ;
#228 = VECTOR ( 'NONE', #279, 39.37007874015748143 ) ;
#229 = CYLINDRICAL_SURFACE ( 'NONE', #156, 0.1875000000000000278 ) ;
#230 = LINE ( 'NONE', #259, #64 ) ;
#231 = FILL_AREA_STYLE ('',( #142 ) ) ;
#232 = PRESENTATION_LAYER_ASSIGNMENT (  '', '', ( #117 ) ) ;
#233 = LINE ( 'NONE', #144, #172 ) ;
#234 = UNCERTAINTY_MEASURE_WITH_UNIT (LENGTH_MEASURE( 1.000000000000000082E-05 ), #265, 'distance_accuracy_value', 'NONE');
#235 = FACE_OUTER_BOUND ( 'NONE', #294, .T. ) ;
#236 = DIRECTION ( 'NONE',  ( -0.0000000000000000000, -0.0000000000000000000, -1.000000000000000000 ) ) ;
#237 = AXIS2_PLACEMENT_3D ( 'NONE', #212, #261, #100 ) ;
#238 = AXIS2_PLACEMENT_3D ( 'NONE', #251, #88, #226 ) ;
#239 = VERTEX_POINT ( 'NONE', #45 ) ;
#240 = VERTEX_POINT ( 'NONE', #120 ) ;
#241 =( NAMED_UNIT ( * ) SI_UNIT ( $, .STERADIAN. ) SOLID_ANGLE_UNIT ( ) );
#242 = VERTEX_POINT ( 'NONE', #75 ) ;
#243 =( LENGTH_UNIT ( ) NAMED_UNIT ( * ) SI_UNIT ( $, .METRE. ) );
#244 = VECTOR ( 'NONE', #255, 39.37007874015747433 ) ;
#245 = EDGE_CURVE ( 'NONE', #53, #240, #74, .T. ) ;
#246 = DIRECTION ( 'NONE',  ( 1.000000000000000000, 0.0000000000000000000, -0.0000000000000000000 ) ) ;
#247 = CIRCLE ( 'NONE', #258, 0.1873124999999999929 ) ;
#248 = DIRECTION ( 'NONE',  ( -1.000000000000000000, 0.0000000000000000000, 0.0000000000000000000 ) ) ;
#249 = PRODUCT ( 'Micro_SEM-375-03', 'Micro_SEM-375-03', '', ( #91 ) ) ;
#250 = PLANE ( 'NONE',  #262 ) ;
#251 = CARTESIAN_POINT ( 'NONE',  ( 0.0000000000000000000, 0.0000000000000000000, 0.0000000000000000000 ) ) ;
#252 = CYLINDRICAL_SURFACE ( 'NONE', #96, 0.1875000000000000278 ) ;
#253 = AXIS2_PLACEMENT_3D ( 'NONE', #168, #48, #21 ) ;
#254 = MECHANICAL_DESIGN_GEOMETRIC_PRESENTATION_REPRESENTATION (  '', ( #85 ), #37 ) ;
#255 = DIRECTION ( 'NONE',  ( -0.1736481776669311916, 2.126576849575783316E-17, 0.9848077530122080203 ) ) ;
#256 = DIRECTION ( 'NONE',  ( -1.224646799147353207E-16, -0.0000000000000000000, -1.000000000000000000 ) ) ;
#257 = DIRECTION ( 'NONE',  ( 1.000000000000000000, 0.0000000000000000000, 0.0000000000000000000 ) ) ;
#258 = AXIS2_PLACEMENT_3D ( 'NONE', #102, #123, #162 ) ;
#259 = CARTESIAN_POINT ( 'NONE',  ( -0.1873124999999999929, 0.0000000000000000000, 2.293916535652885596E-17 ) ) ;
#260 = EDGE_CURVE ( 'NONE', #289, #194, #1, .T. ) ;
#261 = DIRECTION ( 'NONE',  ( -1.224646799147353207E-16, -0.0000000000000000000, -1.000000000000000000 ) ) ;
#262 = AXIS2_PLACEMENT_3D ( 'NONE', #182, #65, #271 ) ;
#263 = ORIENTED_EDGE ( 'NONE', *, *, #193, .F. ) ;
#264 = EDGE_CURVE ( 'NONE', #266, #8, #44, .T. ) ;
#265 =( CONVERSION_BASED_UNIT ( 'INCH', #109 ) LENGTH_UNIT ( ) NAMED_UNIT ( #104 ) );
#266 = VERTEX_POINT ( 'NONE', #26 ) ;
#267 = FACE_OUTER_BOUND ( 'NONE', #158, .T. ) ;
#268 = ORIENTED_EDGE ( 'NONE', *, *, #175, .T. ) ;
#269 = FILL_AREA_STYLE_COLOUR ( '', #80 ) ;
#270 = ORIENTED_EDGE ( 'NONE', *, *, #211, .F. ) ;
#271 = DIRECTION ( 'NONE',  ( 1.000000000000000000, 0.0000000000000000000, -0.0000000000000000000 ) ) ;
#272 = EDGE_CURVE ( 'NONE', #53, #242, #145, .T. ) ;
#273 = DIRECTION ( 'NONE',  ( -1.224646799147353207E-16, -0.0000000000000000000, -1.000000000000000000 ) ) ;
#274 = LINE ( 'NONE', #89, #47 ) ;
#275 = FACE_OUTER_BOUND ( 'NONE', #219, .T. ) ;
#276 = DIRECTION ( 'NONE',  ( 1.000000000000000000, 0.0000000000000000000, 0.0000000000000000000 ) ) ;
#277 = CIRCLE ( 'NONE', #23, 0.1725000000000001532 ) ;
#278 = DIRECTION ( 'NONE',  ( -1.000000000000000000, 0.0000000000000000000, 1.224646799147352961E-16 ) ) ;
#279 = DIRECTION ( 'NONE',  ( -1.224646799147353207E-16, -0.0000000000000000000, -1.000000000000000000 ) ) ;
#280 = UNCERTAINTY_MEASURE_WITH_UNIT (LENGTH_MEASURE( 1.000000000000000082E-05 ), #111, 'distance_accuracy_value', 'NONE');
#281 = ADVANCED_FACE ( 'NONE', ( #235 ), #215, .T. ) ;
#282 = DIRECTION ( 'NONE',  ( -1.000000000000000000, 0.0000000000000000000, 0.0000000000000000000 ) ) ;
#283 = COLOUR_RGB ( '',0.7921568627450980005, 0.8196078431372548767, 0.9333333333333333481 ) ;
#284 = FACE_OUTER_BOUND ( 'NONE', #107, .T. ) ;
#285 = DIRECTION ( 'NONE',  ( 1.224646799147353207E-16, 0.0000000000000000000, 1.000000000000000000 ) ) ;
#286 = SURFACE_STYLE_USAGE ( .BOTH. , #195 ) ;
#287 =( GEOMETRIC_REPRESENTATION_CONTEXT ( 3 ) GLOBAL_UNCERTAINTY_ASSIGNED_CONTEXT ( ( #234 ) ) GLOBAL_UNIT_ASSIGNED_CONTEXT ( ( #265, #147, #292 ) ) REPRESENTATION_CONTEXT ( 'NONE', 'WORKASPACE' ) );
#288 =( NAMED_UNIT ( * ) PLANE_ANGLE_UNIT ( ) SI_UNIT ( $, .RADIAN. ) );
#289 = VERTEX_POINT ( 'NONE', #25 ) ;
#290 = ORIENTED_EDGE ( 'NONE', *, *, #87, .F. ) ;
#291 = MANIFOLD_SOLID_BREP ( 'Cut-Revolve1', #68 ) ;
#292 =( NAMED_UNIT ( * ) SI_UNIT ( $, .STERADIAN. ) SOLID_ANGLE_UNIT ( ) );
#293 = ORIENTED_EDGE ( 'NONE', *, *, #211, .T. ) ;
#294 = EDGE_LOOP ( 'NONE', ( #14, #200, #126, #60 ) ) ;
#295 = CARTESIAN_POINT ( 'NONE',  ( 0.0000000000000000000, 0.0000000000000000000, 0.0000000000000000000 ) ) ;
#296 = ADVANCED_FACE ( 'NONE', ( #267 ), #52, .T. ) ;
#297 = FACE_OUTER_BOUND ( 'NONE', #9, .T. ) ;
#298 = VECTOR ( 'NONE', #122, 39.37007874015748143 ) ;
#299 = DIRECTION ( 'NONE',  ( 0.0000000000000000000, 0.0000000000000000000, 1.000000000000000000 ) ) ;
ENDSEC;
END-ISO-10303-21;
