ISO-10303-21;
HEADER;
FILE_DESCRIPTION (( 'STEP AP214' ),
    '1' );
FILE_NAME ('00782.STEP',
    '2023-06-22T14:16:42',
    ( '' ),
    ( '' ),
    'SwSTEP 2.0',
    'SolidWorks 2023',
    '' );
FILE_SCHEMA (( 'AUTOMOTIVE_DESIGN' ));
ENDSEC;

DATA;
#1 = EDGE_CURVE ( 'NONE', #122, #48, #283, .T. ) ;
#2 =( NAMED_UNIT ( * ) PLANE_ANGLE_UNIT ( ) SI_UNIT ( $, .RADIAN. ) );
#3 = CARTESIAN_POINT ( 'NONE',  ( 0.000000000000000000, 0.000000000000000000, 0.000000000000000000 ) ) ;
#4 = AXIS2_PLACEMENT_3D ( 'NONE', #32, #291, #102 ) ;
#5 = UNCERTAINTY_MEASURE_WITH_UNIT (LENGTH_MEASURE( 1.000000000000000082E-05 ), #41, 'distance_accuracy_value', 'NONE');
#6 = FILL_AREA_STYLE_COLOUR ( '', #176 ) ;
#7 = ORIENTED_EDGE ( 'NONE', *, *, #170, .F. ) ;
#8 = DIRECTION ( 'NONE',  ( -0.000000000000000000, -1.000000000000000000, -0.000000000000000000 ) ) ;
#9 = FILL_AREA_STYLE_COLOUR ( '', #77 ) ;
#10 = AXIS2_PLACEMENT_3D ( 'NONE', #306, #93, #73 ) ;
#11 = VERTEX_POINT ( 'NONE', #90 ) ;
#12 = STYLED_ITEM ( 'NONE', ( #45 ), #26 ) ;
#13 = CARTESIAN_POINT ( 'NONE',  ( -1.224646799147354440E-16, 6.000000000000000888, 0.000000000000000000 ) ) ;
#14 = CARTESIAN_POINT ( 'NONE',  ( 6.123233995736766036E-17, 3.250000000000000000, 0.5000000000000000000 ) ) ;
#15 = CYLINDRICAL_SURFACE ( 'NONE', #175, 0.5000000000000000000 ) ;
#16 = SURFACE_STYLE_FILL_AREA ( #308 ) ;
#17 = STYLED_ITEM ( 'NONE', ( #211 ), #83 ) ;
#18 = FILL_AREA_STYLE ('',( #304 ) ) ;
#19 = UNCERTAINTY_MEASURE_WITH_UNIT (LENGTH_MEASURE( 1.000000000000000082E-05 ), #305, 'distance_accuracy_value', 'NONE');
#20 = CARTESIAN_POINT ( 'NONE',  ( 0.5000000000000000000, 6.000000000000000888, 0.000000000000000000 ) ) ;
#21 = EDGE_LOOP ( 'NONE', ( #260, #79, #210, #47 ) ) ;
#22 = UNCERTAINTY_MEASURE_WITH_UNIT (LENGTH_MEASURE( 1.000000000000000082E-05 ), #196, 'distance_accuracy_value', 'NONE');
#23 = CIRCLE ( 'NONE', #266, 0.5000000000000001110 ) ;
#24 = PRODUCT_DEFINITION_FORMATION_WITH_SPECIFIED_SOURCE ( 'ANY', '', #53, .NOT_KNOWN. ) ;
#25 = LENGTH_MEASURE_WITH_UNIT ( LENGTH_MEASURE( 0.02539999999999999897 ), #114 );
#26 = MANIFOLD_SOLID_BREP ( 'Revolve - Cutting Edge', #186 ) ;
#27 = EDGE_LOOP ( 'NONE', ( #159, #188, #157, #265 ) ) ;
#28 = LENGTH_MEASURE_WITH_UNIT ( LENGTH_MEASURE( 0.02539999999999999897 ), #245 );
#29 = UNCERTAINTY_MEASURE_WITH_UNIT (LENGTH_MEASURE( 1.000000000000000082E-05 ), #286, 'distance_accuracy_value', 'NONE');
#30 = DIRECTION ( 'NONE',  ( -4.453261087808560759E-17, 1.000000000000000000, -0.000000000000000000 ) ) ;
#31 =( NAMED_UNIT ( * ) PLANE_ANGLE_UNIT ( ) SI_UNIT ( $, .RADIAN. ) );
#32 = CARTESIAN_POINT ( 'NONE',  ( 0.000000000000000000, 0.000000000000000000, 0.000000000000000000 ) ) ;
#33 = CIRCLE ( 'NONE', #309, 0.5000000000000000000 ) ;
#34 = PRODUCT_DEFINITION_CONTEXT ( 'detailed design', #78, 'design' ) ;
#35 = SURFACE_STYLE_USAGE ( .BOTH. , #223 ) ;
#36 = CARTESIAN_POINT ( 'NONE',  ( 0.000000000000000000, 3.250000000000000000, 0.000000000000000000 ) ) ;
#37 = CARTESIAN_POINT ( 'NONE',  ( 0.000000000000000000, 0.000000000000000000, 0.000000000000000000 ) ) ;
#38 = LENGTH_MEASURE_WITH_UNIT ( LENGTH_MEASURE( 0.02539999999999999897 ), #85 );
#39 =( LENGTH_UNIT ( ) NAMED_UNIT ( * ) SI_UNIT ( $, .METRE. ) );
#40 = DIMENSIONAL_EXPONENTS ( 1.000000000000000000, 0.000000000000000000, 0.000000000000000000, 0.000000000000000000, 0.000000000000000000, 0.000000000000000000, 0.000000000000000000 ) ;
#41 =( CONVERSION_BASED_UNIT ( 'INCH', #38 ) LENGTH_UNIT ( ) NAMED_UNIT ( #296 ) );
#42 = EDGE_CURVE ( 'NONE', #205, #95, #109, .T. ) ;
#43 = CARTESIAN_POINT ( 'NONE',  ( 0.000000000000000000, 0.000000000000000000, -0.5000000000000000000 ) ) ;
#44 = DIRECTION ( 'NONE',  ( 1.000000000000000000, 0.000000000000000000, 0.000000000000000000 ) ) ;
#45 = PRESENTATION_STYLE_ASSIGNMENT (( #302 ) ) ;
#46 = ORIENTED_EDGE ( 'NONE', *, *, #42, .F. ) ;
#47 = ORIENTED_EDGE ( 'NONE', *, *, #268, .F. ) ;
#48 = VERTEX_POINT ( 'NONE', #281 ) ;
#49 = CIRCLE ( 'NONE', #293, 0.5000000000000000000 ) ;
#50 = AXIS2_PLACEMENT_3D ( 'NONE', #37, #269, #218 ) ;
#51 = UNCERTAINTY_MEASURE_WITH_UNIT (LENGTH_MEASURE( 1.000000000000000082E-05 ), #64, 'distance_accuracy_value', 'NONE');
#52 = FACE_OUTER_BOUND ( 'NONE', #202, .T. ) ;
#53 = PRODUCT ( '00782', '00782', '', ( #204 ) ) ;
#54 = LENGTH_MEASURE_WITH_UNIT ( LENGTH_MEASURE( 0.02539999999999999897 ), #153 );
#55 = SURFACE_STYLE_USAGE ( .BOTH. , #199 ) ;
#56 = CYLINDRICAL_SURFACE ( 'NONE', #237, 0.5000000000000000000 ) ;
#57 = CARTESIAN_POINT ( 'NONE',  ( 0.000000000000000000, 3.250000000000000000, 0.000000000000000000 ) ) ;
#58 = DIRECTION ( 'NONE',  ( 0.000000000000000000, 0.000000000000000000, -1.000000000000000000 ) ) ;
#59 = PRODUCT_RELATED_PRODUCT_CATEGORY ( 'part', '', ( #53 ) ) ;
#60 = LINE ( 'NONE', #139, #143 ) ;
#61 = PRESENTATION_STYLE_ASSIGNMENT (( #270 ) ) ;
#62 = PLANE ( 'NONE',  #110 ) ;
#63 =( GEOMETRIC_REPRESENTATION_CONTEXT ( 3 ) GLOBAL_UNCERTAINTY_ASSIGNED_CONTEXT ( ( #19 ) ) GLOBAL_UNIT_ASSIGNED_CONTEXT ( ( #305, #229, #76 ) ) REPRESENTATION_CONTEXT ( 'NONE', 'WORKASPACE' ) );
#64 =( CONVERSION_BASED_UNIT ( 'INCH', #54 ) LENGTH_UNIT ( ) NAMED_UNIT ( #71 ) );
#65 = ADVANCED_FACE ( 'NONE', ( #147 ), #239, .F. ) ;
#66 = MECHANICAL_DESIGN_GEOMETRIC_PRESENTATION_REPRESENTATION (  '', ( #17 ), #273 ) ;
#67 = ORIENTED_EDGE ( 'NONE', *, *, #170, .T. ) ;
#68 = EDGE_LOOP ( 'NONE', ( #72, #74 ) ) ;
#69 = STYLED_ITEM ( 'NONE', ( #208 ), #161 ) ;
#70 = DIRECTION ( 'NONE',  ( -4.453261087808560759E-17, 1.000000000000000000, -0.000000000000000000 ) ) ;
#71 = DIMENSIONAL_EXPONENTS ( 1.000000000000000000, 0.000000000000000000, 0.000000000000000000, 0.000000000000000000, 0.000000000000000000, 0.000000000000000000, 0.000000000000000000 ) ;
#72 = ORIENTED_EDGE ( 'NONE', *, *, #214, .F. ) ;
#73 = DIRECTION ( 'NONE',  ( -1.000000000000000000, 0.000000000000000000, 0.000000000000000000 ) ) ;
#74 = ORIENTED_EDGE ( 'NONE', *, *, #97, .F. ) ;
#75 = DIRECTION ( 'NONE',  ( -1.000000000000000000, 0.000000000000000000, 0.000000000000000000 ) ) ;
#76 =( NAMED_UNIT ( * ) SI_UNIT ( $, .STERADIAN. ) SOLID_ANGLE_UNIT ( ) );
#77 = COLOUR_RGB ( '',1.000000000000000000, 0.000000000000000000, 0.000000000000000000 ) ;
#78 = APPLICATION_CONTEXT ( 'automotive_design' ) ;
#79 = ORIENTED_EDGE ( 'NONE', *, *, #189, .T. ) ;
#80 = FILL_AREA_STYLE_COLOUR ( '', #191 ) ;
#81 =( NAMED_UNIT ( * ) PLANE_ANGLE_UNIT ( ) SI_UNIT ( $, .RADIAN. ) );
#82 = STYLED_ITEM ( 'NONE', ( #107 ), #200 ) ;
#83 = ADVANCED_FACE ( 'NONE', ( #120 ), #15, .T. ) ;
#84 = DIRECTION ( 'NONE',  ( -0.000000000000000000, -1.000000000000000000, -0.000000000000000000 ) ) ;
#85 =( LENGTH_UNIT ( ) NAMED_UNIT ( * ) SI_UNIT ( $, .METRE. ) );
#86 = FACE_OUTER_BOUND ( 'NONE', #68, .T. ) ;
#87 = PRESENTATION_LAYER_ASSIGNMENT (  '', '', ( #12 ) ) ;
#88 = MECHANICAL_DESIGN_GEOMETRIC_PRESENTATION_REPRESENTATION (  '', ( #230 ), #177 ) ;
#89 = APPLICATION_PROTOCOL_DEFINITION ( 'draft international standard', 'automotive_design', 1998, #78 ) ;
#90 = CARTESIAN_POINT ( 'NONE',  ( 0.5000000000000000000, 3.250000000000000000, 6.123233995736767268E-17 ) ) ;
#91 = DIRECTION ( 'NONE',  ( 0.000000000000000000, 0.000000000000000000, -1.000000000000000000 ) ) ;
#92 = LINE ( 'NONE', #103, #94 ) ;
#93 = DIRECTION ( 'NONE',  ( -4.453261087808560759E-17, 1.000000000000000000, -0.000000000000000000 ) ) ;
#94 = VECTOR ( 'NONE', #131, 39.37007874015748143 ) ;
#95 = VERTEX_POINT ( 'NONE', #263 ) ;
#96 =( NAMED_UNIT ( * ) SI_UNIT ( $, .STERADIAN. ) SOLID_ANGLE_UNIT ( ) );
#97 = EDGE_CURVE ( 'NONE', #11, #135, #49, .T. ) ;
#98 =( NAMED_UNIT ( * ) SI_UNIT ( $, .STERADIAN. ) SOLID_ANGLE_UNIT ( ) );
#99 = COLOUR_RGB ( '',1.000000000000000000, 0.000000000000000000, 0.000000000000000000 ) ;
#100 = SURFACE_STYLE_FILL_AREA ( #250 ) ;
#101 =( GEOMETRIC_REPRESENTATION_CONTEXT ( 3 ) GLOBAL_UNCERTAINTY_ASSIGNED_CONTEXT ( ( #234 ) ) GLOBAL_UNIT_ASSIGNED_CONTEXT ( ( #128, #31, #156 ) ) REPRESENTATION_CONTEXT ( 'NONE', 'WORKASPACE' ) );
#102 = DIRECTION ( 'NONE',  ( 0.000000000000000000, 0.000000000000000000, -1.000000000000000000 ) ) ;
#103 = CARTESIAN_POINT ( 'NONE',  ( 0.4999999999999999445, 6.000000000000000888, 6.123233995736767268E-17 ) ) ;
#104 = DIRECTION ( 'NONE',  ( 0.000000000000000000, 0.000000000000000000, -1.000000000000000000 ) ) ;
#105 = FACE_OUTER_BOUND ( 'NONE', #240, .T. ) ;
#106 = ORIENTED_EDGE ( 'NONE', *, *, #42, .T. ) ;
#107 = PRESENTATION_STYLE_ASSIGNMENT (( #55 ) ) ;
#108 =( NAMED_UNIT ( * ) SI_UNIT ( $, .STERADIAN. ) SOLID_ANGLE_UNIT ( ) );
#109 = CIRCLE ( 'NONE', #150, 0.5000000000000001110 ) ;
#110 = AXIS2_PLACEMENT_3D ( 'NONE', #172, #251, #255 ) ;
#111 = PRODUCT_DEFINITION_SHAPE ( 'NONE', 'NONE',  #276 ) ;
#112 = DIRECTION ( 'NONE',  ( 1.000000000000000000, 4.453261087808560759E-17, 0.000000000000000000 ) ) ;
#113 = CARTESIAN_POINT ( 'NONE',  ( 0.000000000000000000, 3.250000000000000000, 0.000000000000000000 ) ) ;
#114 =( LENGTH_UNIT ( ) NAMED_UNIT ( * ) SI_UNIT ( $, .METRE. ) );
#115 = DIRECTION ( 'NONE',  ( -0.000000000000000000, -1.000000000000000000, -0.000000000000000000 ) ) ;
#116 = SURFACE_STYLE_USAGE ( .BOTH. , #282 ) ;
#117 = CIRCLE ( 'NONE', #262, 0.5000000000000000000 ) ;
#118 = ORIENTED_EDGE ( 'NONE', *, *, #130, .T. ) ;
#119 = PLANE ( 'NONE',  #215 ) ;
#120 = FACE_OUTER_BOUND ( 'NONE', #299, .T. ) ;
#121 = DIRECTION ( 'NONE',  ( -0.000000000000000000, -1.000000000000000000, -0.000000000000000000 ) ) ;
#122 = VERTEX_POINT ( 'NONE', #14 ) ;
#123 =( GEOMETRIC_REPRESENTATION_CONTEXT ( 3 ) GLOBAL_UNCERTAINTY_ASSIGNED_CONTEXT ( ( #5 ) ) GLOBAL_UNIT_ASSIGNED_CONTEXT ( ( #41, #224, #108 ) ) REPRESENTATION_CONTEXT ( 'NONE', 'WORKASPACE' ) );
#124 = VECTOR ( 'NONE', #115, 39.37007874015748143 ) ;
#125 = CARTESIAN_POINT ( 'NONE',  ( -0.5000000000000002220, 6.000000000000000888, 0.000000000000000000 ) ) ;
#126 = DIRECTION ( 'NONE',  ( -0.000000000000000000, -1.000000000000000000, -0.000000000000000000 ) ) ;
#127 = DIRECTION ( 'NONE',  ( -4.453261087808560759E-17, 1.000000000000000000, -0.000000000000000000 ) ) ;
#128 =( CONVERSION_BASED_UNIT ( 'INCH', #174 ) LENGTH_UNIT ( ) NAMED_UNIT ( #197 ) );
#129 =( LENGTH_UNIT ( ) NAMED_UNIT ( * ) SI_UNIT ( $, .METRE. ) );
#130 = EDGE_CURVE ( 'NONE', #95, #205, #23, .T. ) ;
#131 = DIRECTION ( 'NONE',  ( -4.453261087808560759E-17, 1.000000000000000000, -0.000000000000000000 ) ) ;
#132 = ORIENTED_EDGE ( 'NONE', *, *, #189, .F. ) ;
#133 =( CONVERSION_BASED_UNIT ( 'INCH', #25 ) LENGTH_UNIT ( ) NAMED_UNIT ( #233 ) );
#134 = SHAPE_DEFINITION_REPRESENTATION ( #111, #194 ) ;
#135 = VERTEX_POINT ( 'NONE', #303 ) ;
#136 =( GEOMETRIC_REPRESENTATION_CONTEXT ( 3 ) GLOBAL_UNCERTAINTY_ASSIGNED_CONTEXT ( ( #22 ) ) GLOBAL_UNIT_ASSIGNED_CONTEXT ( ( #196, #81, #96 ) ) REPRESENTATION_CONTEXT ( 'NONE', 'WORKASPACE' ) );
#137 = ADVANCED_FACE ( 'NONE', ( #238 ), #279, .T. ) ;
#138 = DIRECTION ( 'NONE',  ( 4.453261087808560759E-17, -1.000000000000000000, 0.000000000000000000 ) ) ;
#139 = CARTESIAN_POINT ( 'NONE',  ( -0.5000000000000002220, 6.000000000000000888, 0.000000000000000000 ) ) ;
#140 =( NAMED_UNIT ( * ) SI_UNIT ( $, .STERADIAN. ) SOLID_ANGLE_UNIT ( ) );
#141 = EDGE_LOOP ( 'NONE', ( #148, #67 ) ) ;
#142 = DIRECTION ( 'NONE',  ( -0.000000000000000000, -1.000000000000000000, -0.000000000000000000 ) ) ;
#143 = VECTOR ( 'NONE', #162, 39.37007874015748143 ) ;
#144 = PRESENTATION_LAYER_ASSIGNMENT (  '', '', ( #17 ) ) ;
#145 = DIRECTION ( 'NONE',  ( 0.000000000000000000, 0.000000000000000000, -1.000000000000000000 ) ) ;
#146 = PRESENTATION_LAYER_ASSIGNMENT (  '', '', ( #82 ) ) ;
#147 = FACE_OUTER_BOUND ( 'NONE', #213, .T. ) ;
#148 = ORIENTED_EDGE ( 'NONE', *, *, #258, .T. ) ;
#149 = FILL_AREA_STYLE_COLOUR ( '', #198 ) ;
#150 = AXIS2_PLACEMENT_3D ( 'NONE', #13, #185, #232 ) ;
#151 = LENGTH_MEASURE_WITH_UNIT ( LENGTH_MEASURE( 0.02539999999999999897 ), #129 );
#152 = EDGE_CURVE ( 'NONE', #135, #205, #60, .T. ) ;
#153 =( LENGTH_UNIT ( ) NAMED_UNIT ( * ) SI_UNIT ( $, .METRE. ) );
#154 = DIRECTION ( 'NONE',  ( 0.000000000000000000, 1.000000000000000000, 0.000000000000000000 ) ) ;
#155 = APPLICATION_PROTOCOL_DEFINITION ( 'draft international standard', 'automotive_design', 1998, #259 ) ;
#156 =( NAMED_UNIT ( * ) SI_UNIT ( $, .STERADIAN. ) SOLID_ANGLE_UNIT ( ) );
#157 = ORIENTED_EDGE ( 'NONE', *, *, #152, .T. ) ;
#158 =( NAMED_UNIT ( * ) SI_UNIT ( $, .STERADIAN. ) SOLID_ANGLE_UNIT ( ) );
#159 = ORIENTED_EDGE ( 'NONE', *, *, #277, .F. ) ;
#160 = MECHANICAL_DESIGN_GEOMETRIC_PRESENTATION_REPRESENTATION (  '', ( #289 ), #241 ) ;
#161 = ADVANCED_FACE ( 'NONE', ( #52 ), #119, .T. ) ;
#162 = DIRECTION ( 'NONE',  ( -4.453261087808560759E-17, 1.000000000000000000, -0.000000000000000000 ) ) ;
#163 = SURFACE_SIDE_STYLE ('',( #183 ) ) ;
#164 = CARTESIAN_POINT ( 'NONE',  ( 0.000000000000000000, 0.000000000000000000, 0.000000000000000000 ) ) ;
#165 = SURFACE_STYLE_FILL_AREA ( #18 ) ;
#166 = ORIENTED_EDGE ( 'NONE', *, *, #268, .T. ) ;
#167 = PRESENTATION_LAYER_ASSIGNMENT (  '', '', ( #230 ) ) ;
#168 = CARTESIAN_POINT ( 'NONE',  ( 6.123233995736766036E-17, 0.000000000000000000, 0.5000000000000000000 ) ) ;
#169 = PRESENTATION_STYLE_ASSIGNMENT (( #35 ) ) ;
#170 = EDGE_CURVE ( 'NONE', #256, #307, #33, .T. ) ;
#171 = CIRCLE ( 'NONE', #50, 0.5000000000000000000 ) ;
#172 = CARTESIAN_POINT ( 'NONE',  ( 4.957883579047472087E-34, 3.250000000000000000, 0.000000000000000000 ) ) ;
#173 = DIRECTION ( 'NONE',  ( 0.000000000000000000, 0.000000000000000000, 1.000000000000000000 ) ) ;
#174 = LENGTH_MEASURE_WITH_UNIT ( LENGTH_MEASURE( 0.02539999999999999897 ), #39 );
#175 = AXIS2_PLACEMENT_3D ( 'NONE', #164, #121, #145 ) ;
#176 = COLOUR_RGB ( '',0.7921568627450980005, 0.8196078431372548767, 0.9333333333333333481 ) ;
#177 =( GEOMETRIC_REPRESENTATION_CONTEXT ( 3 ) GLOBAL_UNCERTAINTY_ASSIGNED_CONTEXT ( ( #51 ) ) GLOBAL_UNIT_ASSIGNED_CONTEXT ( ( #64, #190, #158 ) ) REPRESENTATION_CONTEXT ( 'NONE', 'WORKASPACE' ) );
#178 = LENGTH_MEASURE_WITH_UNIT ( LENGTH_MEASURE( 0.02539999999999999897 ), #179 );
#179 =( LENGTH_UNIT ( ) NAMED_UNIT ( * ) SI_UNIT ( $, .METRE. ) );
#180 = DIRECTION ( 'NONE',  ( -1.000000000000000000, 0.000000000000000000, 0.000000000000000000 ) ) ;
#181 = FILL_AREA_STYLE_COLOUR ( '', #99 ) ;
#182 = COLOUR_RGB ( '',0.7921568627450980005, 0.8196078431372548767, 0.9333333333333333481 ) ;
#183 = SURFACE_STYLE_FILL_AREA ( #278 ) ;
#184 =( NAMED_UNIT ( * ) PLANE_ANGLE_UNIT ( ) SI_UNIT ( $, .RADIAN. ) );
#185 = DIRECTION ( 'NONE',  ( -4.453261087808560759E-17, 1.000000000000000000, -0.000000000000000000 ) ) ;
#186 = CLOSED_SHELL ( 'NONE', ( #200, #161, #83, #209 ) ) ;
#187 = AXIS2_PLACEMENT_3D ( 'NONE', #292, #127, #227 ) ;
#188 = ORIENTED_EDGE ( 'NONE', *, *, #97, .T. ) ;
#189 = EDGE_CURVE ( 'NONE', #122, #256, #271, .T. ) ;
#190 =( NAMED_UNIT ( * ) PLANE_ANGLE_UNIT ( ) SI_UNIT ( $, .RADIAN. ) );
#191 = COLOUR_RGB ( '',1.000000000000000000, 0.000000000000000000, 0.000000000000000000 ) ;
#192 = LINE ( 'NONE', #290, #124 ) ;
#193 = FACE_OUTER_BOUND ( 'NONE', #141, .T. ) ;
#194 = ADVANCED_BREP_SHAPE_REPRESENTATION ( '00782', ( #26, #231, #294 ), #123 ) ;
#195 = FILL_AREA_STYLE ('',( #6 ) ) ;
#196 =( CONVERSION_BASED_UNIT ( 'INCH', #28 ) LENGTH_UNIT ( ) NAMED_UNIT ( #40 ) );
#197 = DIMENSIONAL_EXPONENTS ( 1.000000000000000000, 0.000000000000000000, 0.000000000000000000, 0.000000000000000000, 0.000000000000000000, 0.000000000000000000, 0.000000000000000000 ) ;
#198 = COLOUR_RGB ( '',1.000000000000000000, 0.000000000000000000, 0.000000000000000000 ) ;
#199 = SURFACE_SIDE_STYLE ('',( #100 ) ) ;
#200 = ADVANCED_FACE ( 'NONE', ( #295 ), #56, .T. ) ;
#201 = ORIENTED_EDGE ( 'NONE', *, *, #228, .F. ) ;
#202 = EDGE_LOOP ( 'NONE', ( #201, #301 ) ) ;
#203 = AXIS2_PLACEMENT_3D ( 'NONE', #248, #126, #104 ) ;
#204 = PRODUCT_CONTEXT ( 'NONE', #259, 'mechanical' ) ;
#205 = VERTEX_POINT ( 'NONE', #125 ) ;
#206 = CARTESIAN_POINT ( 'NONE',  ( -1.224646799147354440E-16, 6.000000000000000888, 0.000000000000000000 ) ) ;
#207 = ORIENTED_EDGE ( 'NONE', *, *, #277, .T. ) ;
#208 = PRESENTATION_STYLE_ASSIGNMENT (( #116 ) ) ;
#209 = ADVANCED_FACE ( 'NONE', ( #193 ), #287, .T. ) ;
#210 = ORIENTED_EDGE ( 'NONE', *, *, #258, .F. ) ;
#211 = PRESENTATION_STYLE_ASSIGNMENT (( #280 ) ) ;
#212 = DIRECTION ( 'NONE',  ( -4.453261087808560759E-17, 1.000000000000000000, -0.000000000000000000 ) ) ;
#213 = EDGE_LOOP ( 'NONE', ( #106, #118 ) ) ;
#214 = EDGE_CURVE ( 'NONE', #135, #11, #117, .T. ) ;
#215 = AXIS2_PLACEMENT_3D ( 'NONE', #36, #154, #219 ) ;
#216 = DIRECTION ( 'NONE',  ( -0.000000000000000000, -1.000000000000000000, -0.000000000000000000 ) ) ;
#217 = MECHANICAL_DESIGN_GEOMETRIC_PRESENTATION_REPRESENTATION (  '', ( #69 ), #101 ) ;
#218 = DIRECTION ( 'NONE',  ( 0.000000000000000000, 0.000000000000000000, -1.000000000000000000 ) ) ;
#219 = DIRECTION ( 'NONE',  ( 0.000000000000000000, -0.000000000000000000, 1.000000000000000000 ) ) ;
#220 = SURFACE_SIDE_STYLE ('',( #243 ) ) ;
#221 = CARTESIAN_POINT ( 'NONE',  ( 0.000000000000000000, 0.000000000000000000, 0.000000000000000000 ) ) ;
#222 = CARTESIAN_POINT ( 'NONE',  ( 0.000000000000000000, 0.000000000000000000, 0.000000000000000000 ) ) ;
#223 = SURFACE_SIDE_STYLE ('',( #244 ) ) ;
#224 =( NAMED_UNIT ( * ) PLANE_ANGLE_UNIT ( ) SI_UNIT ( $, .RADIAN. ) );
#225 = CARTESIAN_POINT ( 'NONE',  ( 6.123233995736766036E-17, 0.000000000000000000, 0.5000000000000000000 ) ) ;
#226 = PRESENTATION_LAYER_ASSIGNMENT (  '', '', ( #69 ) ) ;
#227 = DIRECTION ( 'NONE',  ( -1.000000000000000000, 0.000000000000000000, 0.000000000000000000 ) ) ;
#228 = EDGE_CURVE ( 'NONE', #48, #122, #247, .T. ) ;
#229 =( NAMED_UNIT ( * ) PLANE_ANGLE_UNIT ( ) SI_UNIT ( $, .RADIAN. ) );
#230 = STYLED_ITEM ( 'NONE', ( #61 ), #209 ) ;
#231 = MANIFOLD_SOLID_BREP ( 'Revolve - Tool Body (Straight Shanked)', #246 ) ;
#232 = DIRECTION ( 'NONE',  ( -1.000000000000000000, 0.000000000000000000, 0.000000000000000000 ) ) ;
#233 = DIMENSIONAL_EXPONENTS ( 1.000000000000000000, 0.000000000000000000, 0.000000000000000000, 0.000000000000000000, 0.000000000000000000, 0.000000000000000000, 0.000000000000000000 ) ;
#234 = UNCERTAINTY_MEASURE_WITH_UNIT (LENGTH_MEASURE( 1.000000000000000082E-05 ), #128, 'distance_accuracy_value', 'NONE');
#235 = SURFACE_SIDE_STYLE ('',( #165 ) ) ;
#236 = ORIENTED_EDGE ( 'NONE', *, *, #152, .F. ) ;
#237 = AXIS2_PLACEMENT_3D ( 'NONE', #3, #84, #58 ) ;
#238 = FACE_OUTER_BOUND ( 'NONE', #27, .T. ) ;
#239 = PLANE ( 'NONE',  #253 ) ;
#240 = EDGE_LOOP ( 'NONE', ( #285, #207, #46, #236 ) ) ;
#241 =( GEOMETRIC_REPRESENTATION_CONTEXT ( 3 ) GLOBAL_UNCERTAINTY_ASSIGNED_CONTEXT ( ( #29 ) ) GLOBAL_UNIT_ASSIGNED_CONTEXT ( ( #286, #2, #98 ) ) REPRESENTATION_CONTEXT ( 'NONE', 'WORKASPACE' ) );
#242 = DIRECTION ( 'NONE',  ( -1.000000000000000000, 0.000000000000000000, 0.000000000000000000 ) ) ;
#243 = SURFACE_STYLE_FILL_AREA ( #272 ) ;
#244 = SURFACE_STYLE_FILL_AREA ( #195 ) ;
#245 =( LENGTH_UNIT ( ) NAMED_UNIT ( * ) SI_UNIT ( $, .METRE. ) );
#246 = CLOSED_SHELL ( 'NONE', ( #284, #298, #137, #65 ) ) ;
#247 = CIRCLE ( 'NONE', #203, 0.5000000000000000000 ) ;
#248 = CARTESIAN_POINT ( 'NONE',  ( 0.000000000000000000, 3.250000000000000000, 0.000000000000000000 ) ) ;
#249 = DIMENSIONAL_EXPONENTS ( 1.000000000000000000, 0.000000000000000000, 0.000000000000000000, 0.000000000000000000, 0.000000000000000000, 0.000000000000000000, 0.000000000000000000 ) ;
#250 = FILL_AREA_STYLE ('',( #9 ) ) ;
#251 = DIRECTION ( 'NONE',  ( -4.453261087808560759E-17, 1.000000000000000000, 0.000000000000000000 ) ) ;
#252 = DIMENSIONAL_EXPONENTS ( 1.000000000000000000, 0.000000000000000000, 0.000000000000000000, 0.000000000000000000, 0.000000000000000000, 0.000000000000000000, 0.000000000000000000 ) ;
#253 = AXIS2_PLACEMENT_3D ( 'NONE', #20, #138, #112 ) ;
#254 = MECHANICAL_DESIGN_GEOMETRIC_PRESENTATION_REPRESENTATION (  '', ( #82 ), #136 ) ;
#255 = DIRECTION ( 'NONE',  ( -1.000000000000000000, -4.453261087808560759E-17, 0.000000000000000000 ) ) ;
#256 = VERTEX_POINT ( 'NONE', #168 ) ;
#257 = CARTESIAN_POINT ( 'NONE',  ( 0.000000000000000000, 3.250000000000000000, 0.000000000000000000 ) ) ;
#258 = EDGE_CURVE ( 'NONE', #307, #256, #171, .T. ) ;
#259 = APPLICATION_CONTEXT ( 'automotive_design' ) ;
#260 = ORIENTED_EDGE ( 'NONE', *, *, #228, .T. ) ;
#261 = AXIS2_PLACEMENT_3D ( 'NONE', #257, #142, #91 ) ;
#262 = AXIS2_PLACEMENT_3D ( 'NONE', #57, #30, #242 ) ;
#263 = CARTESIAN_POINT ( 'NONE',  ( 0.5000000000000000000, 6.000000000000000888, 6.123233995736767268E-17 ) ) ;
#264 = UNCERTAINTY_MEASURE_WITH_UNIT (LENGTH_MEASURE( 1.000000000000000082E-05 ), #133, 'distance_accuracy_value', 'NONE');
#265 = ORIENTED_EDGE ( 'NONE', *, *, #130, .F. ) ;
#266 = AXIS2_PLACEMENT_3D ( 'NONE', #206, #70, #180 ) ;
#267 = PRESENTATION_LAYER_ASSIGNMENT (  '', '', ( #289 ) ) ;
#268 = EDGE_CURVE ( 'NONE', #48, #307, #192, .T. ) ;
#269 = DIRECTION ( 'NONE',  ( -0.000000000000000000, -1.000000000000000000, -0.000000000000000000 ) ) ;
#270 = SURFACE_STYLE_USAGE ( .BOTH. , #220 ) ;
#271 = LINE ( 'NONE', #225, #274 ) ;
#272 = FILL_AREA_STYLE ('',( #80 ) ) ;
#273 =( GEOMETRIC_REPRESENTATION_CONTEXT ( 3 ) GLOBAL_UNCERTAINTY_ASSIGNED_CONTEXT ( ( #264 ) ) GLOBAL_UNIT_ASSIGNED_CONTEXT ( ( #133, #184, #140 ) ) REPRESENTATION_CONTEXT ( 'NONE', 'WORKASPACE' ) );
#274 = VECTOR ( 'NONE', #8, 39.37007874015748143 ) ;
#275 = ORIENTED_EDGE ( 'NONE', *, *, #1, .T. ) ;
#276 = PRODUCT_DEFINITION ( 'UNKNOWN', '', #24, #34 ) ;
#277 = EDGE_CURVE ( 'NONE', #11, #95, #92, .T. ) ;
#278 = FILL_AREA_STYLE ('',( #181 ) ) ;
#279 = CYLINDRICAL_SURFACE ( 'NONE', #10, 0.5000000000000001110 ) ;
#280 = SURFACE_STYLE_USAGE ( .BOTH. , #163 ) ;
#281 = CARTESIAN_POINT ( 'NONE',  ( 0.000000000000000000, 3.250000000000000000, -0.5000000000000000000 ) ) ;
#282 = SURFACE_SIDE_STYLE ('',( #16 ) ) ;
#283 = CIRCLE ( 'NONE', #261, 0.5000000000000000000 ) ;
#284 = ADVANCED_FACE ( 'NONE', ( #105 ), #297, .T. ) ;
#285 = ORIENTED_EDGE ( 'NONE', *, *, #214, .T. ) ;
#286 =( CONVERSION_BASED_UNIT ( 'INCH', #151 ) LENGTH_UNIT ( ) NAMED_UNIT ( #252 ) );
#287 = PLANE ( 'NONE',  #4 ) ;
#288 = DIRECTION ( 'NONE',  ( 0.000000000000000000, 0.000000000000000000, -1.000000000000000000 ) ) ;
#289 = STYLED_ITEM ( 'NONE', ( #169 ), #231 ) ;
#290 = CARTESIAN_POINT ( 'NONE',  ( 0.000000000000000000, 0.000000000000000000, -0.5000000000000000000 ) ) ;
#291 = DIRECTION ( 'NONE',  ( 0.000000000000000000, -1.000000000000000000, -0.000000000000000000 ) ) ;
#292 = CARTESIAN_POINT ( 'NONE',  ( -1.224646799147354440E-16, 6.000000000000000888, 0.000000000000000000 ) ) ;
#293 = AXIS2_PLACEMENT_3D ( 'NONE', #113, #212, #75 ) ;
#294 = AXIS2_PLACEMENT_3D ( 'NONE', #221, #173, #44 ) ;
#295 = FACE_OUTER_BOUND ( 'NONE', #21, .T. ) ;
#296 = DIMENSIONAL_EXPONENTS ( 1.000000000000000000, 0.000000000000000000, 0.000000000000000000, 0.000000000000000000, 0.000000000000000000, 0.000000000000000000, 0.000000000000000000 ) ;
#297 = CYLINDRICAL_SURFACE ( 'NONE', #187, 0.5000000000000001110 ) ;
#298 = ADVANCED_FACE ( 'NONE', ( #86 ), #62, .F. ) ;
#299 = EDGE_LOOP ( 'NONE', ( #132, #275, #166, #7 ) ) ;
#300 = MECHANICAL_DESIGN_GEOMETRIC_PRESENTATION_REPRESENTATION (  '', ( #12 ), #63 ) ;
#301 = ORIENTED_EDGE ( 'NONE', *, *, #1, .F. ) ;
#302 = SURFACE_STYLE_USAGE ( .BOTH. , #235 ) ;
#303 = CARTESIAN_POINT ( 'NONE',  ( -0.5000000000000000000, 3.250000000000000000, 0.000000000000000000 ) ) ;
#304 = FILL_AREA_STYLE_COLOUR ( '', #182 ) ;
#305 =( CONVERSION_BASED_UNIT ( 'INCH', #178 ) LENGTH_UNIT ( ) NAMED_UNIT ( #249 ) );
#306 = CARTESIAN_POINT ( 'NONE',  ( -1.224646799147354440E-16, 6.000000000000000888, 0.000000000000000000 ) ) ;
#307 = VERTEX_POINT ( 'NONE', #43 ) ;
#308 = FILL_AREA_STYLE ('',( #149 ) ) ;
#309 = AXIS2_PLACEMENT_3D ( 'NONE', #222, #216, #288 ) ;
ENDSEC;
END-ISO-10303-21;
