ISO-10303-21;
HEADER;
FILE_DESCRIPTION (( 'STEP AP214' ),
    '1' );
FILE_NAME ('30152.STEP',
    '2023-06-22T18:03:21',
    ( '' ),
    ( '' ),
    'SwSTEP 2.0',
    'SolidWorks 2023',
    '' );
FILE_SCHEMA (( 'AUTOMOTIVE_DESIGN' ));
ENDSEC;

DATA;
#1 = LINE ( 'NONE', #76, #115 ) ;
#2 = AXIS2_PLACEMENT_3D ( 'NONE', #10, #56, #246 ) ;
#3 = SURFACE_STYLE_USAGE ( .BOTH. , #175 ) ;
#4 = VERTEX_POINT ( 'NONE', #22 ) ;
#5 = CYLINDRICAL_SURFACE ( 'NONE', #309, 0.1250000000000000278 ) ;
#6 = CARTESIAN_POINT ( 'NONE',  ( 0.000000000000000000, 0.000000000000000000, 0.000000000000000000 ) ) ;
#7 =( LENGTH_UNIT ( ) NAMED_UNIT ( * ) SI_UNIT ( $, .METRE. ) );
#8 = MECHANICAL_DESIGN_GEOMETRIC_PRESENTATION_REPRESENTATION (  '', ( #306 ), #249 ) ;
#9 = AXIS2_PLACEMENT_3D ( 'NONE', #134, #186, #209 ) ;
#10 = CARTESIAN_POINT ( 'NONE',  ( 0.000000000000000000, 0.7500000000000001110, 0.000000000000000000 ) ) ;
#11 = PRESENTATION_STYLE_ASSIGNMENT (( #113 ) ) ;
#12 = DIRECTION ( 'NONE',  ( -0.000000000000000000, -1.000000000000000000, -0.000000000000000000 ) ) ;
#13 = PRESENTATION_LAYER_ASSIGNMENT (  '', '', ( #218 ) ) ;
#14 = ADVANCED_FACE ( 'NONE', ( #122 ), #51, .F. ) ;
#15 = EDGE_CURVE ( 'NONE', #235, #286, #136, .T. ) ;
#16 = CARTESIAN_POINT ( 'NONE',  ( 1.530808498934191509E-17, 0.000000000000000000, 0.1250000000000000000 ) ) ;
#17 = DIMENSIONAL_EXPONENTS ( 1.000000000000000000, 0.000000000000000000, 0.000000000000000000, 0.000000000000000000, 0.000000000000000000, 0.000000000000000000, 0.000000000000000000 ) ;
#18 = LENGTH_MEASURE_WITH_UNIT ( LENGTH_MEASURE( 0.02539999999999999897 ), #35 );
#19 =( LENGTH_UNIT ( ) NAMED_UNIT ( * ) SI_UNIT ( $, .METRE. ) );
#20 = ORIENTED_EDGE ( 'NONE', *, *, #70, .T. ) ;
#21 = ADVANCED_FACE ( 'NONE', ( #201 ), #298, .T. ) ;
#22 = CARTESIAN_POINT ( 'NONE',  ( 0.1250000000000000278, 0.7499999999999998890, 1.530808498934192125E-17 ) ) ;
#23 = VERTEX_POINT ( 'NONE', #205 ) ;
#24 =( NAMED_UNIT ( * ) SI_UNIT ( $, .STERADIAN. ) SOLID_ANGLE_UNIT ( ) );
#25 = EDGE_CURVE ( 'NONE', #199, #290, #227, .T. ) ;
#26 = DIRECTION ( 'NONE',  ( 0.000000000000000000, 1.000000000000000000, 0.000000000000000000 ) ) ;
#27 = ORIENTED_EDGE ( 'NONE', *, *, #60, .T. ) ;
#28 = PRESENTATION_LAYER_ASSIGNMENT (  '', '', ( #133 ) ) ;
#29 = LINE ( 'NONE', #225, #203 ) ;
#30 = PRESENTATION_STYLE_ASSIGNMENT (( #272 ) ) ;
#31 = SURFACE_STYLE_USAGE ( .BOTH. , #157 ) ;
#32 = MANIFOLD_SOLID_BREP ( 'Revolve - Tool Body (Straight Shanked)', #294 ) ;
#33 =( GEOMETRIC_REPRESENTATION_CONTEXT ( 3 ) GLOBAL_UNCERTAINTY_ASSIGNED_CONTEXT ( ( #241 ) ) GLOBAL_UNIT_ASSIGNED_CONTEXT ( ( #269, #107, #275 ) ) REPRESENTATION_CONTEXT ( 'NONE', 'WORKASPACE' ) );
#34 = FILL_AREA_STYLE_COLOUR ( '', #207 ) ;
#35 =( LENGTH_UNIT ( ) NAMED_UNIT ( * ) SI_UNIT ( $, .METRE. ) );
#36 = DIRECTION ( 'NONE',  ( -1.000000000000000000, 0.000000000000000000, 0.000000000000000000 ) ) ;
#37 = COLOUR_RGB ( '',0.7921568627450980005, 0.8196078431372548767, 0.9333333333333333481 ) ;
#38 =( CONVERSION_BASED_UNIT ( 'INCH', #18 ) LENGTH_UNIT ( ) NAMED_UNIT ( #91 ) );
#39 = DIRECTION ( 'NONE',  ( 0.000000000000000000, 0.000000000000000000, -1.000000000000000000 ) ) ;
#40 = PRESENTATION_LAYER_ASSIGNMENT (  '', '', ( #69 ) ) ;
#41 = PRESENTATION_STYLE_ASSIGNMENT (( #260 ) ) ;
#42 = ORIENTED_EDGE ( 'NONE', *, *, #132, .T. ) ;
#43 = DIRECTION ( 'NONE',  ( -3.498990854706722745E-17, 1.000000000000000000, -0.000000000000000000 ) ) ;
#44 = ADVANCED_FACE ( 'NONE', ( #303 ), #83, .T. ) ;
#45 = ORIENTED_EDGE ( 'NONE', *, *, #25, .T. ) ;
#46 = FILL_AREA_STYLE ('',( #212 ) ) ;
#47 = EDGE_LOOP ( 'NONE', ( #194, #264, #295, #74 ) ) ;
#48 = MECHANICAL_DESIGN_GEOMETRIC_PRESENTATION_REPRESENTATION (  '', ( #108 ), #82 ) ;
#49 = PRODUCT_DEFINITION_SHAPE ( 'NONE', 'NONE',  #105 ) ;
#50 = CARTESIAN_POINT ( 'NONE',  ( 0.1249999999999999584, 2.500000000000000000, 1.530808498934191817E-17 ) ) ;
#51 = PLANE ( 'NONE',  #308 ) ;
#52 = EDGE_CURVE ( 'NONE', #23, #4, #94, .T. ) ;
#53 = CARTESIAN_POINT ( 'NONE',  ( 0.000000000000000000, 0.000000000000000000, 0.000000000000000000 ) ) ;
#54 = UNCERTAINTY_MEASURE_WITH_UNIT (LENGTH_MEASURE( 1.000000000000000082E-05 ), #236, 'distance_accuracy_value', 'NONE');
#55 = AXIS2_PLACEMENT_3D ( 'NONE', #245, #26, #161 ) ;
#56 = DIRECTION ( 'NONE',  ( -0.000000000000000000, -1.000000000000000000, -0.000000000000000000 ) ) ;
#57 = SURFACE_STYLE_FILL_AREA ( #274 ) ;
#58 = AXIS2_PLACEMENT_3D ( 'NONE', #263, #239, #121 ) ;
#59 = SURFACE_STYLE_FILL_AREA ( #273 ) ;
#60 = EDGE_CURVE ( 'NONE', #290, #286, #184, .T. ) ;
#61 = EDGE_CURVE ( 'NONE', #290, #199, #270, .T. ) ;
#62 =( NAMED_UNIT ( * ) PLANE_ANGLE_UNIT ( ) SI_UNIT ( $, .RADIAN. ) );
#63 = CARTESIAN_POINT ( 'NONE',  ( 0.000000000000000000, 0.000000000000000000, 0.000000000000000000 ) ) ;
#64 = CIRCLE ( 'NONE', #78, 0.1250000000000000278 ) ;
#65 =( GEOMETRIC_REPRESENTATION_CONTEXT ( 3 ) GLOBAL_UNCERTAINTY_ASSIGNED_CONTEXT ( ( #54 ) ) GLOBAL_UNIT_ASSIGNED_CONTEXT ( ( #236, #291, #24 ) ) REPRESENTATION_CONTEXT ( 'NONE', 'WORKASPACE' ) );
#66 = PRESENTATION_STYLE_ASSIGNMENT (( #114 ) ) ;
#67 =( LENGTH_UNIT ( ) NAMED_UNIT ( * ) SI_UNIT ( $, .METRE. ) );
#68 = SURFACE_STYLE_FILL_AREA ( #242 ) ;
#69 = STYLED_ITEM ( 'NONE', ( #251 ), #32 ) ;
#70 = EDGE_CURVE ( 'NONE', #286, #235, #180, .T. ) ;
#71 = ORIENTED_EDGE ( 'NONE', *, *, #15, .F. ) ;
#72 = SHAPE_DEFINITION_REPRESENTATION ( #49, #190 ) ;
#73 = DIMENSIONAL_EXPONENTS ( 1.000000000000000000, 0.000000000000000000, 0.000000000000000000, 0.000000000000000000, 0.000000000000000000, 0.000000000000000000, 0.000000000000000000 ) ;
#74 = ORIENTED_EDGE ( 'NONE', *, *, #206, .F. ) ;
#75 = DIRECTION ( 'NONE',  ( 0.000000000000000000, 0.000000000000000000, 1.000000000000000000 ) ) ;
#76 = CARTESIAN_POINT ( 'NONE',  ( -0.1250000000000001110, 2.500000000000000000, 0.000000000000000000 ) ) ;
#77 = EDGE_LOOP ( 'NONE', ( #176, #233 ) ) ;
#78 = AXIS2_PLACEMENT_3D ( 'NONE', #276, #280, #160 ) ;
#79 = EDGE_LOOP ( 'NONE', ( #171, #151, #266, #120 ) ) ;
#80 = DIRECTION ( 'NONE',  ( 3.498990854706722745E-17, -1.000000000000000000, 0.000000000000000000 ) ) ;
#81 =( CONVERSION_BASED_UNIT ( 'INCH', #301 ) LENGTH_UNIT ( ) NAMED_UNIT ( #17 ) );
#82 =( GEOMETRIC_REPRESENTATION_CONTEXT ( 3 ) GLOBAL_UNCERTAINTY_ASSIGNED_CONTEXT ( ( #123 ) ) GLOBAL_UNIT_ASSIGNED_CONTEXT ( ( #213, #97, #119 ) ) REPRESENTATION_CONTEXT ( 'NONE', 'WORKASPACE' ) );
#83 = PLANE ( 'NONE',  #155 ) ;
#84 = LENGTH_MEASURE_WITH_UNIT ( LENGTH_MEASURE( 0.02539999999999999897 ), #7 );
#85 = EDGE_CURVE ( 'NONE', #4, #23, #64, .T. ) ;
#86 =( GEOMETRIC_REPRESENTATION_CONTEXT ( 3 ) GLOBAL_UNCERTAINTY_ASSIGNED_CONTEXT ( ( #173 ) ) GLOBAL_UNIT_ASSIGNED_CONTEXT ( ( #277, #62, #255 ) ) REPRESENTATION_CONTEXT ( 'NONE', 'WORKASPACE' ) );
#87 = COLOUR_RGB ( '',1.000000000000000000, 0.000000000000000000, 0.000000000000000000 ) ;
#88 = DIRECTION ( 'NONE',  ( 0.000000000000000000, -1.000000000000000000, -0.000000000000000000 ) ) ;
#89 = DIRECTION ( 'NONE',  ( -0.000000000000000000, -1.000000000000000000, -0.000000000000000000 ) ) ;
#90 = CLOSED_SHELL ( 'NONE', ( #21, #248, #208, #44 ) ) ;
#91 = DIMENSIONAL_EXPONENTS ( 1.000000000000000000, 0.000000000000000000, 0.000000000000000000, 0.000000000000000000, 0.000000000000000000, 0.000000000000000000, 0.000000000000000000 ) ;
#92 = DIRECTION ( 'NONE',  ( -0.000000000000000000, -1.000000000000000000, -0.000000000000000000 ) ) ;
#93 = DIRECTION ( 'NONE',  ( -3.498990854706722745E-17, 1.000000000000000000, -0.000000000000000000 ) ) ;
#94 = CIRCLE ( 'NONE', #198, 0.1250000000000000278 ) ;
#95 = ORIENTED_EDGE ( 'NONE', *, *, #61, .F. ) ;
#96 = EDGE_LOOP ( 'NONE', ( #220, #42 ) ) ;
#97 =( NAMED_UNIT ( * ) PLANE_ANGLE_UNIT ( ) SI_UNIT ( $, .RADIAN. ) );
#98 = EDGE_LOOP ( 'NONE', ( #169, #196, #125, #293 ) ) ;
#99 = FACE_OUTER_BOUND ( 'NONE', #98, .T. ) ;
#100 = AXIS2_PLACEMENT_3D ( 'NONE', #256, #191, #254 ) ;
#101 = UNCERTAINTY_MEASURE_WITH_UNIT (LENGTH_MEASURE( 1.000000000000000082E-05 ), #102, 'distance_accuracy_value', 'NONE');
#102 =( CONVERSION_BASED_UNIT ( 'INCH', #200 ) LENGTH_UNIT ( ) NAMED_UNIT ( #281 ) );
#103 = DIRECTION ( 'NONE',  ( -0.000000000000000000, -1.000000000000000000, -0.000000000000000000 ) ) ;
#104 = DIRECTION ( 'NONE',  ( 0.000000000000000000, 0.000000000000000000, -1.000000000000000000 ) ) ;
#105 = PRODUCT_DEFINITION ( 'UNKNOWN', '', #143, #117 ) ;
#106 =( NAMED_UNIT ( * ) PLANE_ANGLE_UNIT ( ) SI_UNIT ( $, .RADIAN. ) );
#107 =( NAMED_UNIT ( * ) PLANE_ANGLE_UNIT ( ) SI_UNIT ( $, .RADIAN. ) );
#108 = STYLED_ITEM ( 'NONE', ( #150 ), #208 ) ;
#109 = FILL_AREA_STYLE ('',( #159 ) ) ;
#110 = SURFACE_SIDE_STYLE ('',( #59 ) ) ;
#111 = CARTESIAN_POINT ( 'NONE',  ( 0.000000000000000000, 0.000000000000000000, 0.000000000000000000 ) ) ;
#112 = MECHANICAL_DESIGN_GEOMETRIC_PRESENTATION_REPRESENTATION (  '', ( #133 ), #202 ) ;
#113 = SURFACE_STYLE_USAGE ( .BOTH. , #144 ) ;
#114 = SURFACE_STYLE_USAGE ( .BOTH. , #142 ) ;
#115 = VECTOR ( 'NONE', #43, 39.37007874015748143 ) ;
#116 =( NAMED_UNIT ( * ) SI_UNIT ( $, .STERADIAN. ) SOLID_ANGLE_UNIT ( ) );
#117 = PRODUCT_DEFINITION_CONTEXT ( 'detailed design', #304, 'design' ) ;
#118 =( LENGTH_UNIT ( ) NAMED_UNIT ( * ) SI_UNIT ( $, .METRE. ) );
#119 =( NAMED_UNIT ( * ) SI_UNIT ( $, .STERADIAN. ) SOLID_ANGLE_UNIT ( ) );
#120 = ORIENTED_EDGE ( 'NONE', *, *, #132, .F. ) ;
#121 = DIRECTION ( 'NONE',  ( -1.000000000000000000, -3.498990854706722745E-17, 0.000000000000000000 ) ) ;
#122 = FACE_OUTER_BOUND ( 'NONE', #96, .T. ) ;
#123 = UNCERTAINTY_MEASURE_WITH_UNIT (LENGTH_MEASURE( 1.000000000000000082E-05 ), #213, 'distance_accuracy_value', 'NONE');
#124 = CARTESIAN_POINT ( 'NONE',  ( -0.1250000000000001110, 2.500000000000000000, 0.000000000000000000 ) ) ;
#125 = ORIENTED_EDGE ( 'NONE', *, *, #271, .T. ) ;
#126 =( LENGTH_UNIT ( ) NAMED_UNIT ( * ) SI_UNIT ( $, .METRE. ) );
#127 = ORIENTED_EDGE ( 'NONE', *, *, #25, .F. ) ;
#128 = CIRCLE ( 'NONE', #100, 0.1250000000000000555 ) ;
#129 = AXIS2_PLACEMENT_3D ( 'NONE', #177, #75, #172 ) ;
#130 = FACE_OUTER_BOUND ( 'NONE', #79, .T. ) ;
#131 =( NAMED_UNIT ( * ) PLANE_ANGLE_UNIT ( ) SI_UNIT ( $, .RADIAN. ) );
#132 = EDGE_CURVE ( 'NONE', #262, #148, #128, .T. ) ;
#133 = STYLED_ITEM ( 'NONE', ( #30 ), #21 ) ;
#134 = CARTESIAN_POINT ( 'NONE',  ( -6.123233995736766036E-17, 2.500000000000000000, 0.000000000000000000 ) ) ;
#135 = DIRECTION ( 'NONE',  ( 0.000000000000000000, 0.000000000000000000, -1.000000000000000000 ) ) ;
#136 = CIRCLE ( 'NONE', #138, 0.1250000000000000000 ) ;
#137 = CARTESIAN_POINT ( 'NONE',  ( 1.530808498934191509E-17, 0.000000000000000000, 0.1250000000000000000 ) ) ;
#138 = AXIS2_PLACEMENT_3D ( 'NONE', #222, #181, #104 ) ;
#139 = PRODUCT_RELATED_PRODUCT_CATEGORY ( 'part', '', ( #282 ) ) ;
#140 = DIRECTION ( 'NONE',  ( -3.498990854706722745E-17, 1.000000000000000000, -0.000000000000000000 ) ) ;
#141 = DIMENSIONAL_EXPONENTS ( 1.000000000000000000, 0.000000000000000000, 0.000000000000000000, 0.000000000000000000, 0.000000000000000000, 0.000000000000000000, 0.000000000000000000 ) ;
#142 = SURFACE_SIDE_STYLE ('',( #278 ) ) ;
#143 = PRODUCT_DEFINITION_FORMATION_WITH_SPECIFIED_SOURCE ( 'ANY', '', #282, .NOT_KNOWN. ) ;
#144 = SURFACE_SIDE_STYLE ('',( #57 ) ) ;
#145 = UNCERTAINTY_MEASURE_WITH_UNIT (LENGTH_MEASURE( 1.000000000000000082E-05 ), #81, 'distance_accuracy_value', 'NONE');
#146 = SURFACE_STYLE_FILL_AREA ( #46 ) ;
#147 = MANIFOLD_SOLID_BREP ( 'Revolve - Cutting Edge', #90 ) ;
#148 = VERTEX_POINT ( 'NONE', #124 ) ;
#149 = FACE_OUTER_BOUND ( 'NONE', #240, .T. ) ;
#150 = PRESENTATION_STYLE_ASSIGNMENT (( #3 ) ) ;
#151 = ORIENTED_EDGE ( 'NONE', *, *, #85, .T. ) ;
#152 = PRODUCT_CONTEXT ( 'NONE', #204, 'mechanical' ) ;
#153 = CARTESIAN_POINT ( 'NONE',  ( 0.000000000000000000, 0.000000000000000000, -0.1250000000000000000 ) ) ;
#154 = CARTESIAN_POINT ( 'NONE',  ( 0.1249999999999999861, 2.500000000000000000, 0.000000000000000000 ) ) ;
#155 = AXIS2_PLACEMENT_3D ( 'NONE', #111, #88, #135 ) ;
#156 = MECHANICAL_DESIGN_GEOMETRIC_PRESENTATION_REPRESENTATION (  '', ( #218 ), #193 ) ;
#157 = SURFACE_SIDE_STYLE ('',( #182 ) ) ;
#158 = DIRECTION ( 'NONE',  ( 0.000000000000000000, 0.000000000000000000, -1.000000000000000000 ) ) ;
#159 = FILL_AREA_STYLE_COLOUR ( '', #183 ) ;
#160 = DIRECTION ( 'NONE',  ( -1.000000000000000000, 0.000000000000000000, 0.000000000000000000 ) ) ;
#161 = DIRECTION ( 'NONE',  ( 0.000000000000000000, -0.000000000000000000, 1.000000000000000000 ) ) ;
#162 = CARTESIAN_POINT ( 'NONE',  ( -7.582401355855259480E-33, 0.7499999999999998890, 0.000000000000000000 ) ) ;
#163 = ADVANCED_FACE ( 'NONE', ( #170 ), #164, .F. ) ;
#164 = PLANE ( 'NONE',  #58 ) ;
#165 = LENGTH_MEASURE_WITH_UNIT ( LENGTH_MEASURE( 0.02539999999999999897 ), #67 );
#166 = SURFACE_SIDE_STYLE ('',( #68 ) ) ;
#167 = EDGE_LOOP ( 'NONE', ( #45, #27, #71, #288 ) ) ;
#168 = LENGTH_MEASURE_WITH_UNIT ( LENGTH_MEASURE( 0.02539999999999999897 ), #118 );
#169 = ORIENTED_EDGE ( 'NONE', *, *, #60, .F. ) ;
#170 = FACE_OUTER_BOUND ( 'NONE', #77, .T. ) ;
#171 = ORIENTED_EDGE ( 'NONE', *, *, #217, .F. ) ;
#172 = DIRECTION ( 'NONE',  ( 1.000000000000000000, 0.000000000000000000, 0.000000000000000000 ) ) ;
#173 = UNCERTAINTY_MEASURE_WITH_UNIT (LENGTH_MEASURE( 1.000000000000000082E-05 ), #277, 'distance_accuracy_value', 'NONE');
#174 = MECHANICAL_DESIGN_GEOMETRIC_PRESENTATION_REPRESENTATION (  '', ( #69 ), #33 ) ;
#175 = SURFACE_SIDE_STYLE ('',( #146 ) ) ;
#176 = ORIENTED_EDGE ( 'NONE', *, *, #52, .F. ) ;
#177 = CARTESIAN_POINT ( 'NONE',  ( 0.000000000000000000, 0.000000000000000000, 0.000000000000000000 ) ) ;
#178 = FACE_OUTER_BOUND ( 'NONE', #47, .T. ) ;
#179 =( NAMED_UNIT ( * ) SI_UNIT ( $, .STERADIAN. ) SOLID_ANGLE_UNIT ( ) );
#180 = CIRCLE ( 'NONE', #211, 0.1250000000000000000 ) ;
#181 = DIRECTION ( 'NONE',  ( -0.000000000000000000, -1.000000000000000000, -0.000000000000000000 ) ) ;
#182 = SURFACE_STYLE_FILL_AREA ( #109 ) ;
#183 = COLOUR_RGB ( '',0.7921568627450980005, 0.8196078431372548767, 0.9333333333333333481 ) ;
#184 = LINE ( 'NONE', #16, #230 ) ;
#185 = DIRECTION ( 'NONE',  ( -0.000000000000000000, -1.000000000000000000, -0.000000000000000000 ) ) ;
#186 = DIRECTION ( 'NONE',  ( -3.498990854706722745E-17, 1.000000000000000000, -0.000000000000000000 ) ) ;
#187 = FILL_AREA_STYLE ('',( #252 ) ) ;
#188 = PRESENTATION_LAYER_ASSIGNMENT (  '', '', ( #108 ) ) ;
#189 = VECTOR ( 'NONE', #93, 39.37007874015748143 ) ;
#190 = ADVANCED_BREP_SHAPE_REPRESENTATION ( '30152', ( #147, #32, #129 ), #65 ) ;
#191 = DIRECTION ( 'NONE',  ( -3.498990854706722745E-17, 1.000000000000000000, -0.000000000000000000 ) ) ;
#192 = PLANE ( 'NONE',  #55 ) ;
#193 =( GEOMETRIC_REPRESENTATION_CONTEXT ( 3 ) GLOBAL_UNCERTAINTY_ASSIGNED_CONTEXT ( ( #101 ) ) GLOBAL_UNIT_ASSIGNED_CONTEXT ( ( #102, #106, #179 ) ) REPRESENTATION_CONTEXT ( 'NONE', 'WORKASPACE' ) );
#194 = ORIENTED_EDGE ( 'NONE', *, *, #52, .T. ) ;
#195 = ORIENTED_EDGE ( 'NONE', *, *, #15, .T. ) ;
#196 = ORIENTED_EDGE ( 'NONE', *, *, #61, .T. ) ;
#197 = UNCERTAINTY_MEASURE_WITH_UNIT (LENGTH_MEASURE( 1.000000000000000082E-05 ), #38, 'distance_accuracy_value', 'NONE');
#198 = AXIS2_PLACEMENT_3D ( 'NONE', #162, #226, #283 ) ;
#199 = VERTEX_POINT ( 'NONE', #219 ) ;
#200 = LENGTH_MEASURE_WITH_UNIT ( LENGTH_MEASURE( 0.02539999999999999897 ), #19 );
#201 = FACE_OUTER_BOUND ( 'NONE', #167, .T. ) ;
#202 =( GEOMETRIC_REPRESENTATION_CONTEXT ( 3 ) GLOBAL_UNCERTAINTY_ASSIGNED_CONTEXT ( ( #145 ) ) GLOBAL_UNIT_ASSIGNED_CONTEXT ( ( #81, #131, #247 ) ) REPRESENTATION_CONTEXT ( 'NONE', 'WORKASPACE' ) );
#203 = VECTOR ( 'NONE', #12, 39.37007874015748143 ) ;
#204 = APPLICATION_CONTEXT ( 'automotive_design' ) ;
#205 = CARTESIAN_POINT ( 'NONE',  ( -0.1250000000000000278, 0.7499999999999998890, 0.000000000000000000 ) ) ;
#206 = EDGE_CURVE ( 'NONE', #23, #148, #1, .T. ) ;
#207 = COLOUR_RGB ( '',1.000000000000000000, 0.000000000000000000, 0.000000000000000000 ) ;
#208 = ADVANCED_FACE ( 'NONE', ( #99 ), #267, .T. ) ;
#209 = DIRECTION ( 'NONE',  ( -1.000000000000000000, 0.000000000000000000, 0.000000000000000000 ) ) ;
#210 = CARTESIAN_POINT ( 'NONE',  ( 0.000000000000000000, 0.7500000000000001110, 0.000000000000000000 ) ) ;
#211 = AXIS2_PLACEMENT_3D ( 'NONE', #63, #89, #39 ) ;
#212 = FILL_AREA_STYLE_COLOUR ( '', #237 ) ;
#213 =( CONVERSION_BASED_UNIT ( 'INCH', #168 ) LENGTH_UNIT ( ) NAMED_UNIT ( #141 ) );
#214 = DIMENSIONAL_EXPONENTS ( 1.000000000000000000, 0.000000000000000000, 0.000000000000000000, 0.000000000000000000, 0.000000000000000000, 0.000000000000000000, 0.000000000000000000 ) ;
#215 = EDGE_LOOP ( 'NONE', ( #195, #20 ) ) ;
#216 = PRESENTATION_LAYER_ASSIGNMENT (  '', '', ( #306 ) ) ;
#217 = EDGE_CURVE ( 'NONE', #4, #262, #231, .T. ) ;
#218 = STYLED_ITEM ( 'NONE', ( #41 ), #248 ) ;
#219 = CARTESIAN_POINT ( 'NONE',  ( 0.000000000000000000, 0.7500000000000001110, -0.1250000000000000278 ) ) ;
#220 = ORIENTED_EDGE ( 'NONE', *, *, #259, .T. ) ;
#221 = LENGTH_MEASURE_WITH_UNIT ( LENGTH_MEASURE( 0.02539999999999999897 ), #126 );
#222 = CARTESIAN_POINT ( 'NONE',  ( 0.000000000000000000, 0.000000000000000000, 0.000000000000000000 ) ) ;
#223 = AXIS2_PLACEMENT_3D ( 'NONE', #53, #261, #292 ) ;
#224 =( LENGTH_UNIT ( ) NAMED_UNIT ( * ) SI_UNIT ( $, .METRE. ) );
#225 = CARTESIAN_POINT ( 'NONE',  ( 0.000000000000000000, 0.000000000000000000, -0.1250000000000000000 ) ) ;
#226 = DIRECTION ( 'NONE',  ( -3.498990854706722745E-17, 1.000000000000000000, -0.000000000000000000 ) ) ;
#227 = CIRCLE ( 'NONE', #2, 0.1250000000000000278 ) ;
#228 = CARTESIAN_POINT ( 'NONE',  ( 1.530808498934191817E-17, 0.7500000000000001110, 0.1250000000000000278 ) ) ;
#229 =( NAMED_UNIT ( * ) PLANE_ANGLE_UNIT ( ) SI_UNIT ( $, .RADIAN. ) );
#230 = VECTOR ( 'NONE', #185, 39.37007874015748143 ) ;
#231 = LINE ( 'NONE', #50, #189 ) ;
#232 = DIRECTION ( 'NONE',  ( -1.000000000000000000, 0.000000000000000000, 0.000000000000000000 ) ) ;
#233 = ORIENTED_EDGE ( 'NONE', *, *, #85, .F. ) ;
#234 = DIMENSIONAL_EXPONENTS ( 1.000000000000000000, 0.000000000000000000, 0.000000000000000000, 0.000000000000000000, 0.000000000000000000, 0.000000000000000000, 0.000000000000000000 ) ;
#235 = VERTEX_POINT ( 'NONE', #153 ) ;
#236 =( CONVERSION_BASED_UNIT ( 'INCH', #221 ) LENGTH_UNIT ( ) NAMED_UNIT ( #73 ) );
#237 = COLOUR_RGB ( '',1.000000000000000000, 0.000000000000000000, 0.000000000000000000 ) ;
#238 = CIRCLE ( 'NONE', #9, 0.1250000000000000555 ) ;
#239 = DIRECTION ( 'NONE',  ( -3.498990854706722745E-17, 1.000000000000000000, 0.000000000000000000 ) ) ;
#240 = EDGE_LOOP ( 'NONE', ( #127, #95 ) ) ;
#241 = UNCERTAINTY_MEASURE_WITH_UNIT (LENGTH_MEASURE( 1.000000000000000082E-05 ), #269, 'distance_accuracy_value', 'NONE');
#242 = FILL_AREA_STYLE ('',( #285 ) ) ;
#243 = CARTESIAN_POINT ( 'NONE',  ( 0.1250000000000000000, 2.500000000000000000, 1.530808498934192125E-17 ) ) ;
#244 = STYLED_ITEM ( 'NONE', ( #11 ), #44 ) ;
#245 = CARTESIAN_POINT ( 'NONE',  ( 0.000000000000000000, 0.7500000000000001110, 0.000000000000000000 ) ) ;
#246 = DIRECTION ( 'NONE',  ( 0.000000000000000000, 0.000000000000000000, -1.000000000000000000 ) ) ;
#247 =( NAMED_UNIT ( * ) SI_UNIT ( $, .STERADIAN. ) SOLID_ANGLE_UNIT ( ) );
#248 = ADVANCED_FACE ( 'NONE', ( #149 ), #192, .T. ) ;
#249 =( GEOMETRIC_REPRESENTATION_CONTEXT ( 3 ) GLOBAL_UNCERTAINTY_ASSIGNED_CONTEXT ( ( #197 ) ) GLOBAL_UNIT_ASSIGNED_CONTEXT ( ( #38, #229, #116 ) ) REPRESENTATION_CONTEXT ( 'NONE', 'WORKASPACE' ) );
#250 = DIRECTION ( 'NONE',  ( 1.000000000000000000, 3.498990854706722745E-17, 0.000000000000000000 ) ) ;
#251 = PRESENTATION_STYLE_ASSIGNMENT (( #31 ) ) ;
#252 = FILL_AREA_STYLE_COLOUR ( '', #37 ) ;
#253 = CARTESIAN_POINT ( 'NONE',  ( -6.123233995736766036E-17, 2.500000000000000000, 0.000000000000000000 ) ) ;
#254 = DIRECTION ( 'NONE',  ( -1.000000000000000000, 0.000000000000000000, 0.000000000000000000 ) ) ;
#255 =( NAMED_UNIT ( * ) SI_UNIT ( $, .STERADIAN. ) SOLID_ANGLE_UNIT ( ) );
#256 = CARTESIAN_POINT ( 'NONE',  ( -6.123233995736766036E-17, 2.500000000000000000, 0.000000000000000000 ) ) ;
#257 = AXIS2_PLACEMENT_3D ( 'NONE', #210, #92, #307 ) ;
#258 = AXIS2_PLACEMENT_3D ( 'NONE', #300, #140, #232 ) ;
#259 = EDGE_CURVE ( 'NONE', #148, #262, #238, .T. ) ;
#260 = SURFACE_STYLE_USAGE ( .BOTH. , #166 ) ;
#261 = DIRECTION ( 'NONE',  ( -0.000000000000000000, -1.000000000000000000, -0.000000000000000000 ) ) ;
#262 = VERTEX_POINT ( 'NONE', #243 ) ;
#263 = CARTESIAN_POINT ( 'NONE',  ( 7.651835625825803009E-35, 0.7500000000000001110, 0.000000000000000000 ) ) ;
#264 = ORIENTED_EDGE ( 'NONE', *, *, #217, .T. ) ;
#265 = MECHANICAL_DESIGN_GEOMETRIC_PRESENTATION_REPRESENTATION (  '', ( #244 ), #86 ) ;
#266 = ORIENTED_EDGE ( 'NONE', *, *, #206, .T. ) ;
#267 = CYLINDRICAL_SURFACE ( 'NONE', #223, 0.1250000000000000000 ) ;
#268 = CYLINDRICAL_SURFACE ( 'NONE', #258, 0.1250000000000000278 ) ;
#269 =( CONVERSION_BASED_UNIT ( 'INCH', #84 ) LENGTH_UNIT ( ) NAMED_UNIT ( #214 ) );
#270 = CIRCLE ( 'NONE', #257, 0.1250000000000000278 ) ;
#271 = EDGE_CURVE ( 'NONE', #199, #235, #29, .T. ) ;
#272 = SURFACE_STYLE_USAGE ( .BOTH. , #110 ) ;
#273 = FILL_AREA_STYLE ('',( #34 ) ) ;
#274 = FILL_AREA_STYLE ('',( #305 ) ) ;
#275 =( NAMED_UNIT ( * ) SI_UNIT ( $, .STERADIAN. ) SOLID_ANGLE_UNIT ( ) );
#276 = CARTESIAN_POINT ( 'NONE',  ( -7.582401355855259480E-33, 0.7499999999999998890, 0.000000000000000000 ) ) ;
#277 =( CONVERSION_BASED_UNIT ( 'INCH', #165 ) LENGTH_UNIT ( ) NAMED_UNIT ( #234 ) );
#278 = SURFACE_STYLE_FILL_AREA ( #187 ) ;
#279 = PRESENTATION_LAYER_ASSIGNMENT (  '', '', ( #244 ) ) ;
#280 = DIRECTION ( 'NONE',  ( -3.498990854706722745E-17, 1.000000000000000000, -0.000000000000000000 ) ) ;
#281 = DIMENSIONAL_EXPONENTS ( 1.000000000000000000, 0.000000000000000000, 0.000000000000000000, 0.000000000000000000, 0.000000000000000000, 0.000000000000000000, 0.000000000000000000 ) ;
#282 = PRODUCT ( '30152', '30152', '', ( #152 ) ) ;
#283 = DIRECTION ( 'NONE',  ( -1.000000000000000000, 0.000000000000000000, 0.000000000000000000 ) ) ;
#284 = ADVANCED_FACE ( 'NONE', ( #130 ), #5, .T. ) ;
#285 = FILL_AREA_STYLE_COLOUR ( '', #87 ) ;
#286 = VERTEX_POINT ( 'NONE', #137 ) ;
#287 = AXIS2_PLACEMENT_3D ( 'NONE', #6, #103, #158 ) ;
#288 = ORIENTED_EDGE ( 'NONE', *, *, #271, .F. ) ;
#289 = APPLICATION_PROTOCOL_DEFINITION ( 'draft international standard', 'automotive_design', 1998, #304 ) ;
#290 = VERTEX_POINT ( 'NONE', #228 ) ;
#291 =( NAMED_UNIT ( * ) PLANE_ANGLE_UNIT ( ) SI_UNIT ( $, .RADIAN. ) );
#292 = DIRECTION ( 'NONE',  ( 0.000000000000000000, 0.000000000000000000, -1.000000000000000000 ) ) ;
#293 = ORIENTED_EDGE ( 'NONE', *, *, #70, .F. ) ;
#294 = CLOSED_SHELL ( 'NONE', ( #299, #163, #284, #14 ) ) ;
#295 = ORIENTED_EDGE ( 'NONE', *, *, #259, .F. ) ;
#296 = APPLICATION_PROTOCOL_DEFINITION ( 'draft international standard', 'automotive_design', 1998, #204 ) ;
#297 = DIRECTION ( 'NONE',  ( -3.498990854706722745E-17, 1.000000000000000000, -0.000000000000000000 ) ) ;
#298 = CYLINDRICAL_SURFACE ( 'NONE', #287, 0.1250000000000000000 ) ;
#299 = ADVANCED_FACE ( 'NONE', ( #178 ), #268, .T. ) ;
#300 = CARTESIAN_POINT ( 'NONE',  ( -6.123233995736766036E-17, 2.500000000000000000, 0.000000000000000000 ) ) ;
#301 = LENGTH_MEASURE_WITH_UNIT ( LENGTH_MEASURE( 0.02539999999999999897 ), #224 );
#302 = COLOUR_RGB ( '',1.000000000000000000, 0.000000000000000000, 0.000000000000000000 ) ;
#303 = FACE_OUTER_BOUND ( 'NONE', #215, .T. ) ;
#304 = APPLICATION_CONTEXT ( 'automotive_design' ) ;
#305 = FILL_AREA_STYLE_COLOUR ( '', #302 ) ;
#306 = STYLED_ITEM ( 'NONE', ( #66 ), #147 ) ;
#307 = DIRECTION ( 'NONE',  ( 0.000000000000000000, 0.000000000000000000, -1.000000000000000000 ) ) ;
#308 = AXIS2_PLACEMENT_3D ( 'NONE', #154, #80, #250 ) ;
#309 = AXIS2_PLACEMENT_3D ( 'NONE', #253, #297, #36 ) ;
ENDSEC;
END-ISO-10303-21;
