ISO-10303-21;
HEADER;
FILE_DESCRIPTION (( 'STEP AP214' ),
    '1' );
FILE_NAME ('Micro_AECM-1215-2X.STEP',
    '2021-09-03T16:59:29',
    ( '' ),
    ( '' ),
    'SwSTEP 2.0',
    'SolidWorks 2020',
    '' );
FILE_SCHEMA (( 'AUTOMOTIVE_DESIGN' ));
ENDSEC;

DATA;
#1 = ORIENTED_EDGE ( 'NONE', *, *, #323, .T. ) ;
#2 = CIRCLE ( 'NONE', #24, 0.2362204999999999999 ) ;
#3 = CIRCLE ( 'NONE', #300, 0.2359842794999999771 ) ;
#4 = CARTESIAN_POINT ( 'NONE',  ( 0.0000000000000000000, 0.0000000000000000000, 3.252717000000002301 ) ) ;
#5 = SURFACE_SIDE_STYLE ('',( #26 ) ) ;
#6 = LENGTH_MEASURE_WITH_UNIT ( LENGTH_MEASURE( 0.02539999999999999897 ), #246 );
#7 = EDGE_CURVE ( 'NONE', #231, #309, #266, .T. ) ;
#8 = DIRECTION ( 'NONE',  ( -0.0000000000000000000, -0.0000000000000000000, -1.000000000000000000 ) ) ;
#9 = AXIS2_PLACEMENT_3D ( 'NONE', #4, #331, #218 ) ;
#10 = AXIS2_PLACEMENT_3D ( 'NONE', #301, #182, #341 ) ;
#11 = EDGE_CURVE ( 'NONE', #229, #144, #130, .T. ) ;
#12 = VECTOR ( 'NONE', #233, 39.37007874015748143 ) ;
#13 = AXIS2_PLACEMENT_3D ( 'NONE', #232, #92, #69 ) ;
#14 = ORIENTED_EDGE ( 'NONE', *, *, #249, .T. ) ;
#15 = CARTESIAN_POINT ( 'NONE',  ( 0.0000000000000000000, 0.0000000000000000000, 0.0000000000000000000 ) ) ;
#16 = EDGE_LOOP ( 'NONE', ( #312, #14, #90, #51 ) ) ;
#17 = AXIS2_PLACEMENT_3D ( 'NONE', #345, #315, #350 ) ;
#18 = ORIENTED_EDGE ( 'NONE', *, *, #42, .T. ) ;
#19 = DIRECTION ( 'NONE',  ( 0.0000000000000000000, 0.0000000000000000000, 1.000000000000000000 ) ) ;
#20 = ORIENTED_EDGE ( 'NONE', *, *, #7, .T. ) ;
#21 = PRODUCT ( 'Micro_AECM-1215-2X', 'Micro_AECM-1215-2X', '', ( #320 ) ) ;
#22 = DIRECTION ( 'NONE',  ( -0.0000000000000000000, -0.0000000000000000000, -1.000000000000000000 ) ) ;
#23 = EDGE_LOOP ( 'NONE', ( #282, #43, #269, #116 ) ) ;
#24 = AXIS2_PLACEMENT_3D ( 'NONE', #166, #250, #277 ) ;
#25 = CARTESIAN_POINT ( 'NONE',  ( 0.2212205000000019295, 2.801018282243833685E-17, 3.267717000000000649 ) ) ;
#26 = SURFACE_STYLE_FILL_AREA ( #153 ) ;
#27 = FACE_OUTER_BOUND ( 'NONE', #40, .T. ) ;
#28 = DIRECTION ( 'NONE',  ( 0.0000000000000000000, 0.0000000000000000000, 1.000000000000000000 ) ) ;
#29 = DIRECTION ( 'NONE',  ( -1.000000000000000000, 1.224646799147352468E-16, 0.0000000000000000000 ) ) ;
#30 = CIRCLE ( 'NONE', #215, 0.2212205000000019295 ) ;
#31 = SURFACE_STYLE_USAGE ( .BOTH. , #5 ) ;
#32 = CYLINDRICAL_SURFACE ( 'NONE', #203, 0.2359842794999999771 ) ;
#33 = DIRECTION ( 'NONE',  ( 0.0000000000000000000, 0.0000000000000000000, 1.000000000000000000 ) ) ;
#34 = ORIENTED_EDGE ( 'NONE', *, *, #219, .F. ) ;
#35 = PRESENTATION_LAYER_ASSIGNMENT (  '', '', ( #131 ) ) ;
#36 =( NAMED_UNIT ( * ) PLANE_ANGLE_UNIT ( ) SI_UNIT ( $, .RADIAN. ) );
#37 = EDGE_CURVE ( 'NONE', #309, #176, #304, .T. ) ;
#38 = ORIENTED_EDGE ( 'NONE', *, *, #111, .T. ) ;
#39 = CARTESIAN_POINT ( 'NONE',  ( 0.0000000000000000000, 0.0000000000000000000, 3.267717000000000649 ) ) ;
#40 = EDGE_LOOP ( 'NONE', ( #307, #347, #34, #138 ) ) ;
#41 = FACE_OUTER_BOUND ( 'NONE', #46, .T. ) ;
#42 = EDGE_CURVE ( 'NONE', #293, #231, #273, .T. ) ;
#43 = ORIENTED_EDGE ( 'NONE', *, *, #72, .F. ) ;
#44 = DIRECTION ( 'NONE',  ( -1.000000000000000000, 0.0000000000000000000, 0.0000000000000000000 ) ) ;
#45 = VECTOR ( 'NONE', #326, 39.37007874015748143 ) ;
#46 = EDGE_LOOP ( 'NONE', ( #60, #86, #264, #272 ) ) ;
#47 = DIRECTION ( 'NONE',  ( -0.0000000000000000000, -0.0000000000000000000, -1.000000000000000000 ) ) ;
#48 =( NAMED_UNIT ( * ) SI_UNIT ( $, .STERADIAN. ) SOLID_ANGLE_UNIT ( ) );
#49 = DIRECTION ( 'NONE',  ( -1.000000000000000000, 0.0000000000000000000, 0.0000000000000000000 ) ) ;
#50 = CIRCLE ( 'NONE', #107, 0.05905500000000001720 ) ;
#51 = ORIENTED_EDGE ( 'NONE', *, *, #161, .F. ) ;
#52 = ORIENTED_EDGE ( 'NONE', *, *, #268, .T. ) ;
#53 = DIRECTION ( 'NONE',  ( 0.0000000000000000000, 0.0000000000000000000, 1.000000000000000000 ) ) ;
#54 = SHAPE_DEFINITION_REPRESENTATION ( #185, #206 ) ;
#55 = FILL_AREA_STYLE_COLOUR ( '', #286 ) ;
#56 = FACE_OUTER_BOUND ( 'NONE', #155, .T. ) ;
#57 = PRODUCT_DEFINITION_CONTEXT ( 'detailed design', #311, 'design' ) ;
#58 = CONICAL_SURFACE ( 'NONE', #17, 0.2212205000000019295, 0.7853981633974482790 ) ;
#59 = LINE ( 'NONE', #255, #196 ) ;
#60 = ORIENTED_EDGE ( 'NONE', *, *, #170, .T. ) ;
#61 = UNCERTAINTY_MEASURE_WITH_UNIT (LENGTH_MEASURE( 1.000000000000000082E-05 ), #209, 'distance_accuracy_value', 'NONE');
#62 = ORIENTED_EDGE ( 'NONE', *, *, #110, .T. ) ;
#63 = DIRECTION ( 'NONE',  ( 1.224646799147353207E-16, 1.000000000000000000, -0.0000000000000000000 ) ) ;
#64 = CIRCLE ( 'NONE', #270, 0.2212205000000019295 ) ;
#65 = DIRECTION ( 'NONE',  ( -1.224646799147353454E-16, -0.0000000000000000000, -1.000000000000000000 ) ) ;
#66 = EDGE_LOOP ( 'NONE', ( #181, #1, #62, #254 ) ) ;
#67 = LINE ( 'NONE', #122, #204 ) ;
#68 = ORIENTED_EDGE ( 'NONE', *, *, #88, .F. ) ;
#69 = DIRECTION ( 'NONE',  ( -1.000000000000000000, 0.0000000000000000000, 0.0000000000000000000 ) ) ;
#70 = AXIS2_PLACEMENT_3D ( 'NONE', #115, #87, #201 ) ;
#71 = VERTEX_POINT ( 'NONE', #150 ) ;
#72 = EDGE_CURVE ( 'NONE', #148, #121, #30, .T. ) ;
#73 = CARTESIAN_POINT ( 'NONE',  ( 7.232151672364696963E-18, 0.0000000000000000000, 0.0000000000000000000 ) ) ;
#74 =( NAMED_UNIT ( * ) SI_UNIT ( $, .STERADIAN. ) SOLID_ANGLE_UNIT ( ) );
#75 = ORIENTED_EDGE ( 'NONE', *, *, #257, .F. ) ;
#76 = APPLICATION_PROTOCOL_DEFINITION ( 'draft international standard', 'automotive_design', 1998, #311 ) ;
#77 = CARTESIAN_POINT ( 'NONE',  ( 7.232151672364696963E-18, 0.0000000000000000000, 0.0000000000000000000 ) ) ;
#78 = CARTESIAN_POINT ( 'NONE',  ( 7.232151672364698504E-18, 0.0000000000000000000, 0.05905500000000001720 ) ) ;
#79 = PRESENTATION_STYLE_ASSIGNMENT (( #31 ) ) ;
#80 = LINE ( 'NONE', #139, #45 ) ;
#81 = FACE_OUTER_BOUND ( 'NONE', #66, .T. ) ;
#82 = AXIS2_PLACEMENT_3D ( 'NONE', #240, #53, #157 ) ;
#83 = TOROIDAL_SURFACE ( 'NONE', #297, 0.1769292794999999530, 0.05905500000000000332 ) ;
#84 = APPLICATION_CONTEXT ( 'automotive_design' ) ;
#85 = FACE_OUTER_BOUND ( 'NONE', #167, .T. ) ;
#86 = ORIENTED_EDGE ( 'NONE', *, *, #299, .T. ) ;
#87 = DIRECTION ( 'NONE',  ( 0.0000000000000000000, 0.0000000000000000000, -1.000000000000000000 ) ) ;
#88 = EDGE_CURVE ( 'NONE', #176, #309, #159, .T. ) ;
#89 = DIRECTION ( 'NONE',  ( 1.000000000000000000, 0.0000000000000000000, 0.0000000000000000000 ) ) ;
#90 = ORIENTED_EDGE ( 'NONE', *, *, #163, .T. ) ;
#91 = MECHANICAL_DESIGN_GEOMETRIC_PRESENTATION_REPRESENTATION (  '', ( #131 ), #224 ) ;
#92 = DIRECTION ( 'NONE',  ( -0.0000000000000000000, -0.0000000000000000000, -1.000000000000000000 ) ) ;
#93 = EDGE_LOOP ( 'NONE', ( #174, #52 ) ) ;
#94 = CARTESIAN_POINT ( 'NONE',  ( 0.0000000000000000000, 0.0000000000000000000, 3.267717000000000649 ) ) ;
#95 = ORIENTED_EDGE ( 'NONE', *, *, #170, .F. ) ;
#96 = FACE_OUTER_BOUND ( 'NONE', #140, .T. ) ;
#97 = DIRECTION ( 'NONE',  ( 1.000000000000000000, 0.0000000000000000000, 0.0000000000000000000 ) ) ;
#98 = ADVANCED_FACE ( 'NONE', ( #27 ), #274, .T. ) ;
#99 = AXIS2_PLACEMENT_3D ( 'NONE', #77, #183, #213 ) ;
#100 = LINE ( 'NONE', #152, #322 ) ;
#101 = DIRECTION ( 'NONE',  ( 1.000000000000000000, 0.0000000000000000000, 0.0000000000000000000 ) ) ;
#102 = ORIENTED_EDGE ( 'NONE', *, *, #323, .F. ) ;
#103 = ADVANCED_FACE ( 'NONE', ( #292 ), #58, .T. ) ;
#104 = CARTESIAN_POINT ( 'NONE',  ( -0.2359842794999998383, 2.889973925387693713E-17, 1.181102000000000096 ) ) ;
#105 = DIRECTION ( 'NONE',  ( 1.000000000000000000, 0.0000000000000000000, 0.0000000000000000000 ) ) ;
#106 = CARTESIAN_POINT ( 'NONE',  ( -0.2359842794999998383, 2.891420358783783796E-17, 1.181102000000000096 ) ) ;
#107 = AXIS2_PLACEMENT_3D ( 'NONE', #168, #63, #29 ) ;
#108 = AXIS2_PLACEMENT_3D ( 'NONE', #284, #175, #235 ) ;
#109 = ADVANCED_FACE ( 'NONE', ( #125 ), #339, .T. ) ;
#110 = EDGE_CURVE ( 'NONE', #229, #176, #100, .T. ) ;
#111 = EDGE_CURVE ( 'NONE', #225, #178, #241, .T. ) ;
#112 =( GEOMETRIC_REPRESENTATION_CONTEXT ( 3 ) GLOBAL_UNCERTAINTY_ASSIGNED_CONTEXT ( ( #343 ) ) GLOBAL_UNIT_ASSIGNED_CONTEXT ( ( #191, #239, #74 ) ) REPRESENTATION_CONTEXT ( 'NONE', 'WORKASPACE' ) );
#113 = PRODUCT_DEFINITION ( 'UNKNOWN', '', #245, #57 ) ;
#114 = EDGE_LOOP ( 'NONE', ( #281, #285, #332, #303 ) ) ;
#115 = CARTESIAN_POINT ( 'NONE',  ( 0.0000000000000000000, 0.0000000000000000000, 3.252717000000002301 ) ) ;
#116 = ORIENTED_EDGE ( 'NONE', *, *, #249, .F. ) ;
#117 = FACE_OUTER_BOUND ( 'NONE', #93, .T. ) ;
#118 = ORIENTED_EDGE ( 'NONE', *, *, #164, .T. ) ;
#119 = CARTESIAN_POINT ( 'NONE',  ( 0.0000000000000000000, 0.0000000000000000000, 3.267717000000000649 ) ) ;
#120 = STYLED_ITEM ( 'NONE', ( #79 ), #206 ) ;
#121 = VERTEX_POINT ( 'NONE', #25 ) ;
#122 = CARTESIAN_POINT ( 'NONE',  ( 0.2359842794999999771, 2.889973925387693713E-17, -2.889973925387693713E-17 ) ) ;
#123 = CARTESIAN_POINT ( 'NONE',  ( 0.1769292794999999530, 0.0000000000000000000, 0.05905500000000000332 ) ) ;
#124 = DIRECTION ( 'NONE',  ( 1.000000000000000000, 0.0000000000000000000, 0.0000000000000000000 ) ) ;
#125 = FACE_OUTER_BOUND ( 'NONE', #114, .T. ) ;
#126 = DIRECTION ( 'NONE',  ( 0.7071067811865474617, 8.659560562354932858E-17, -0.7071067811865474617 ) ) ;
#127 = CONICAL_SURFACE ( 'NONE', #306, 0.2359842794999999771, 0.1745329251994338082 ) ;
#128 = FACE_OUTER_BOUND ( 'NONE', #202, .T. ) ;
#129 = DIRECTION ( 'NONE',  ( 0.0000000000000000000, 0.0000000000000000000, -1.000000000000000000 ) ) ;
#130 = LINE ( 'NONE', #104, #193 ) ;
#131 = STYLED_ITEM ( 'NONE', ( #162 ), #217 ) ;
#132 = DIRECTION ( 'NONE',  ( 1.000000000000000000, 0.0000000000000000000, 0.0000000000000000000 ) ) ;
#133 = COLOUR_RGB ( '',0.7921568627450980005, 0.8196078431372548767, 0.9333333333333333481 ) ;
#134 = CARTESIAN_POINT ( 'NONE',  ( 0.0000000000000000000, 0.0000000000000000000, 0.0000000000000000000 ) ) ;
#135 = CARTESIAN_POINT ( 'NONE',  ( 1.446432783766537492E-16, 0.0000000000000000000, 1.181102000000000096 ) ) ;
#136 = VECTOR ( 'NONE', #318, 39.37007874015748854 ) ;
#137 = SURFACE_STYLE_FILL_AREA ( #160 ) ;
#138 = ORIENTED_EDGE ( 'NONE', *, *, #291, .F. ) ;
#139 = CARTESIAN_POINT ( 'NONE',  ( 0.2359842795000001159, 0.0000000000000000000, 1.181102000000000096 ) ) ;
#140 = EDGE_LOOP ( 'NONE', ( #290, #18 ) ) ;
#141 = DIRECTION ( 'NONE',  ( 1.000000000000000000, 0.0000000000000000000, -0.0000000000000000000 ) ) ;
#142 = EDGE_LOOP ( 'NONE', ( #259, #38, #75, #227 ) ) ;
#143 = PLANE ( 'NONE',  #108 ) ;
#144 = VERTEX_POINT ( 'NONE', #349 ) ;
#145 = CONICAL_SURFACE ( 'NONE', #171, 0.2359842794999999771, 0.1745329251994338082 ) ;
#146 = VECTOR ( 'NONE', #126, 39.37007874015748854 ) ;
#147 = EDGE_CURVE ( 'NONE', #231, #293, #244, .T. ) ;
#148 = VERTEX_POINT ( 'NONE', #189 ) ;
#149 = PLANE ( 'NONE',  #253 ) ;
#150 = CARTESIAN_POINT ( 'NONE',  ( 0.2359842795000001159, 0.0000000000000000000, 1.181102000000000096 ) ) ;
#151 = ADVANCED_FACE ( 'NONE', ( #128 ), #145, .T. ) ;
#152 = CARTESIAN_POINT ( 'NONE',  ( -0.2359842794999999771, 0.0000000000000000000, 2.889973925387693713E-17 ) ) ;
#153 = FILL_AREA_STYLE ('',( #243 ) ) ;
#154 = CIRCLE ( 'NONE', #330, 0.2359842794999999771 ) ;
#155 = EDGE_LOOP ( 'NONE', ( #342, #169, #20, #68 ) ) ;
#156 = DIRECTION ( 'NONE',  ( 0.0000000000000000000, 0.0000000000000000000, 1.000000000000000000 ) ) ;
#157 = DIRECTION ( 'NONE',  ( 1.000000000000000000, 0.0000000000000000000, 0.0000000000000000000 ) ) ;
#158 = DIRECTION ( 'NONE',  ( 0.0000000000000000000, 0.0000000000000000000, 1.000000000000000000 ) ) ;
#159 = CIRCLE ( 'NONE', #82, 0.2359842794999999771 ) ;
#160 = FILL_AREA_STYLE ('',( #55 ) ) ;
#161 = EDGE_CURVE ( 'NONE', #178, #144, #2, .T. ) ;
#162 = PRESENTATION_STYLE_ASSIGNMENT (( #298 ) ) ;
#163 = EDGE_CURVE ( 'NONE', #261, #144, #59, .T. ) ;
#164 = EDGE_CURVE ( 'NONE', #71, #178, #80, .T. ) ;
#165 = AXIS2_PLACEMENT_3D ( 'NONE', #78, #28, #97 ) ;
#166 = CARTESIAN_POINT ( 'NONE',  ( 1.448073410051044337E-16, 0.0000000000000000000, 1.182441673027071261 ) ) ;
#167 = EDGE_LOOP ( 'NONE', ( #95, #335, #288, #199 ) ) ;
#168 = CARTESIAN_POINT ( 'NONE',  ( -0.1769292794999999530, 2.166758758151223863E-17, 0.05905500000000000332 ) ) ;
#169 = ORIENTED_EDGE ( 'NONE', *, *, #147, .F. ) ;
#170 = EDGE_CURVE ( 'NONE', #229, #71, #154, .T. ) ;
#171 = AXIS2_PLACEMENT_3D ( 'NONE', #319, #238, #192 ) ;
#172 = DIRECTION ( 'NONE',  ( -1.000000000000000000, 0.0000000000000000000, 1.224646799147353454E-16 ) ) ;
#173 = DIMENSIONAL_EXPONENTS ( 1.000000000000000000, 0.0000000000000000000, 0.0000000000000000000, 0.0000000000000000000, 0.0000000000000000000, 0.0000000000000000000, 0.0000000000000000000 ) ;
#174 = ORIENTED_EDGE ( 'NONE', *, *, #72, .T. ) ;
#175 = DIRECTION ( 'NONE',  ( 0.0000000000000000000, 0.0000000000000000000, 1.000000000000000000 ) ) ;
#176 = VERTEX_POINT ( 'NONE', #336 ) ;
#177 = DIRECTION ( 'NONE',  ( -1.224646799147353454E-16, -0.0000000000000000000, -1.000000000000000000 ) ) ;
#178 = VERTEX_POINT ( 'NONE', #195 ) ;
#179 = CYLINDRICAL_SURFACE ( 'NONE', #280, 0.2362204999999999999 ) ;
#180 = MECHANICAL_DESIGN_GEOMETRIC_PRESENTATION_REPRESENTATION (  '', ( #120 ), #112 ) ;
#181 = ORIENTED_EDGE ( 'NONE', *, *, #299, .F. ) ;
#182 = DIRECTION ( 'NONE',  ( -1.224646799147353454E-16, -0.0000000000000000000, -1.000000000000000000 ) ) ;
#183 = DIRECTION ( 'NONE',  ( -0.0000000000000000000, -0.0000000000000000000, -1.000000000000000000 ) ) ;
#184 = CARTESIAN_POINT ( 'NONE',  ( 0.0000000000000000000, 0.0000000000000000000, 3.267717000000000649 ) ) ;
#185 = PRODUCT_DEFINITION_SHAPE ( 'NONE', 'NONE',  #113 ) ;
#186 = AXIS2_PLACEMENT_3D ( 'NONE', #271, #158, #214 ) ;
#187 = AXIS2_PLACEMENT_3D ( 'NONE', #194, #156, #105 ) ;
#188 = ADVANCED_FACE ( 'NONE', ( #56 ), #83, .T. ) ;
#189 = CARTESIAN_POINT ( 'NONE',  ( -0.2212205000000019295, 0.0000000000000000000, 3.267717000000000649 ) ) ;
#190 = DIRECTION ( 'NONE',  ( 1.000000000000000000, 0.0000000000000000000, 0.0000000000000000000 ) ) ;
#191 =( CONVERSION_BASED_UNIT ( 'INCH', #247 ) LENGTH_UNIT ( ) NAMED_UNIT ( #338 ) );
#192 = DIRECTION ( 'NONE',  ( 1.000000000000000000, 0.0000000000000000000, 0.0000000000000000000 ) ) ;
#193 = VECTOR ( 'NONE', #324, 39.37007874015747433 ) ;
#194 = CARTESIAN_POINT ( 'NONE',  ( 0.0000000000000000000, 0.0000000000000000000, 0.0000000000000000000 ) ) ;
#195 = CARTESIAN_POINT ( 'NONE',  ( 0.2362205000000001665, 2.892866792179874496E-17, 1.182441673027071261 ) ) ;
#196 = VECTOR ( 'NONE', #8, 39.37007874015748143 ) ;
#197 = CARTESIAN_POINT ( 'NONE',  ( 7.232151672364696963E-18, 0.0000000000000000000, 0.05905500000000000332 ) ) ;
#198 = CARTESIAN_POINT ( 'NONE',  ( 0.2362204999999999999, 2.892866792179872647E-17, 3.252717000000002301 ) ) ;
#199 = ORIENTED_EDGE ( 'NONE', *, *, #164, .F. ) ;
#200 = PRODUCT_RELATED_PRODUCT_CATEGORY ( 'part', '', ( #21 ) ) ;
#201 = DIRECTION ( 'NONE',  ( 1.000000000000000000, 0.0000000000000000000, 0.0000000000000000000 ) ) ;
#202 = EDGE_LOOP ( 'NONE', ( #208, #102, #118, #216 ) ) ;
#203 = AXIS2_PLACEMENT_3D ( 'NONE', #134, #329, #305 ) ;
#204 = VECTOR ( 'NONE', #177, 39.37007874015748143 ) ;
#205 =( LENGTH_UNIT ( ) NAMED_UNIT ( * ) SI_UNIT ( $, .METRE. ) );
#206 = ADVANCED_BREP_SHAPE_REPRESENTATION ( 'Micro_AECM-1215-2X', ( #217, #187 ), #340 ) ;
#207 = LINE ( 'NONE', #260, #136 ) ;
#208 = ORIENTED_EDGE ( 'NONE', *, *, #11, .F. ) ;
#209 =( CONVERSION_BASED_UNIT ( 'INCH', #308 ) LENGTH_UNIT ( ) NAMED_UNIT ( #258 ) );
#210 = DIRECTION ( 'NONE',  ( 0.0000000000000000000, -1.000000000000000000, 0.0000000000000000000 ) ) ;
#211 = DIRECTION ( 'NONE',  ( -1.224646799147353454E-16, -0.0000000000000000000, -1.000000000000000000 ) ) ;
#212 = DIRECTION ( 'NONE',  ( -1.224646799147353454E-16, -0.0000000000000000000, -1.000000000000000000 ) ) ;
#213 = DIRECTION ( 'NONE',  ( 1.000000000000000000, 0.0000000000000000000, 0.0000000000000000000 ) ) ;
#214 = DIRECTION ( 'NONE',  ( 1.000000000000000000, 0.0000000000000000000, 0.0000000000000000000 ) ) ;
#215 = AXIS2_PLACEMENT_3D ( 'NONE', #184, #294, #101 ) ;
#216 = ORIENTED_EDGE ( 'NONE', *, *, #161, .T. ) ;
#217 = MANIFOLD_SOLID_BREP ( 'Fillet1', #234 ) ;
#218 = DIRECTION ( 'NONE',  ( 1.000000000000000000, 0.0000000000000000000, 0.0000000000000000000 ) ) ;
#219 = EDGE_CURVE ( 'NONE', #261, #225, #279, .T. ) ;
#220 = DIRECTION ( 'NONE',  ( 1.224646799147353454E-16, 0.0000000000000000000, 1.000000000000000000 ) ) ;
#221 = AXIS2_PLACEMENT_3D ( 'NONE', #73, #47, #190 ) ;
#222 = PRESENTATION_LAYER_ASSIGNMENT (  '', '', ( #120 ) ) ;
#223 =( CONVERSION_BASED_UNIT ( 'INCH', #6 ) LENGTH_UNIT ( ) NAMED_UNIT ( #173 ) );
#224 =( GEOMETRIC_REPRESENTATION_CONTEXT ( 3 ) GLOBAL_UNCERTAINTY_ASSIGNED_CONTEXT ( ( #333 ) ) GLOBAL_UNIT_ASSIGNED_CONTEXT ( ( #223, #36, #334 ) ) REPRESENTATION_CONTEXT ( 'NONE', 'WORKASPACE' ) );
#225 = VERTEX_POINT ( 'NONE', #198 ) ;
#226 = ADVANCED_FACE ( 'NONE', ( #81 ), #32, .T. ) ;
#227 = ORIENTED_EDGE ( 'NONE', *, *, #163, .F. ) ;
#228 = CARTESIAN_POINT ( 'NONE',  ( 0.2212205000000019295, 2.709169772307794108E-17, 3.267717000000000649 ) ) ;
#229 = VERTEX_POINT ( 'NONE', #106 ) ;
#230 = DIRECTION ( 'NONE',  ( -1.000000000000000000, 0.0000000000000000000, 0.0000000000000000000 ) ) ;
#231 = VERTEX_POINT ( 'NONE', #302 ) ;
#232 = CARTESIAN_POINT ( 'NONE',  ( 0.0000000000000000000, 0.0000000000000000000, 3.267717000000000649 ) ) ;
#233 = DIRECTION ( 'NONE',  ( -0.0000000000000000000, -0.0000000000000000000, -1.000000000000000000 ) ) ;
#234 = CLOSED_SHELL ( 'NONE', ( #109, #278, #242, #98, #351, #275, #295, #103, #151, #226, #328, #188 ) ) ;
#235 = DIRECTION ( 'NONE',  ( 1.000000000000000000, 0.0000000000000000000, -0.0000000000000000000 ) ) ;
#236 = AXIS2_PLACEMENT_3D ( 'NONE', #123, #210, #317 ) ;
#237 = EDGE_CURVE ( 'NONE', #293, #176, #50, .T. ) ;
#238 = DIRECTION ( 'NONE',  ( 1.224646799147353454E-16, 0.0000000000000000000, 1.000000000000000000 ) ) ;
#239 =( NAMED_UNIT ( * ) PLANE_ANGLE_UNIT ( ) SI_UNIT ( $, .RADIAN. ) );
#240 = CARTESIAN_POINT ( 'NONE',  ( 7.232151672364698504E-18, 0.0000000000000000000, 0.05905500000000001720 ) ) ;
#241 = LINE ( 'NONE', #321, #12 ) ;
#242 = ADVANCED_FACE ( 'NONE', ( #85 ), #127, .T. ) ;
#243 = FILL_AREA_STYLE_COLOUR ( '', #133 ) ;
#244 = CIRCLE ( 'NONE', #99, 0.1769292794999999530 ) ;
#245 = PRODUCT_DEFINITION_FORMATION_WITH_SPECIFIED_SOURCE ( 'ANY', '', #21, .NOT_KNOWN. ) ;
#246 =( LENGTH_UNIT ( ) NAMED_UNIT ( * ) SI_UNIT ( $, .METRE. ) );
#247 = LENGTH_MEASURE_WITH_UNIT ( LENGTH_MEASURE( 0.02539999999999999897 ), #325 );
#248 = SURFACE_SIDE_STYLE ('',( #137 ) ) ;
#249 = EDGE_CURVE ( 'NONE', #225, #261, #314, .T. ) ;
#250 = DIRECTION ( 'NONE',  ( -1.224646799147353454E-16, -0.0000000000000000000, -1.000000000000000000 ) ) ;
#251 = CIRCLE ( 'NONE', #10, 0.2362204999999999999 ) ;
#252 = DIRECTION ( 'NONE',  ( -1.224646799147353454E-16, -0.0000000000000000000, -1.000000000000000000 ) ) ;
#253 = AXIS2_PLACEMENT_3D ( 'NONE', #39, #337, #141 ) ;
#254 = ORIENTED_EDGE ( 'NONE', *, *, #88, .T. ) ;
#255 = CARTESIAN_POINT ( 'NONE',  ( -0.2362204999999999999, 0.0000000000000000000, 3.267717000000000649 ) ) ;
#256 = CARTESIAN_POINT ( 'NONE',  ( 0.2359842794999999771, 2.889973925387693713E-17, 0.05905500000000001720 ) ) ;
#257 = EDGE_CURVE ( 'NONE', #144, #178, #251, .T. ) ;
#258 = DIMENSIONAL_EXPONENTS ( 1.000000000000000000, 0.0000000000000000000, 0.0000000000000000000, 0.0000000000000000000, 0.0000000000000000000, 0.0000000000000000000, 0.0000000000000000000 ) ;
#259 = ORIENTED_EDGE ( 'NONE', *, *, #219, .T. ) ;
#260 = CARTESIAN_POINT ( 'NONE',  ( -0.2212205000000019295, 0.0000000000000000000, 3.267717000000000649 ) ) ;
#261 = VERTEX_POINT ( 'NONE', #313 ) ;
#262 = AXIS2_PLACEMENT_3D ( 'NONE', #265, #129, #49 ) ;
#263 = CARTESIAN_POINT ( 'NONE',  ( -0.1769292794999999530, 2.528366341769458480E-17, 0.0000000000000000000 ) ) ;
#264 = ORIENTED_EDGE ( 'NONE', *, *, #37, .T. ) ;
#265 = CARTESIAN_POINT ( 'NONE',  ( 0.0000000000000000000, 0.0000000000000000000, 3.267717000000000649 ) ) ;
#266 = CIRCLE ( 'NONE', #236, 0.05905500000000000332 ) ;
#267 = CYLINDRICAL_SURFACE ( 'NONE', #348, 0.2359842794999999771 ) ;
#268 = EDGE_CURVE ( 'NONE', #121, #148, #64, .T. ) ;
#269 = ORIENTED_EDGE ( 'NONE', *, *, #291, .T. ) ;
#270 = AXIS2_PLACEMENT_3D ( 'NONE', #119, #19, #124 ) ;
#271 = CARTESIAN_POINT ( 'NONE',  ( 7.232151672364696963E-18, 0.0000000000000000000, 0.05905500000000000332 ) ) ;
#272 = ORIENTED_EDGE ( 'NONE', *, *, #110, .F. ) ;
#273 = CIRCLE ( 'NONE', #221, 0.1769292794999999530 ) ;
#274 = CONICAL_SURFACE ( 'NONE', #262, 0.2212205000000019295, 0.7853981633974482790 ) ;
#275 = ADVANCED_FACE ( 'NONE', ( #310 ), #179, .T. ) ;
#276 = DIRECTION ( 'NONE',  ( -1.000000000000000000, 0.0000000000000000000, 0.0000000000000000000 ) ) ;
#277 = DIRECTION ( 'NONE',  ( 1.000000000000000000, 0.0000000000000000000, 0.0000000000000000000 ) ) ;
#278 = ADVANCED_FACE ( 'NONE', ( #41 ), #267, .T. ) ;
#279 = CIRCLE ( 'NONE', #70, 0.2362204999999999999 ) ;
#280 = AXIS2_PLACEMENT_3D ( 'NONE', #94, #22, #230 ) ;
#281 = ORIENTED_EDGE ( 'NONE', *, *, #42, .F. ) ;
#282 = ORIENTED_EDGE ( 'NONE', *, *, #346, .F. ) ;
#283 = FACE_OUTER_BOUND ( 'NONE', #142, .T. ) ;
#284 = CARTESIAN_POINT ( 'NONE',  ( 0.0000000000000000000, 0.0000000000000000000, 0.0000000000000000000 ) ) ;
#285 = ORIENTED_EDGE ( 'NONE', *, *, #237, .T. ) ;
#286 = COLOUR_RGB ( '',0.7921568627450980005, 0.8196078431372548767, 0.9333333333333333481 ) ;
#287 = CARTESIAN_POINT ( 'NONE',  ( 1.446432783766537492E-16, 0.0000000000000000000, 1.181102000000000096 ) ) ;
#288 = ORIENTED_EDGE ( 'NONE', *, *, #257, .T. ) ;
#289 =( NAMED_UNIT ( * ) PLANE_ANGLE_UNIT ( ) SI_UNIT ( $, .RADIAN. ) );
#290 = ORIENTED_EDGE ( 'NONE', *, *, #147, .T. ) ;
#291 = EDGE_CURVE ( 'NONE', #148, #261, #207, .T. ) ;
#292 = FACE_OUTER_BOUND ( 'NONE', #23, .T. ) ;
#293 = VERTEX_POINT ( 'NONE', #263 ) ;
#294 = DIRECTION ( 'NONE',  ( 0.0000000000000000000, 0.0000000000000000000, 1.000000000000000000 ) ) ;
#295 = ADVANCED_FACE ( 'NONE', ( #117 ), #149, .T. ) ;
#296 = CARTESIAN_POINT ( 'NONE',  ( 1.446432783766537492E-16, 0.0000000000000000000, 1.181102000000000096 ) ) ;
#297 = AXIS2_PLACEMENT_3D ( 'NONE', #197, #33, #89 ) ;
#298 = SURFACE_STYLE_USAGE ( .BOTH. , #248 ) ;
#299 = EDGE_CURVE ( 'NONE', #71, #309, #67, .T. ) ;
#300 = AXIS2_PLACEMENT_3D ( 'NONE', #287, #65, #44 ) ;
#301 = CARTESIAN_POINT ( 'NONE',  ( 1.448073410051044337E-16, 0.0000000000000000000, 1.182441673027071261 ) ) ;
#302 = CARTESIAN_POINT ( 'NONE',  ( 0.1769292794999999530, 0.0000000000000000000, 0.0000000000000000000 ) ) ;
#303 = ORIENTED_EDGE ( 'NONE', *, *, #7, .F. ) ;
#304 = CIRCLE ( 'NONE', #165, 0.2359842794999999771 ) ;
#305 = DIRECTION ( 'NONE',  ( -1.000000000000000000, 0.0000000000000000000, 1.224646799147353454E-16 ) ) ;
#306 = AXIS2_PLACEMENT_3D ( 'NONE', #135, #220, #132 ) ;
#307 = ORIENTED_EDGE ( 'NONE', *, *, #268, .F. ) ;
#308 = LENGTH_MEASURE_WITH_UNIT ( LENGTH_MEASURE( 0.02539999999999999897 ), #205 );
#309 = VERTEX_POINT ( 'NONE', #256 ) ;
#310 = FACE_OUTER_BOUND ( 'NONE', #16, .T. ) ;
#311 = APPLICATION_CONTEXT ( 'automotive_design' ) ;
#312 = ORIENTED_EDGE ( 'NONE', *, *, #111, .F. ) ;
#313 = CARTESIAN_POINT ( 'NONE',  ( -0.2362204999999999999, 0.0000000000000000000, 3.252717000000002301 ) ) ;
#314 = CIRCLE ( 'NONE', #9, 0.2362204999999999999 ) ;
#315 = DIRECTION ( 'NONE',  ( 0.0000000000000000000, 0.0000000000000000000, -1.000000000000000000 ) ) ;
#316 = CYLINDRICAL_SURFACE ( 'NONE', #13, 0.2362204999999999999 ) ;
#317 = DIRECTION ( 'NONE',  ( 0.0000000000000000000, 0.0000000000000000000, -1.000000000000000000 ) ) ;
#318 = DIRECTION ( 'NONE',  ( -0.7071067811865474617, 0.0000000000000000000, -0.7071067811865474617 ) ) ;
#319 = CARTESIAN_POINT ( 'NONE',  ( 1.446432783766537492E-16, 0.0000000000000000000, 1.181102000000000096 ) ) ;
#320 = PRODUCT_CONTEXT ( 'NONE', #84, 'mechanical' ) ;
#321 = CARTESIAN_POINT ( 'NONE',  ( 0.2362204999999999999, 2.892866792179872647E-17, 3.267717000000000649 ) ) ;
#322 = VECTOR ( 'NONE', #212, 39.37007874015748143 ) ;
#323 = EDGE_CURVE ( 'NONE', #71, #229, #3, .T. ) ;
#324 = DIRECTION ( 'NONE',  ( -0.1736481776669311083, 2.126576849575782084E-17, 0.9848077530122080203 ) ) ;
#325 =( LENGTH_UNIT ( ) NAMED_UNIT ( * ) SI_UNIT ( $, .METRE. ) );
#326 = DIRECTION ( 'NONE',  ( 0.1736481776669313026, 0.0000000000000000000, 0.9848077530122077983 ) ) ;
#327 = APPLICATION_PROTOCOL_DEFINITION ( 'draft international standard', 'automotive_design', 1998, #84 ) ;
#328 = ADVANCED_FACE ( 'NONE', ( #96 ), #143, .F. ) ;
#329 = DIRECTION ( 'NONE',  ( -1.224646799147353454E-16, -0.0000000000000000000, -1.000000000000000000 ) ) ;
#330 = AXIS2_PLACEMENT_3D ( 'NONE', #296, #252, #276 ) ;
#331 = DIRECTION ( 'NONE',  ( 0.0000000000000000000, 0.0000000000000000000, -1.000000000000000000 ) ) ;
#332 = ORIENTED_EDGE ( 'NONE', *, *, #37, .F. ) ;
#333 = UNCERTAINTY_MEASURE_WITH_UNIT (LENGTH_MEASURE( 1.000000000000000082E-05 ), #223, 'distance_accuracy_value', 'NONE');
#334 =( NAMED_UNIT ( * ) SI_UNIT ( $, .STERADIAN. ) SOLID_ANGLE_UNIT ( ) );
#335 = ORIENTED_EDGE ( 'NONE', *, *, #11, .T. ) ;
#336 = CARTESIAN_POINT ( 'NONE',  ( -0.2359842794999999771, 0.0000000000000000000, 0.05905500000000001720 ) ) ;
#337 = DIRECTION ( 'NONE',  ( 0.0000000000000000000, 0.0000000000000000000, 1.000000000000000000 ) ) ;
#338 = DIMENSIONAL_EXPONENTS ( 1.000000000000000000, 0.0000000000000000000, 0.0000000000000000000, 0.0000000000000000000, 0.0000000000000000000, 0.0000000000000000000, 0.0000000000000000000 ) ;
#339 = TOROIDAL_SURFACE ( 'NONE', #186, 0.1769292794999999530, 0.05905500000000000332 ) ;
#340 =( GEOMETRIC_REPRESENTATION_CONTEXT ( 3 ) GLOBAL_UNCERTAINTY_ASSIGNED_CONTEXT ( ( #61 ) ) GLOBAL_UNIT_ASSIGNED_CONTEXT ( ( #209, #289, #48 ) ) REPRESENTATION_CONTEXT ( 'NONE', 'WORKASPACE' ) );
#341 = DIRECTION ( 'NONE',  ( 1.000000000000000000, 0.0000000000000000000, 0.0000000000000000000 ) ) ;
#342 = ORIENTED_EDGE ( 'NONE', *, *, #237, .F. ) ;
#343 = UNCERTAINTY_MEASURE_WITH_UNIT (LENGTH_MEASURE( 1.000000000000000082E-05 ), #191, 'distance_accuracy_value', 'NONE');
#344 = LINE ( 'NONE', #228, #146 ) ;
#345 = CARTESIAN_POINT ( 'NONE',  ( 0.0000000000000000000, 0.0000000000000000000, 3.267717000000000649 ) ) ;
#346 = EDGE_CURVE ( 'NONE', #121, #225, #344, .T. ) ;
#347 = ORIENTED_EDGE ( 'NONE', *, *, #346, .T. ) ;
#348 = AXIS2_PLACEMENT_3D ( 'NONE', #15, #211, #172 ) ;
#349 = CARTESIAN_POINT ( 'NONE',  ( -0.2362204999999998611, 0.0000000000000000000, 1.182441673027071261 ) ) ;
#350 = DIRECTION ( 'NONE',  ( -1.000000000000000000, 0.0000000000000000000, 0.0000000000000000000 ) ) ;
#351 = ADVANCED_FACE ( 'NONE', ( #283 ), #316, .T. ) ;
ENDSEC;
END-ISO-10303-21;
