ISO-10303-21;
HEADER;
FILE_DESCRIPTION (( 'STEP AP214' ),
    '1' );
FILE_NAME ('59771.STEP',
    '2023-07-24T15:36:52',
    ( '' ),
    ( '' ),
    'SwSTEP 2.0',
    'SolidWorks 2023',
    '' );
FILE_SCHEMA (( 'AUTOMOTIVE_DESIGN' ));
ENDSEC;

DATA;
#1 = EDGE_LOOP ( 'NONE', ( #130, #330 ) ) ;
#2 = CIRCLE ( 'NONE', #8, 5.000000000000000000 ) ;
#3 = PRESENTATION_LAYER_ASSIGNMENT (  '', '', ( #124 ) ) ;
#4 = CARTESIAN_POINT ( 'NONE',  ( 0.000000000000000000, 1.000000000000000000, 0.000000000000000000 ) ) ;
#5 = DIRECTION ( 'NONE',  ( -0.000000000000000000, -1.000000000000000000, -0.000000000000000000 ) ) ;
#6 = CARTESIAN_POINT ( 'NONE',  ( 0.000000000000000000, 1.000000000000000000, 0.000000000000000000 ) ) ;
#7 = ORIENTED_EDGE ( 'NONE', *, *, #286, .T. ) ;
#8 = AXIS2_PLACEMENT_3D ( 'NONE', #170, #367, #363 ) ;
#9 = CIRCLE ( 'NONE', #34, 4.999999999999993783 ) ;
#10 = SURFACE_SIDE_STYLE ('',( #323 ) ) ;
#11 = VERTEX_POINT ( 'NONE', #273 ) ;
#12 = SURFACE_STYLE_USAGE ( .BOTH. , #267 ) ;
#13 = VERTEX_POINT ( 'NONE', #207 ) ;
#14 = PRESENTATION_STYLE_ASSIGNMENT (( #165 ) ) ;
#15 =( GEOMETRIC_REPRESENTATION_CONTEXT ( 3 ) GLOBAL_UNCERTAINTY_ASSIGNED_CONTEXT ( ( #281 ) ) GLOBAL_UNIT_ASSIGNED_CONTEXT ( ( #142, #307, #193 ) ) REPRESENTATION_CONTEXT ( 'NONE', 'WORKASPACE' ) );
#16 =( NAMED_UNIT ( * ) PLANE_ANGLE_UNIT ( ) SI_UNIT ( $, .RADIAN. ) );
#17 = MANIFOLD_SOLID_BREP ( 'Revolve - Tool Body (Straight Shanked)', #220 ) ;
#18 = ORIENTED_EDGE ( 'NONE', *, *, #215, .T. ) ;
#19 = SURFACE_STYLE_USAGE ( .BOTH. , #190 ) ;
#20 = MECHANICAL_DESIGN_GEOMETRIC_PRESENTATION_REPRESENTATION (  '', ( #136 ), #238 ) ;
#21 = DIRECTION ( 'NONE',  ( -0.000000000000000000, -1.000000000000000000, -0.000000000000000000 ) ) ;
#22 = FACE_OUTER_BOUND ( 'NONE', #1, .T. ) ;
#23 = PRESENTATION_STYLE_ASSIGNMENT (( #309 ) ) ;
#24 =( LENGTH_UNIT ( ) NAMED_UNIT ( * ) SI_UNIT ( .MILLI., .METRE. ) );
#25 = STYLED_ITEM ( 'NONE', ( #14 ), #326 ) ;
#26 = DIRECTION ( 'NONE',  ( 0.000000000000000000, 0.000000000000000000, 1.000000000000000000 ) ) ;
#27 = DIRECTION ( 'NONE',  ( 0.000000000000000000, 0.000000000000000000, 1.000000000000000000 ) ) ;
#28 =( NAMED_UNIT ( * ) PLANE_ANGLE_UNIT ( ) SI_UNIT ( $, .RADIAN. ) );
#29 = CYLINDRICAL_SURFACE ( 'NONE', #272, 5.000000000000000888 ) ;
#30 = DIRECTION ( 'NONE',  ( 0.000000000000000000, 0.000000000000000000, -1.000000000000000000 ) ) ;
#31 = DIRECTION ( 'NONE',  ( -1.203966067220177465E-16, 1.000000000000000000, -0.000000000000000000 ) ) ;
#32 = SURFACE_STYLE_FILL_AREA ( #329 ) ;
#33 = EDGE_CURVE ( 'NONE', #210, #92, #166, .T. ) ;
#34 = AXIS2_PLACEMENT_3D ( 'NONE', #209, #31, #205 ) ;
#35 =( NAMED_UNIT ( * ) SI_UNIT ( $, .STERADIAN. ) SOLID_ANGLE_UNIT ( ) );
#36 =( LENGTH_UNIT ( ) NAMED_UNIT ( * ) SI_UNIT ( .MILLI., .METRE. ) );
#37 = ORIENTED_EDGE ( 'NONE', *, *, #239, .F. ) ;
#38 = CYLINDRICAL_SURFACE ( 'NONE', #251, 5.000000000000000888 ) ;
#39 = VERTEX_POINT ( 'NONE', #50 ) ;
#40 = EDGE_CURVE ( 'NONE', #235, #210, #139, .T. ) ;
#41 = STYLED_ITEM ( 'NONE', ( #71 ), #17 ) ;
#42 = STYLED_ITEM ( 'NONE', ( #321 ), #333 ) ;
#43 =( NAMED_UNIT ( * ) PLANE_ANGLE_UNIT ( ) SI_UNIT ( $, .RADIAN. ) );
#44 = DIRECTION ( 'NONE',  ( 0.000000000000000000, 0.000000000000000000, -1.000000000000000000 ) ) ;
#45 = DIRECTION ( 'NONE',  ( -1.000000000000000000, 0.000000000000000000, 0.000000000000000000 ) ) ;
#46 = AXIS2_PLACEMENT_3D ( 'NONE', #360, #339, #214 ) ;
#47 = DIRECTION ( 'NONE',  ( 1.203966067220177465E-16, -1.000000000000000000, 0.000000000000000000 ) ) ;
#48 = CIRCLE ( 'NONE', #63, 5.000000000000000888 ) ;
#49 = PRESENTATION_LAYER_ASSIGNMENT (  '', '', ( #348 ) ) ;
#50 = CARTESIAN_POINT ( 'NONE',  ( 0.000000000000000000, 1.000000000000000000, -5.000000000000000888 ) ) ;
#51 = APPLICATION_CONTEXT ( 'automotive_design' ) ;
#52 =( NAMED_UNIT ( * ) PLANE_ANGLE_UNIT ( ) SI_UNIT ( $, .RADIAN. ) );
#53 =( NAMED_UNIT ( * ) SI_UNIT ( $, .STERADIAN. ) SOLID_ANGLE_UNIT ( ) );
#54 = AXIS2_PLACEMENT_3D ( 'NONE', #121, #200, #145 ) ;
#55 =( LENGTH_UNIT ( ) NAMED_UNIT ( * ) SI_UNIT ( .MILLI., .METRE. ) );
#56 = DIRECTION ( 'NONE',  ( -0.000000000000000000, -1.000000000000000000, -0.000000000000000000 ) ) ;
#57 = ORIENTED_EDGE ( 'NONE', *, *, #284, .T. ) ;
#58 =( NAMED_UNIT ( * ) SI_UNIT ( $, .STERADIAN. ) SOLID_ANGLE_UNIT ( ) );
#59 = COLOUR_RGB ( '',1.000000000000000000, 0.000000000000000000, 0.000000000000000000 ) ;
#60 = CARTESIAN_POINT ( 'NONE',  ( 0.000000000000000000, 1.000000000000000000, 0.000000000000000000 ) ) ;
#61 = EDGE_LOOP ( 'NONE', ( #188, #314 ) ) ;
#62 =( LENGTH_UNIT ( ) NAMED_UNIT ( * ) SI_UNIT ( .MILLI., .METRE. ) );
#63 = AXIS2_PLACEMENT_3D ( 'NONE', #60, #180, #30 ) ;
#64 = SURFACE_STYLE_FILL_AREA ( #351 ) ;
#65 = MECHANICAL_DESIGN_GEOMETRIC_PRESENTATION_REPRESENTATION (  '', ( #348 ), #168 ) ;
#66 = DIRECTION ( 'NONE',  ( 1.000000000000000000, 0.000000000000000000, -1.224646799147353207E-16 ) ) ;
#67 = APPLICATION_CONTEXT ( 'automotive_design' ) ;
#68 = PLANE ( 'NONE',  #271 ) ;
#69 = ORIENTED_EDGE ( 'NONE', *, *, #215, .F. ) ;
#70 = EDGE_CURVE ( 'NONE', #11, #235, #2, .T. ) ;
#71 = PRESENTATION_STYLE_ASSIGNMENT (( #322 ) ) ;
#72 =( GEOMETRIC_REPRESENTATION_CONTEXT ( 3 ) GLOBAL_UNCERTAINTY_ASSIGNED_CONTEXT ( ( #120 ) ) GLOBAL_UNIT_ASSIGNED_CONTEXT ( ( #206, #16, #35 ) ) REPRESENTATION_CONTEXT ( 'NONE', 'WORKASPACE' ) );
#73 = TOROIDAL_SURFACE ( 'NONE', #208, 4.000000000000000000, 1.000000000000000444 ) ;
#74 = EDGE_LOOP ( 'NONE', ( #106, #269, #18, #98 ) ) ;
#75 = DIRECTION ( 'NONE',  ( -1.203966067220177465E-16, 1.000000000000000000, -0.000000000000000000 ) ) ;
#76 = DIRECTION ( 'NONE',  ( 0.000000000000000000, 0.000000000000000000, -1.000000000000000000 ) ) ;
#77 = STYLED_ITEM ( 'NONE', ( #217 ), #181 ) ;
#78 = CARTESIAN_POINT ( 'NONE',  ( -4.999999999999976019, 25.00000000000000000, 0.000000000000000000 ) ) ;
#79 = AXIS2_PLACEMENT_3D ( 'NONE', #303, #103, #45 ) ;
#80 = DIRECTION ( 'NONE',  ( 0.000000000000000000, 0.000000000000000000, -1.000000000000000000 ) ) ;
#81 = SURFACE_SIDE_STYLE ('',( #109 ) ) ;
#82 = FACE_OUTER_BOUND ( 'NONE', #183, .T. ) ;
#83 = DIRECTION ( 'NONE',  ( -1.203966067220177465E-16, 1.000000000000000000, -0.000000000000000000 ) ) ;
#84 = CARTESIAN_POINT ( 'NONE',  ( 0.000000000000000000, 0.000000000000000000, 0.000000000000000000 ) ) ;
#85 = CARTESIAN_POINT ( 'NONE',  ( 0.000000000000000000, 1.000000000000000000, -4.000000000000000000 ) ) ;
#86 = COLOUR_RGB ( '',1.000000000000000000, 0.000000000000000000, 0.000000000000000000 ) ;
#87 = AXIS2_PLACEMENT_3D ( 'NONE', #156, #99, #268 ) ;
#88 = SHAPE_DEFINITION_REPRESENTATION ( #315, #236 ) ;
#89 = DIRECTION ( 'NONE',  ( -1.000000000000000000, 0.000000000000000000, 0.000000000000000000 ) ) ;
#90 = DIRECTION ( 'NONE',  ( -0.000000000000000000, -1.000000000000000000, -0.000000000000000000 ) ) ;
#91 = DIRECTION ( 'NONE',  ( 0.000000000000000000, 0.000000000000000000, -1.000000000000000000 ) ) ;
#92 = VERTEX_POINT ( 'NONE', #114 ) ;
#93 = AXIS2_PLACEMENT_3D ( 'NONE', #110, #75, #219 ) ;
#94 =( GEOMETRIC_REPRESENTATION_CONTEXT ( 3 ) GLOBAL_UNCERTAINTY_ASSIGNED_CONTEXT ( ( #295 ) ) GLOBAL_UNIT_ASSIGNED_CONTEXT ( ( #36, #263, #296 ) ) REPRESENTATION_CONTEXT ( 'NONE', 'WORKASPACE' ) );
#95 = FILL_AREA_STYLE_COLOUR ( '', #175 ) ;
#96 = ORIENTED_EDGE ( 'NONE', *, *, #249, .T. ) ;
#97 = PLANE ( 'NONE',  #87 ) ;
#98 = ORIENTED_EDGE ( 'NONE', *, *, #254, .F. ) ;
#99 = DIRECTION ( 'NONE',  ( 0.000000000000000000, 1.000000000000000000, 0.000000000000000000 ) ) ;
#100 = EDGE_LOOP ( 'NONE', ( #185, #144 ) ) ;
#101 = AXIS2_PLACEMENT_3D ( 'NONE', #191, #302, #44 ) ;
#102 =( GEOMETRIC_REPRESENTATION_CONTEXT ( 3 ) GLOBAL_UNCERTAINTY_ASSIGNED_CONTEXT ( ( #253 ) ) GLOBAL_UNIT_ASSIGNED_CONTEXT ( ( #55, #28, #58 ) ) REPRESENTATION_CONTEXT ( 'NONE', 'WORKASPACE' ) );
#103 = DIRECTION ( 'NONE',  ( -1.203966067220177465E-16, 1.000000000000000000, -0.000000000000000000 ) ) ;
#104 = EDGE_LOOP ( 'NONE', ( #127, #204, #211, #262 ) ) ;
#105 = ORIENTED_EDGE ( 'NONE', *, *, #33, .T. ) ;
#106 = ORIENTED_EDGE ( 'NONE', *, *, #33, .F. ) ;
#107 = AXIS2_PLACEMENT_3D ( 'NONE', #313, #56, #146 ) ;
#108 = ADVANCED_FACE ( 'NONE', ( #117 ), #252, .T. ) ;
#109 = SURFACE_STYLE_FILL_AREA ( #137 ) ;
#110 = CARTESIAN_POINT ( 'NONE',  ( 6.123233995736762930E-15, 75.00000000000000000, 0.000000000000000000 ) ) ;
#111 = PRODUCT_DEFINITION_CONTEXT ( 'detailed design', #67, 'design' ) ;
#112 = SURFACE_SIDE_STYLE ('',( #285 ) ) ;
#113 = EDGE_CURVE ( 'NONE', #235, #11, #300, .T. ) ;
#114 = CARTESIAN_POINT ( 'NONE',  ( 5.510910596163089556E-16, 0.000000000000000000, 4.000000000000000000 ) ) ;
#115 = COLOUR_RGB ( '',1.000000000000000000, 0.000000000000000000, 0.000000000000000000 ) ;
#116 =( GEOMETRIC_REPRESENTATION_CONTEXT ( 3 ) GLOBAL_UNCERTAINTY_ASSIGNED_CONTEXT ( ( #246 ) ) GLOBAL_UNIT_ASSIGNED_CONTEXT ( ( #248, #52, #338 ) ) REPRESENTATION_CONTEXT ( 'NONE', 'WORKASPACE' ) );
#117 = FACE_OUTER_BOUND ( 'NONE', #320, .T. ) ;
#118 =( LENGTH_UNIT ( ) NAMED_UNIT ( * ) SI_UNIT ( .MILLI., .METRE. ) );
#119 =( GEOMETRIC_REPRESENTATION_CONTEXT ( 3 ) GLOBAL_UNCERTAINTY_ASSIGNED_CONTEXT ( ( #305 ) ) GLOBAL_UNIT_ASSIGNED_CONTEXT ( ( #172, #226, #53 ) ) REPRESENTATION_CONTEXT ( 'NONE', 'WORKASPACE' ) );
#120 = UNCERTAINTY_MEASURE_WITH_UNIT (LENGTH_MEASURE( 1.000000000000000082E-05 ), #206, 'distance_accuracy_value', 'NONE');
#121 = CARTESIAN_POINT ( 'NONE',  ( 6.123233995736762930E-15, 75.00000000000000000, 0.000000000000000000 ) ) ;
#122 = SURFACE_STYLE_FILL_AREA ( #196 ) ;
#123 = PRESENTATION_LAYER_ASSIGNMENT (  '', '', ( #136 ) ) ;
#124 = STYLED_ITEM ( 'NONE', ( #203 ), #247 ) ;
#125 = SURFACE_SIDE_STYLE ('',( #32 ) ) ;
#126 = PRESENTATION_STYLE_ASSIGNMENT (( #12 ) ) ;
#127 = ORIENTED_EDGE ( 'NONE', *, *, #40, .F. ) ;
#128 = ADVANCED_FACE ( 'NONE', ( #22 ), #192, .F. ) ;
#129 = CYLINDRICAL_SURFACE ( 'NONE', #79, 4.999999999999990230 ) ;
#130 = ORIENTED_EDGE ( 'NONE', *, *, #202, .F. ) ;
#131 = MECHANICAL_DESIGN_GEOMETRIC_PRESENTATION_REPRESENTATION (  '', ( #77 ), #119 ) ;
#132 = PRESENTATION_LAYER_ASSIGNMENT (  '', '', ( #293 ) ) ;
#133 = SURFACE_SIDE_STYLE ('',( #64 ) ) ;
#134 = EDGE_LOOP ( 'NONE', ( #159, #357 ) ) ;
#135 = CARTESIAN_POINT ( 'NONE',  ( 4.898587196589412829E-16, 1.000000000000000000, 4.000000000000000000 ) ) ;
#136 = STYLED_ITEM ( 'NONE', ( #274 ), #162 ) ;
#137 = FILL_AREA_STYLE ('',( #332 ) ) ;
#138 = FILL_AREA_STYLE_COLOUR ( '', #311 ) ;
#139 = LINE ( 'NONE', #241, #250 ) ;
#140 = FILL_AREA_STYLE ('',( #225 ) ) ;
#141 = ADVANCED_FACE ( 'NONE', ( #364 ), #278, .F. ) ;
#142 =( LENGTH_UNIT ( ) NAMED_UNIT ( * ) SI_UNIT ( .MILLI., .METRE. ) );
#143 = SURFACE_SIDE_STYLE ('',( #122 ) ) ;
#144 = ORIENTED_EDGE ( 'NONE', *, *, #254, .T. ) ;
#145 = DIRECTION ( 'NONE',  ( -1.000000000000000000, 0.000000000000000000, 0.000000000000000000 ) ) ;
#146 = DIRECTION ( 'NONE',  ( 0.000000000000000000, 0.000000000000000000, -1.000000000000000000 ) ) ;
#147 = CIRCLE ( 'NONE', #189, 5.000000000000000888 ) ;
#148 = DIRECTION ( 'NONE',  ( 0.000000000000000000, 0.000000000000000000, -1.000000000000000000 ) ) ;
#149 = UNCERTAINTY_MEASURE_WITH_UNIT (LENGTH_MEASURE( 1.000000000000000082E-05 ), #118, 'distance_accuracy_value', 'NONE');
#150 = PRODUCT_RELATED_PRODUCT_CATEGORY ( 'part', '', ( #229 ) ) ;
#151 = FACE_OUTER_BOUND ( 'NONE', #134, .T. ) ;
#152 = VERTEX_POINT ( 'NONE', #78 ) ;
#153 = AXIS2_PLACEMENT_3D ( 'NONE', #334, #304, #243 ) ;
#154 = PRESENTATION_LAYER_ASSIGNMENT (  '', '', ( #25 ) ) ;
#155 = SURFACE_STYLE_FILL_AREA ( #291 ) ;
#156 = CARTESIAN_POINT ( 'NONE',  ( 0.000000000000000000, 25.00000000000000000, 0.000000000000000000 ) ) ;
#157 = ORIENTED_EDGE ( 'NONE', *, *, #184, .F. ) ;
#158 = DIRECTION ( 'NONE',  ( 0.000000000000000000, 0.000000000000000000, -1.000000000000000000 ) ) ;
#159 = ORIENTED_EDGE ( 'NONE', *, *, #70, .F. ) ;
#160 = MECHANICAL_DESIGN_GEOMETRIC_PRESENTATION_REPRESENTATION (  '', ( #124 ), #102 ) ;
#161 = EDGE_LOOP ( 'NONE', ( #7, #105, #157, #69 ) ) ;
#162 = ADVANCED_FACE ( 'NONE', ( #362 ), #257, .T. ) ;
#163 = DIRECTION ( 'NONE',  ( -1.224646799147353454E-16, 0.000000000000000000, -1.000000000000000000 ) ) ;
#164 = CARTESIAN_POINT ( 'NONE',  ( 0.000000000000000000, 0.000000000000000000, 0.000000000000000000 ) ) ;
#165 = SURFACE_STYLE_USAGE ( .BOTH. , #10 ) ;
#166 = CIRCLE ( 'NONE', #228, 1.000000000000000444 ) ;
#167 = AXIS2_PLACEMENT_3D ( 'NONE', #85, #178, #26 ) ;
#168 =( GEOMETRIC_REPRESENTATION_CONTEXT ( 3 ) GLOBAL_UNCERTAINTY_ASSIGNED_CONTEXT ( ( #149 ) ) GLOBAL_UNIT_ASSIGNED_CONTEXT ( ( #118, #370, #310 ) ) REPRESENTATION_CONTEXT ( 'NONE', 'WORKASPACE' ) );
#169 = PRODUCT_DEFINITION_FORMATION_WITH_SPECIFIED_SOURCE ( 'ANY', '', #229, .NOT_KNOWN. ) ;
#170 = CARTESIAN_POINT ( 'NONE',  ( 0.000000000000000000, 25.00000000000000000, 0.000000000000000000 ) ) ;
#171 = DIRECTION ( 'NONE',  ( 0.000000000000000000, -1.000000000000000000, -0.000000000000000000 ) ) ;
#172 =( LENGTH_UNIT ( ) NAMED_UNIT ( * ) SI_UNIT ( .MILLI., .METRE. ) );
#173 = DIRECTION ( 'NONE',  ( -0.000000000000000000, -1.000000000000000000, -0.000000000000000000 ) ) ;
#174 = DIRECTION ( 'NONE',  ( -1.000000000000000000, 0.000000000000000000, 0.000000000000000000 ) ) ;
#175 = COLOUR_RGB ( '',1.000000000000000000, 0.000000000000000000, 0.000000000000000000 ) ;
#176 = CARTESIAN_POINT ( 'NONE',  ( 5.000000000000000888, 75.00000000000000000, 6.123233995736757408E-16 ) ) ;
#177 = CARTESIAN_POINT ( 'NONE',  ( 1.214306433183764966E-14, 25.00000000000000000, 0.000000000000000000 ) ) ;
#178 = DIRECTION ( 'NONE',  ( -1.000000000000000000, 0.000000000000000000, 0.000000000000000000 ) ) ;
#179 = CARTESIAN_POINT ( 'NONE',  ( 4.999999999999996447, 75.00000000000000000, 6.123233995736754449E-16 ) ) ;
#180 = DIRECTION ( 'NONE',  ( -0.000000000000000000, -1.000000000000000000, -0.000000000000000000 ) ) ;
#181 = ADVANCED_FACE ( 'NONE', ( #337 ), #73, .T. ) ;
#182 = FILL_AREA_STYLE_COLOUR ( '', #59 ) ;
#183 = EDGE_LOOP ( 'NONE', ( #297, #352, #290, #187 ) ) ;
#184 = EDGE_CURVE ( 'NONE', #294, #92, #318, .T. ) ;
#185 = ORIENTED_EDGE ( 'NONE', *, *, #184, .T. ) ;
#186 = FACE_OUTER_BOUND ( 'NONE', #104, .T. ) ;
#187 = ORIENTED_EDGE ( 'NONE', *, *, #218, .F. ) ;
#188 = ORIENTED_EDGE ( 'NONE', *, *, #350, .T. ) ;
#189 = AXIS2_PLACEMENT_3D ( 'NONE', #4, #90, #91 ) ;
#190 = SURFACE_SIDE_STYLE ('',( #275 ) ) ;
#191 = CARTESIAN_POINT ( 'NONE',  ( 0.000000000000000000, 1.000000000000000000, 0.000000000000000000 ) ) ;
#192 = PLANE ( 'NONE',  #46 ) ;
#193 =( NAMED_UNIT ( * ) SI_UNIT ( $, .STERADIAN. ) SOLID_ANGLE_UNIT ( ) );
#194 = COLOUR_RGB ( '',1.000000000000000000, 0.000000000000000000, 0.000000000000000000 ) ;
#195 = SURFACE_STYLE_USAGE ( .BOTH. , #81 ) ;
#196 = FILL_AREA_STYLE ('',( #261 ) ) ;
#197 = AXIS2_PLACEMENT_3D ( 'NONE', #223, #47, #308 ) ;
#198 = CARTESIAN_POINT ( 'NONE',  ( -4.999999999999984901, 75.00000000000000000, 0.000000000000000000 ) ) ;
#199 = DIRECTION ( 'NONE',  ( 1.000000000000000000, 0.000000000000000000, 0.000000000000000000 ) ) ;
#200 = DIRECTION ( 'NONE',  ( -1.203966067220177465E-16, 1.000000000000000000, -0.000000000000000000 ) ) ;
#201 = LINE ( 'NONE', #179, #324 ) ;
#202 = EDGE_CURVE ( 'NONE', #152, #237, #276, .T. ) ;
#203 = PRESENTATION_STYLE_ASSIGNMENT (( #231 ) ) ;
#204 = ORIENTED_EDGE ( 'NONE', *, *, #113, .T. ) ;
#205 = DIRECTION ( 'NONE',  ( -1.000000000000000000, 0.000000000000000000, 0.000000000000000000 ) ) ;
#206 =( LENGTH_UNIT ( ) NAMED_UNIT ( * ) SI_UNIT ( .MILLI., .METRE. ) );
#207 = CARTESIAN_POINT ( 'NONE',  ( -4.999999999999987566, 75.00000000000000000, 0.000000000000000000 ) ) ;
#208 = AXIS2_PLACEMENT_3D ( 'NONE', #6, #259, #344 ) ;
#209 = CARTESIAN_POINT ( 'NONE',  ( 6.123233995736762930E-15, 75.00000000000000000, 0.000000000000000000 ) ) ;
#210 = VERTEX_POINT ( 'NONE', #341 ) ;
#211 = ORIENTED_EDGE ( 'NONE', *, *, #218, .T. ) ;
#212 = PRODUCT_DEFINITION ( 'UNKNOWN', '', #169, #111 ) ;
#213 = MECHANICAL_DESIGN_GEOMETRIC_PRESENTATION_REPRESENTATION (  '', ( #25 ), #288 ) ;
#214 = DIRECTION ( 'NONE',  ( -1.000000000000000000, -1.203966067220177465E-16, 0.000000000000000000 ) ) ;
#215 = EDGE_CURVE ( 'NONE', #39, #294, #325, .T. ) ;
#216 = CARTESIAN_POINT ( 'NONE',  ( 0.000000000000000000, 0.000000000000000000, -4.000000000000000000 ) ) ;
#217 = PRESENTATION_STYLE_ASSIGNMENT (( #195 ) ) ;
#218 = EDGE_CURVE ( 'NONE', #11, #39, #316, .T. ) ;
#219 = DIRECTION ( 'NONE',  ( -1.000000000000000000, 0.000000000000000000, 0.000000000000000000 ) ) ;
#220 = CLOSED_SHELL ( 'NONE', ( #336, #128, #108, #141 ) ) ;
#221 = AXIS2_PLACEMENT_3D ( 'NONE', #164, #260, #148 ) ;
#222 = AXIS2_PLACEMENT_3D ( 'NONE', #340, #27, #199 ) ;
#223 = CARTESIAN_POINT ( 'NONE',  ( 5.000000000000000000, 75.00000000000000000, 0.000000000000000000 ) ) ;
#224 = CARTESIAN_POINT ( 'NONE',  ( 0.000000000000000000, 0.000000000000000000, 0.000000000000000000 ) ) ;
#225 = FILL_AREA_STYLE_COLOUR ( '', #86 ) ;
#226 =( NAMED_UNIT ( * ) PLANE_ANGLE_UNIT ( ) SI_UNIT ( $, .RADIAN. ) );
#227 = PRODUCT_CONTEXT ( 'NONE', #51, 'mechanical' ) ;
#228 = AXIS2_PLACEMENT_3D ( 'NONE', #135, #66, #163 ) ;
#229 = PRODUCT ( '59771', '59771', '', ( #227 ) ) ;
#230 = DIRECTION ( 'NONE',  ( -1.203966067220177465E-16, 1.000000000000000000, -0.000000000000000000 ) ) ;
#231 = SURFACE_STYLE_USAGE ( .BOTH. , #143 ) ;
#232 = UNCERTAINTY_MEASURE_WITH_UNIT (LENGTH_MEASURE( 1.000000000000000082E-05 ), #62, 'distance_accuracy_value', 'NONE');
#233 = EDGE_CURVE ( 'NONE', #152, #13, #289, .T. ) ;
#234 = ORIENTED_EDGE ( 'NONE', *, *, #233, .T. ) ;
#235 = VERTEX_POINT ( 'NONE', #345 ) ;
#236 = ADVANCED_BREP_SHAPE_REPRESENTATION ( '59771', ( #247, #17, #222 ), #116 ) ;
#237 = VERTEX_POINT ( 'NONE', #369 ) ;
#238 =( GEOMETRIC_REPRESENTATION_CONTEXT ( 3 ) GLOBAL_UNCERTAINTY_ASSIGNED_CONTEXT ( ( #256 ) ) GLOBAL_UNIT_ASSIGNED_CONTEXT ( ( #24, #43, #280 ) ) REPRESENTATION_CONTEXT ( 'NONE', 'WORKASPACE' ) );
#239 = EDGE_CURVE ( 'NONE', #359, #13, #366, .T. ) ;
#240 = ORIENTED_EDGE ( 'NONE', *, *, #202, .T. ) ;
#241 = CARTESIAN_POINT ( 'NONE',  ( 6.123233995736767268E-16, 0.000000000000000000, 5.000000000000000888 ) ) ;
#242 = SURFACE_STYLE_USAGE ( .BOTH. , #133 ) ;
#243 = DIRECTION ( 'NONE',  ( 0.000000000000000000, 0.000000000000000000, -1.000000000000000000 ) ) ;
#244 = FILL_AREA_STYLE ('',( #279 ) ) ;
#245 = DIRECTION ( 'NONE',  ( -0.000000000000000000, -1.000000000000000000, -0.000000000000000000 ) ) ;
#246 = UNCERTAINTY_MEASURE_WITH_UNIT (LENGTH_MEASURE( 1.000000000000000082E-05 ), #248, 'distance_accuracy_value', 'NONE');
#247 = MANIFOLD_SOLID_BREP ( 'Revolve - Cutting Edge', #292 ) ;
#248 =( LENGTH_UNIT ( ) NAMED_UNIT ( * ) SI_UNIT ( .MILLI., .METRE. ) );
#249 = EDGE_CURVE ( 'NONE', #237, #152, #346, .T. ) ;
#250 = VECTOR ( 'NONE', #245, 1000.000000000000000 ) ;
#251 = AXIS2_PLACEMENT_3D ( 'NONE', #347, #21, #158 ) ;
#252 = CYLINDRICAL_SURFACE ( 'NONE', #93, 4.999999999999990230 ) ;
#253 = UNCERTAINTY_MEASURE_WITH_UNIT (LENGTH_MEASURE( 1.000000000000000082E-05 ), #55, 'distance_accuracy_value', 'NONE');
#254 = EDGE_CURVE ( 'NONE', #92, #294, #306, .T. ) ;
#255 = CARTESIAN_POINT ( 'NONE',  ( 0.000000000000000000, 0.000000000000000000, -5.000000000000000888 ) ) ;
#256 = UNCERTAINTY_MEASURE_WITH_UNIT (LENGTH_MEASURE( 1.000000000000000082E-05 ), #24, 'distance_accuracy_value', 'NONE');
#257 = TOROIDAL_SURFACE ( 'NONE', #101, 4.000000000000000000, 1.000000000000000444 ) ;
#258 = VECTOR ( 'NONE', #5, 1000.000000000000000 ) ;
#259 = DIRECTION ( 'NONE',  ( -0.000000000000000000, -1.000000000000000000, -0.000000000000000000 ) ) ;
#260 = DIRECTION ( 'NONE',  ( -0.000000000000000000, -1.000000000000000000, -0.000000000000000000 ) ) ;
#261 = FILL_AREA_STYLE_COLOUR ( '', #301 ) ;
#262 = ORIENTED_EDGE ( 'NONE', *, *, #270, .F. ) ;
#263 =( NAMED_UNIT ( * ) PLANE_ANGLE_UNIT ( ) SI_UNIT ( $, .RADIAN. ) );
#264 = MECHANICAL_DESIGN_GEOMETRIC_PRESENTATION_REPRESENTATION (  '', ( #41 ), #72 ) ;
#265 = AXIS2_PLACEMENT_3D ( 'NONE', #177, #283, #174 ) ;
#266 = EDGE_LOOP ( 'NONE', ( #240, #57, #356, #328 ) ) ;
#267 = SURFACE_SIDE_STYLE ('',( #155 ) ) ;
#268 = DIRECTION ( 'NONE',  ( 0.000000000000000000, -0.000000000000000000, 1.000000000000000000 ) ) ;
#269 = ORIENTED_EDGE ( 'NONE', *, *, #270, .T. ) ;
#270 = EDGE_CURVE ( 'NONE', #210, #39, #147, .T. ) ;
#271 = AXIS2_PLACEMENT_3D ( 'NONE', #84, #171, #76 ) ;
#272 = AXIS2_PLACEMENT_3D ( 'NONE', #224, #173, #80 ) ;
#273 = CARTESIAN_POINT ( 'NONE',  ( 0.000000000000000000, 25.00000000000000000, -5.000000000000000000 ) ) ;
#274 = PRESENTATION_STYLE_ASSIGNMENT (( #19 ) ) ;
#275 = SURFACE_STYLE_FILL_AREA ( #140 ) ;
#276 = CIRCLE ( 'NONE', #265, 4.999999999999987566 ) ;
#277 =( NAMED_UNIT ( * ) PLANE_ANGLE_UNIT ( ) SI_UNIT ( $, .RADIAN. ) );
#278 = PLANE ( 'NONE',  #197 ) ;
#279 = FILL_AREA_STYLE_COLOUR ( '', #115 ) ;
#280 =( NAMED_UNIT ( * ) SI_UNIT ( $, .STERADIAN. ) SOLID_ANGLE_UNIT ( ) );
#281 = UNCERTAINTY_MEASURE_WITH_UNIT (LENGTH_MEASURE( 1.000000000000000082E-05 ), #142, 'distance_accuracy_value', 'NONE');
#282 = AXIS2_PLACEMENT_3D ( 'NONE', #312, #230, #89 ) ;
#283 = DIRECTION ( 'NONE',  ( -1.203966067220177465E-16, 1.000000000000000000, -0.000000000000000000 ) ) ;
#284 = EDGE_CURVE ( 'NONE', #237, #359, #201, .T. ) ;
#285 = SURFACE_STYLE_FILL_AREA ( #244 ) ;
#286 = EDGE_CURVE ( 'NONE', #39, #210, #48, .T. ) ;
#287 = PRESENTATION_LAYER_ASSIGNMENT (  '', '', ( #77 ) ) ;
#288 =( GEOMETRIC_REPRESENTATION_CONTEXT ( 3 ) GLOBAL_UNCERTAINTY_ASSIGNED_CONTEXT ( ( #232 ) ) GLOBAL_UNIT_ASSIGNED_CONTEXT ( ( #62, #277, #331 ) ) REPRESENTATION_CONTEXT ( 'NONE', 'WORKASPACE' ) );
#289 = LINE ( 'NONE', #198, #343 ) ;
#290 = ORIENTED_EDGE ( 'NONE', *, *, #286, .F. ) ;
#291 = FILL_AREA_STYLE ('',( #182 ) ) ;
#292 = CLOSED_SHELL ( 'NONE', ( #358, #162, #353, #181, #326, #333 ) ) ;
#293 = STYLED_ITEM ( 'NONE', ( #126 ), #353 ) ;
#294 = VERTEX_POINT ( 'NONE', #216 ) ;
#295 = UNCERTAINTY_MEASURE_WITH_UNIT (LENGTH_MEASURE( 1.000000000000000082E-05 ), #36, 'distance_accuracy_value', 'NONE');
#296 =( NAMED_UNIT ( * ) SI_UNIT ( $, .STERADIAN. ) SOLID_ANGLE_UNIT ( ) );
#297 = ORIENTED_EDGE ( 'NONE', *, *, #70, .T. ) ;
#298 = FILL_AREA_STYLE ('',( #138 ) ) ;
#299 = ORIENTED_EDGE ( 'NONE', *, *, #284, .F. ) ;
#300 = CIRCLE ( 'NONE', #153, 5.000000000000000000 ) ;
#301 = COLOUR_RGB ( '',0.7921568627450980005, 0.8196078431372548767, 0.9333333333333333481 ) ;
#302 = DIRECTION ( 'NONE',  ( -0.000000000000000000, -1.000000000000000000, -0.000000000000000000 ) ) ;
#303 = CARTESIAN_POINT ( 'NONE',  ( 6.123233995736762930E-15, 75.00000000000000000, 0.000000000000000000 ) ) ;
#304 = DIRECTION ( 'NONE',  ( -0.000000000000000000, -1.000000000000000000, -0.000000000000000000 ) ) ;
#305 = UNCERTAINTY_MEASURE_WITH_UNIT (LENGTH_MEASURE( 1.000000000000000082E-05 ), #172, 'distance_accuracy_value', 'NONE');
#306 = CIRCLE ( 'NONE', #107, 4.000000000000000000 ) ;
#307 =( NAMED_UNIT ( * ) PLANE_ANGLE_UNIT ( ) SI_UNIT ( $, .RADIAN. ) );
#308 = DIRECTION ( 'NONE',  ( 1.000000000000000000, 1.203966067220177465E-16, 0.000000000000000000 ) ) ;
#309 = SURFACE_STYLE_USAGE ( .BOTH. , #112 ) ;
#310 =( NAMED_UNIT ( * ) SI_UNIT ( $, .STERADIAN. ) SOLID_ANGLE_UNIT ( ) );
#311 = COLOUR_RGB ( '',1.000000000000000000, 0.000000000000000000, 0.000000000000000000 ) ;
#312 = CARTESIAN_POINT ( 'NONE',  ( 1.214306433183764966E-14, 25.00000000000000000, 0.000000000000000000 ) ) ;
#313 = CARTESIAN_POINT ( 'NONE',  ( 0.000000000000000000, 0.000000000000000000, 0.000000000000000000 ) ) ;
#314 = ORIENTED_EDGE ( 'NONE', *, *, #239, .T. ) ;
#315 = PRODUCT_DEFINITION_SHAPE ( 'NONE', 'NONE',  #212 ) ;
#316 = LINE ( 'NONE', #255, #258 ) ;
#317 = COLOUR_RGB ( '',0.7921568627450980005, 0.8196078431372548767, 0.9333333333333333481 ) ;
#318 = CIRCLE ( 'NONE', #221, 4.000000000000000000 ) ;
#319 = DIRECTION ( 'NONE',  ( -1.203966067220177465E-16, 1.000000000000000000, -0.000000000000000000 ) ) ;
#320 = EDGE_LOOP ( 'NONE', ( #299, #96, #234, #37 ) ) ;
#321 = PRESENTATION_STYLE_ASSIGNMENT (( #242 ) ) ;
#322 = SURFACE_STYLE_USAGE ( .BOTH. , #125 ) ;
#323 = SURFACE_STYLE_FILL_AREA ( #298 ) ;
#324 = VECTOR ( 'NONE', #319, 1000.000000000000000 ) ;
#325 = CIRCLE ( 'NONE', #167, 1.000000000000000444 ) ;
#326 = ADVANCED_FACE ( 'NONE', ( #186 ), #38, .T. ) ;
#327 = FACE_OUTER_BOUND ( 'NONE', #100, .T. ) ;
#328 = ORIENTED_EDGE ( 'NONE', *, *, #233, .F. ) ;
#329 = FILL_AREA_STYLE ('',( #349 ) ) ;
#330 = ORIENTED_EDGE ( 'NONE', *, *, #249, .F. ) ;
#331 =( NAMED_UNIT ( * ) SI_UNIT ( $, .STERADIAN. ) SOLID_ANGLE_UNIT ( ) );
#332 = FILL_AREA_STYLE_COLOUR ( '', #194 ) ;
#333 = ADVANCED_FACE ( 'NONE', ( #151 ), #97, .T. ) ;
#334 = CARTESIAN_POINT ( 'NONE',  ( 0.000000000000000000, 25.00000000000000000, 0.000000000000000000 ) ) ;
#335 = MECHANICAL_DESIGN_GEOMETRIC_PRESENTATION_REPRESENTATION (  '', ( #293 ), #15 ) ;
#336 = ADVANCED_FACE ( 'NONE', ( #354 ), #129, .T. ) ;
#337 = FACE_OUTER_BOUND ( 'NONE', #74, .T. ) ;
#338 =( NAMED_UNIT ( * ) SI_UNIT ( $, .STERADIAN. ) SOLID_ANGLE_UNIT ( ) );
#339 = DIRECTION ( 'NONE',  ( -1.203966067220177465E-16, 1.000000000000000000, 0.000000000000000000 ) ) ;
#340 = CARTESIAN_POINT ( 'NONE',  ( 0.000000000000000000, 0.000000000000000000, 0.000000000000000000 ) ) ;
#341 = CARTESIAN_POINT ( 'NONE',  ( 6.123233995736766282E-16, 1.000000000000000000, 5.000000000000000888 ) ) ;
#342 = APPLICATION_PROTOCOL_DEFINITION ( 'draft international standard', 'automotive_design', 1998, #67 ) ;
#343 = VECTOR ( 'NONE', #83, 1000.000000000000000 ) ;
#344 = DIRECTION ( 'NONE',  ( 0.000000000000000000, 0.000000000000000000, -1.000000000000000000 ) ) ;
#345 = CARTESIAN_POINT ( 'NONE',  ( 6.123233995736766282E-16, 25.00000000000000000, 5.000000000000000000 ) ) ;
#346 = CIRCLE ( 'NONE', #282, 4.999999999999987566 ) ;
#347 = CARTESIAN_POINT ( 'NONE',  ( 0.000000000000000000, 0.000000000000000000, 0.000000000000000000 ) ) ;
#348 = STYLED_ITEM ( 'NONE', ( #23 ), #358 ) ;
#349 = FILL_AREA_STYLE_COLOUR ( '', #317 ) ;
#350 = EDGE_CURVE ( 'NONE', #13, #359, #9, .T. ) ;
#351 = FILL_AREA_STYLE ('',( #95 ) ) ;
#352 = ORIENTED_EDGE ( 'NONE', *, *, #40, .T. ) ;
#353 = ADVANCED_FACE ( 'NONE', ( #327 ), #68, .T. ) ;
#354 = FACE_OUTER_BOUND ( 'NONE', #266, .T. ) ;
#355 = MECHANICAL_DESIGN_GEOMETRIC_PRESENTATION_REPRESENTATION (  '', ( #42 ), #94 ) ;
#356 = ORIENTED_EDGE ( 'NONE', *, *, #350, .F. ) ;
#357 = ORIENTED_EDGE ( 'NONE', *, *, #113, .F. ) ;
#358 = ADVANCED_FACE ( 'NONE', ( #82 ), #29, .T. ) ;
#359 = VERTEX_POINT ( 'NONE', #176 ) ;
#360 = CARTESIAN_POINT ( 'NONE',  ( 1.214306433183764966E-14, 25.00000000000000000, 0.000000000000000000 ) ) ;
#361 = PRESENTATION_LAYER_ASSIGNMENT (  '', '', ( #42 ) ) ;
#362 = FACE_OUTER_BOUND ( 'NONE', #161, .T. ) ;
#363 = DIRECTION ( 'NONE',  ( 0.000000000000000000, 0.000000000000000000, -1.000000000000000000 ) ) ;
#364 = FACE_OUTER_BOUND ( 'NONE', #61, .T. ) ;
#365 = PRESENTATION_LAYER_ASSIGNMENT (  '', '', ( #41 ) ) ;
#366 = CIRCLE ( 'NONE', #54, 4.999999999999993783 ) ;
#367 = DIRECTION ( 'NONE',  ( -0.000000000000000000, -1.000000000000000000, -0.000000000000000000 ) ) ;
#368 = APPLICATION_PROTOCOL_DEFINITION ( 'draft international standard', 'automotive_design', 1998, #51 ) ;
#369 = CARTESIAN_POINT ( 'NONE',  ( 5.000000000000000888, 25.00000000000000000, 6.123233995736757408E-16 ) ) ;
#370 =( NAMED_UNIT ( * ) PLANE_ANGLE_UNIT ( ) SI_UNIT ( $, .RADIAN. ) );
ENDSEC;
END-ISO-10303-21;
