ISO-10303-21;
HEADER;
FILE_DESCRIPTION (( 'STEP AP214' ),
    '1' );
FILE_NAME ('Micro_EMS-500-4X.STEP',
    '2021-09-01T18:02:36',
    ( '' ),
    ( '' ),
    'SwSTEP 2.0',
    'SolidWorks 2020',
    '' );
FILE_SCHEMA (( 'AUTOMOTIVE_DESIGN' ));
ENDSEC;

DATA;
#1 = STYLED_ITEM ( 'NONE', ( #19 ), #290 ) ;
#2 = PRODUCT ( 'Micro_EMS-500-4X', 'Micro_EMS-500-4X', '', ( #235 ) ) ;
#3 = FACE_OUTER_BOUND ( 'NONE', #259, .T. ) ;
#4 = DIRECTION ( 'NONE',  ( -0.0000000000000000000, -0.0000000000000000000, -1.000000000000000000 ) ) ;
#5 = CIRCLE ( 'NONE', #242, 0.2497499999999999998 ) ;
#6 = UNCERTAINTY_MEASURE_WITH_UNIT (LENGTH_MEASURE( 1.000000000000000082E-05 ), #282, 'distance_accuracy_value', 'NONE');
#7 = ORIENTED_EDGE ( 'NONE', *, *, #276, .F. ) ;
#8 = DIRECTION ( 'NONE',  ( 1.000000000000000000, 0.0000000000000000000, -0.0000000000000000000 ) ) ;
#9 = EDGE_CURVE ( 'NONE', #256, #67, #140, .T. ) ;
#10 = LENGTH_MEASURE_WITH_UNIT ( LENGTH_MEASURE( 0.02539999999999999897 ), #124 );
#11 = CARTESIAN_POINT ( 'NONE',  ( 0.0000000000000000000, 0.0000000000000000000, 3.000000000000000444 ) ) ;
#12 = CARTESIAN_POINT ( 'NONE',  ( 3.745650057197990990E-33, 0.0000000000000000000, 3.058555380870515566E-17 ) ) ;
#13 = DIRECTION ( 'NONE',  ( -0.0000000000000000000, -0.0000000000000000000, -1.000000000000000000 ) ) ;
#14 =( GEOMETRIC_REPRESENTATION_CONTEXT ( 3 ) GLOBAL_UNCERTAINTY_ASSIGNED_CONTEXT ( ( #188 ) ) GLOBAL_UNIT_ASSIGNED_CONTEXT ( ( #95, #189, #211 ) ) REPRESENTATION_CONTEXT ( 'NONE', 'WORKASPACE' ) );
#15 = COLOUR_RGB ( '',0.7921568627450980005, 0.8196078431372548767, 0.9333333333333333481 ) ;
#16 = CARTESIAN_POINT ( 'NONE',  ( 0.0000000000000000000, 0.0000000000000000000, 0.0000000000000000000 ) ) ;
#17 = CYLINDRICAL_SURFACE ( 'NONE', #270, 0.2500000000000000000 ) ;
#18 = ADVANCED_FACE ( 'NONE', ( #239 ), #92, .F. ) ;
#19 = PRESENTATION_STYLE_ASSIGNMENT (( #226 ) ) ;
#20 = AXIS2_PLACEMENT_3D ( 'NONE', #221, #205, #208 ) ;
#21 = DIRECTION ( 'NONE',  ( -1.224646799147353454E-16, -0.0000000000000000000, -1.000000000000000000 ) ) ;
#22 = DIMENSIONAL_EXPONENTS ( 1.000000000000000000, 0.0000000000000000000, 0.0000000000000000000, 0.0000000000000000000, 0.0000000000000000000, 0.0000000000000000000, 0.0000000000000000000 ) ;
#23 = APPLICATION_PROTOCOL_DEFINITION ( 'draft international standard', 'automotive_design', 1998, #118 ) ;
#24 = ORIENTED_EDGE ( 'NONE', *, *, #50, .F. ) ;
#25 = VECTOR ( 'NONE', #168, 39.37007874015748143 ) ;
#26 = ORIENTED_EDGE ( 'NONE', *, *, #57, .T. ) ;
#27 = FILL_AREA_STYLE ('',( #72 ) ) ;
#28 = CARTESIAN_POINT ( 'NONE',  ( 0.0000000000000000000, 0.0000000000000000000, 3.000000000000000444 ) ) ;
#29 = CARTESIAN_POINT ( 'NONE',  ( 1.224646799147353454E-16, 0.0000000000000000000, 1.000000000000000000 ) ) ;
#30 = PRODUCT_DEFINITION_CONTEXT ( 'detailed design', #118, 'design' ) ;
#31 = CARTESIAN_POINT ( 'NONE',  ( 0.0000000000000000000, 0.0000000000000000000, 3.000000000000000444 ) ) ;
#32 = DIRECTION ( 'NONE',  ( -1.000000000000000000, 0.0000000000000000000, 0.0000000000000000000 ) ) ;
#33 = FACE_OUTER_BOUND ( 'NONE', #134, .T. ) ;
#34 = CONICAL_SURFACE ( 'NONE', #264, 0.2350000000000011524, 0.7853981633974380649 ) ;
#35 = DIRECTION ( 'NONE',  ( -1.000000000000000000, 0.0000000000000000000, 1.224646799147353700E-16 ) ) ;
#36 = FILL_AREA_STYLE ('',( #40 ) ) ;
#37 = DIRECTION ( 'NONE',  ( 1.000000000000000000, 0.0000000000000000000, 0.0000000000000000000 ) ) ;
#38 = VECTOR ( 'NONE', #214, 39.37007874015747433 ) ;
#39 = MECHANICAL_DESIGN_GEOMETRIC_PRESENTATION_REPRESENTATION (  '', ( #1 ), #137 ) ;
#40 = FILL_AREA_STYLE_COLOUR ( '', #231 ) ;
#41 = VERTEX_POINT ( 'NONE', #191 ) ;
#42 = LENGTH_MEASURE_WITH_UNIT ( LENGTH_MEASURE( 0.02539999999999999897 ), #279 );
#43 = VERTEX_POINT ( 'NONE', #74 ) ;
#44 = DIMENSIONAL_EXPONENTS ( 1.000000000000000000, 0.0000000000000000000, 0.0000000000000000000, 0.0000000000000000000, 0.0000000000000000000, 0.0000000000000000000, 0.0000000000000000000 ) ;
#45 = ORIENTED_EDGE ( 'NONE', *, *, #244, .F. ) ;
#46 = ADVANCED_FACE ( 'NONE', ( #163 ), #156, .T. ) ;
#47 = PRESENTATION_STYLE_ASSIGNMENT (( #240 ) ) ;
#48 = ORIENTED_EDGE ( 'NONE', *, *, #149, .F. ) ;
#49 = CONICAL_SURFACE ( 'NONE', #106, 0.2497499999999999998, 0.1745329251994339192 ) ;
#50 = EDGE_CURVE ( 'NONE', #285, #67, #210, .T. ) ;
#51 = DIRECTION ( 'NONE',  ( -1.224646799147353454E-16, -0.0000000000000000000, -1.000000000000000000 ) ) ;
#52 = EDGE_LOOP ( 'NONE', ( #159, #232, #167, #45 ) ) ;
#53 = MANIFOLD_SOLID_BREP ( 'Cut-Revolve1', #76 ) ;
#54 = DIRECTION ( 'NONE',  ( 0.0000000000000000000, 0.0000000000000000000, 1.000000000000000000 ) ) ;
#55 =( GEOMETRIC_REPRESENTATION_CONTEXT ( 3 ) GLOBAL_UNCERTAINTY_ASSIGNED_CONTEXT ( ( #6 ) ) GLOBAL_UNIT_ASSIGNED_CONTEXT ( ( #282, #155, #251 ) ) REPRESENTATION_CONTEXT ( 'NONE', 'WORKASPACE' ) );
#56 = CARTESIAN_POINT ( 'NONE',  ( 0.0000000000000000000, 0.0000000000000000000, 3.000000000000000444 ) ) ;
#57 = EDGE_CURVE ( 'NONE', #275, #43, #132, .T. ) ;
#58 = PLANE ( 'NONE',  #236 ) ;
#59 = CYLINDRICAL_SURFACE ( 'NONE', #170, 0.2500000000000000000 ) ;
#60 = DIRECTION ( 'NONE',  ( -1.224646799147353454E-16, -0.0000000000000000000, -1.000000000000000000 ) ) ;
#61 = PRODUCT_DEFINITION ( 'UNKNOWN', '', #260, #30 ) ;
#62 = CIRCLE ( 'NONE', #94, 0.2500000000000000000 ) ;
#63 = DIRECTION ( 'NONE',  ( -1.000000000000000000, 0.0000000000000000000, 0.0000000000000000000 ) ) ;
#64 = CARTESIAN_POINT ( 'NONE',  ( -0.2499999999999998612, 0.0000000000000000000, 1.001417820454904462 ) ) ;
#65 = LENGTH_MEASURE_WITH_UNIT ( LENGTH_MEASURE( 0.02539999999999999897 ), #277 );
#66 = AXIS2_PLACEMENT_3D ( 'NONE', #250, #269, #272 ) ;
#67 = VERTEX_POINT ( 'NONE', #75 ) ;
#68 = EDGE_CURVE ( 'NONE', #164, #262, #79, .T. ) ;
#69 = CIRCLE ( 'NONE', #66, 0.2500000000000000000 ) ;
#70 = VECTOR ( 'NONE', #201, 39.37007874015748143 ) ;
#71 = CARTESIAN_POINT ( 'NONE',  ( 0.0000000000000000000, 0.0000000000000000000, 0.0000000000000000000 ) ) ;
#72 = FILL_AREA_STYLE_COLOUR ( '', #15 ) ;
#73 = ORIENTED_EDGE ( 'NONE', *, *, #281, .F. ) ;
#74 = CARTESIAN_POINT ( 'NONE',  ( 0.2497499999999999998, 3.058555380870514950E-17, 0.0000000000000000000 ) ) ;
#75 = CARTESIAN_POINT ( 'NONE',  ( 0.2500000000000001110, 3.061616997868383634E-17, 1.001417820454904462 ) ) ;
#76 = CLOSED_SHELL ( 'NONE', ( #225, #284, #293, #192, #209, #166, #46, #258, #116, #18 ) ) ;
#77 = CYLINDRICAL_SURFACE ( 'NONE', #100, 0.2497499999999999998 ) ;
#78 = STYLED_ITEM ( 'NONE', ( #47 ), #53 ) ;
#79 = LINE ( 'NONE', #82, #25 ) ;
#80 = DIRECTION ( 'NONE',  ( -1.000000000000000000, 0.0000000000000000000, 0.0000000000000000000 ) ) ;
#81 = EDGE_CURVE ( 'NONE', #41, #206, #83, .T. ) ;
#82 = CARTESIAN_POINT ( 'NONE',  ( -0.2497499999999999998, 0.0000000000000000000, 3.058555380870515566E-17 ) ) ;
#83 = LINE ( 'NONE', #199, #202 ) ;
#84 = AXIS2_PLACEMENT_3D ( 'NONE', #71, #162, #143 ) ;
#85 = ORIENTED_EDGE ( 'NONE', *, *, #68, .F. ) ;
#86 = DIRECTION ( 'NONE',  ( 0.0000000000000000000, 0.0000000000000000000, -1.000000000000000000 ) ) ;
#87 = EDGE_LOOP ( 'NONE', ( #193, #263 ) ) ;
#88 = SURFACE_STYLE_FILL_AREA ( #36 ) ;
#89 = ORIENTED_EDGE ( 'NONE', *, *, #81, .F. ) ;
#90 = AXIS2_PLACEMENT_3D ( 'NONE', #16, #60, #35 ) ;
#91 = CARTESIAN_POINT ( 'NONE',  ( 0.2350000000000011524, 2.969768487932338510E-17, 3.000000000000000444 ) ) ;
#92 = PLANE ( 'NONE',  #222 ) ;
#93 = UNCERTAINTY_MEASURE_WITH_UNIT (LENGTH_MEASURE( 1.000000000000000082E-05 ), #160, 'distance_accuracy_value', 'NONE');
#94 = AXIS2_PLACEMENT_3D ( 'NONE', #252, #230, #37 ) ;
#95 =( CONVERSION_BASED_UNIT ( 'INCH', #10 ) LENGTH_UNIT ( ) NAMED_UNIT ( #44 ) );
#96 = CARTESIAN_POINT ( 'NONE',  ( 0.2500000000000000000, 3.061616997868382402E-17, 3.000000000000000444 ) ) ;
#97 = EDGE_CURVE ( 'NONE', #164, #285, #246, .T. ) ;
#98 = SHAPE_DEFINITION_REPRESENTATION ( #227, #290 ) ;
#99 = EDGE_LOOP ( 'NONE', ( #136, #73, #186, #179 ) ) ;
#100 = AXIS2_PLACEMENT_3D ( 'NONE', #196, #173, #245 ) ;
#101 = PRESENTATION_LAYER_ASSIGNMENT (  '', '', ( #1 ) ) ;
#102 = ORIENTED_EDGE ( 'NONE', *, *, #253, .T. ) ;
#103 = DIRECTION ( 'NONE',  ( 1.000000000000000000, 0.0000000000000000000, 0.0000000000000000000 ) ) ;
#104 = LINE ( 'NONE', #150, #203 ) ;
#105 = CIRCLE ( 'NONE', #278, 0.2497499999999999998 ) ;
#106 = AXIS2_PLACEMENT_3D ( 'NONE', #154, #158, #135 ) ;
#107 = DIRECTION ( 'NONE',  ( -1.224646799147353454E-16, -0.0000000000000000000, -1.000000000000000000 ) ) ;
#108 = LINE ( 'NONE', #127, #70 ) ;
#109 = CARTESIAN_POINT ( 'NONE',  ( 0.2500000000000000000, 3.061616997868382402E-17, 2.985000000000001208 ) ) ;
#110 = ORIENTED_EDGE ( 'NONE', *, *, #149, .T. ) ;
#111 = CARTESIAN_POINT ( 'NONE',  ( 1.224646799147353454E-16, 0.0000000000000000000, 1.000000000000000000 ) ) ;
#112 = ORIENTED_EDGE ( 'NONE', *, *, #219, .T. ) ;
#113 = APPLICATION_PROTOCOL_DEFINITION ( 'draft international standard', 'automotive_design', 1998, #180 ) ;
#114 = ORIENTED_EDGE ( 'NONE', *, *, #281, .T. ) ;
#115 = CARTESIAN_POINT ( 'NONE',  ( 0.0000000000000000000, 0.0000000000000000000, 3.000000000000000444 ) ) ;
#116 = ADVANCED_FACE ( 'NONE', ( #129 ), #77, .T. ) ;
#117 = DIRECTION ( 'NONE',  ( -1.000000000000000000, 0.0000000000000000000, 0.0000000000000000000 ) ) ;
#118 = APPLICATION_CONTEXT ( 'automotive_design' ) ;
#119 = ORIENTED_EDGE ( 'NONE', *, *, #287, .F. ) ;
#120 = CIRCLE ( 'NONE', #130, 0.2500000000000000000 ) ;
#121 = EDGE_LOOP ( 'NONE', ( #261, #114, #157, #138 ) ) ;
#122 = ORIENTED_EDGE ( 'NONE', *, *, #177, .F. ) ;
#123 = VECTOR ( 'NONE', #4, 39.37007874015748143 ) ;
#124 =( LENGTH_UNIT ( ) NAMED_UNIT ( * ) SI_UNIT ( $, .METRE. ) );
#125 = AXIS2_PLACEMENT_3D ( 'NONE', #28, #268, #286 ) ;
#126 = VECTOR ( 'NONE', #220, 39.37007874015748854 ) ;
#127 = CARTESIAN_POINT ( 'NONE',  ( 0.2497500000000001386, 0.0000000000000000000, 1.000000000000000000 ) ) ;
#128 = CARTESIAN_POINT ( 'NONE',  ( 0.0000000000000000000, 0.0000000000000000000, 3.000000000000000444 ) ) ;
#129 = FACE_OUTER_BOUND ( 'NONE', #121, .T. ) ;
#130 = AXIS2_PLACEMENT_3D ( 'NONE', #299, #224, #204 ) ;
#131 = DIRECTION ( 'NONE',  ( -0.0000000000000000000, -0.0000000000000000000, -1.000000000000000000 ) ) ;
#132 = LINE ( 'NONE', #148, #229 ) ;
#133 = AXIS2_PLACEMENT_3D ( 'NONE', #295, #241, #103 ) ;
#134 = EDGE_LOOP ( 'NONE', ( #228, #26, #119, #85 ) ) ;
#135 = DIRECTION ( 'NONE',  ( 1.000000000000000000, 0.0000000000000000000, 0.0000000000000000000 ) ) ;
#136 = ORIENTED_EDGE ( 'NONE', *, *, #97, .F. ) ;
#137 =( GEOMETRIC_REPRESENTATION_CONTEXT ( 3 ) GLOBAL_UNCERTAINTY_ASSIGNED_CONTEXT ( ( #93 ) ) GLOBAL_UNIT_ASSIGNED_CONTEXT ( ( #160, #238, #266 ) ) REPRESENTATION_CONTEXT ( 'NONE', 'WORKASPACE' ) );
#138 = ORIENTED_EDGE ( 'NONE', *, *, #172, .F. ) ;
#139 = EDGE_LOOP ( 'NONE', ( #102, #161 ) ) ;
#140 = LINE ( 'NONE', #96, #123 ) ;
#141 = PRESENTATION_LAYER_ASSIGNMENT (  '', '', ( #78 ) ) ;
#142 = SURFACE_SIDE_STYLE ('',( #265 ) ) ;
#143 = DIRECTION ( 'NONE',  ( 1.000000000000000000, 0.0000000000000000000, 0.0000000000000000000 ) ) ;
#144 = CARTESIAN_POINT ( 'NONE',  ( 1.226383128429217700E-16, 0.0000000000000000000, 1.001417820454904462 ) ) ;
#145 = FACE_OUTER_BOUND ( 'NONE', #283, .T. ) ;
#146 = CIRCLE ( 'NONE', #190, 0.2497499999999999998 ) ;
#147 = DIRECTION ( 'NONE',  ( -1.000000000000000000, 0.0000000000000000000, 0.0000000000000000000 ) ) ;
#148 = CARTESIAN_POINT ( 'NONE',  ( 0.2497499999999999998, 3.058555380870514950E-17, -3.058555380870515566E-17 ) ) ;
#149 = EDGE_CURVE ( 'NONE', #206, #256, #69, .T. ) ;
#150 = CARTESIAN_POINT ( 'NONE',  ( -0.2500000000000000000, 0.0000000000000000000, 3.000000000000000444 ) ) ;
#151 = DIRECTION ( 'NONE',  ( 0.0000000000000000000, 0.0000000000000000000, 1.000000000000000000 ) ) ;
#152 = FACE_OUTER_BOUND ( 'NONE', #99, .T. ) ;
#153 = EDGE_CURVE ( 'NONE', #164, #275, #5, .T. ) ;
#154 = CARTESIAN_POINT ( 'NONE',  ( 1.224646799147353454E-16, 0.0000000000000000000, 1.000000000000000000 ) ) ;
#155 =( NAMED_UNIT ( * ) PLANE_ANGLE_UNIT ( ) SI_UNIT ( $, .RADIAN. ) );
#156 = CONICAL_SURFACE ( 'NONE', #125, 0.2350000000000011524, 0.7853981633974380649 ) ;
#157 = ORIENTED_EDGE ( 'NONE', *, *, #68, .T. ) ;
#158 = DIRECTION ( 'NONE',  ( 1.224646799147353454E-16, 0.0000000000000000000, 1.000000000000000000 ) ) ;
#159 = ORIENTED_EDGE ( 'NONE', *, *, #153, .F. ) ;
#160 =( CONVERSION_BASED_UNIT ( 'INCH', #42 ) LENGTH_UNIT ( ) NAMED_UNIT ( #187 ) );
#161 = ORIENTED_EDGE ( 'NONE', *, *, #200, .T. ) ;
#162 = DIRECTION ( 'NONE',  ( 0.0000000000000000000, 0.0000000000000000000, 1.000000000000000000 ) ) ;
#163 = FACE_OUTER_BOUND ( 'NONE', #288, .T. ) ;
#164 = VERTEX_POINT ( 'NONE', #292 ) ;
#165 = DIRECTION ( 'NONE',  ( 1.000000000000000000, 0.0000000000000000000, 0.0000000000000000000 ) ) ;
#166 = ADVANCED_FACE ( 'NONE', ( #271 ), #58, .T. ) ;
#167 = ORIENTED_EDGE ( 'NONE', *, *, #50, .T. ) ;
#168 = DIRECTION ( 'NONE',  ( -1.224646799147353454E-16, -0.0000000000000000000, -1.000000000000000000 ) ) ;
#169 = MECHANICAL_DESIGN_GEOMETRIC_PRESENTATION_REPRESENTATION (  '', ( #78 ), #14 ) ;
#170 = AXIS2_PLACEMENT_3D ( 'NONE', #56, #13, #80 ) ;
#171 = DIRECTION ( 'NONE',  ( 1.000000000000000000, 0.0000000000000000000, 0.0000000000000000000 ) ) ;
#172 = EDGE_CURVE ( 'NONE', #43, #262, #105, .T. ) ;
#173 = DIRECTION ( 'NONE',  ( -1.224646799147353454E-16, -0.0000000000000000000, -1.000000000000000000 ) ) ;
#174 = DIRECTION ( 'NONE',  ( -0.0000000000000000000, -0.0000000000000000000, -1.000000000000000000 ) ) ;
#175 = CIRCLE ( 'NONE', #183, 0.2497499999999999998 ) ;
#176 = DIRECTION ( 'NONE',  ( -1.224646799147353454E-16, -0.0000000000000000000, -1.000000000000000000 ) ) ;
#177 = EDGE_CURVE ( 'NONE', #267, #256, #291, .T. ) ;
#178 = DIRECTION ( 'NONE',  ( -1.224646799147353454E-16, -0.0000000000000000000, -1.000000000000000000 ) ) ;
#179 = ORIENTED_EDGE ( 'NONE', *, *, #297, .T. ) ;
#180 = APPLICATION_CONTEXT ( 'automotive_design' ) ;
#181 = ORIENTED_EDGE ( 'NONE', *, *, #253, .F. ) ;
#182 = SURFACE_SIDE_STYLE ('',( #88 ) ) ;
#183 = AXIS2_PLACEMENT_3D ( 'NONE', #111, #21, #63 ) ;
#184 = ORIENTED_EDGE ( 'NONE', *, *, #200, .F. ) ;
#185 = FACE_OUTER_BOUND ( 'NONE', #52, .T. ) ;
#186 = ORIENTED_EDGE ( 'NONE', *, *, #244, .T. ) ;
#187 = DIMENSIONAL_EXPONENTS ( 1.000000000000000000, 0.0000000000000000000, 0.0000000000000000000, 0.0000000000000000000, 0.0000000000000000000, 0.0000000000000000000, 0.0000000000000000000 ) ;
#188 = UNCERTAINTY_MEASURE_WITH_UNIT (LENGTH_MEASURE( 1.000000000000000082E-05 ), #95, 'distance_accuracy_value', 'NONE');
#189 =( NAMED_UNIT ( * ) PLANE_ANGLE_UNIT ( ) SI_UNIT ( $, .RADIAN. ) );
#190 = AXIS2_PLACEMENT_3D ( 'NONE', #254, #178, #296 ) ;
#191 = CARTESIAN_POINT ( 'NONE',  ( -0.2350000000000011524, 0.0000000000000000000, 3.000000000000000444 ) ) ;
#192 = ADVANCED_FACE ( 'NONE', ( #289 ), #17, .T. ) ;
#193 = ORIENTED_EDGE ( 'NONE', *, *, #287, .T. ) ;
#194 = ORIENTED_EDGE ( 'NONE', *, *, #276, .T. ) ;
#195 = DIRECTION ( 'NONE',  ( 1.000000000000000000, 0.0000000000000000000, -0.0000000000000000000 ) ) ;
#196 = CARTESIAN_POINT ( 'NONE',  ( 0.0000000000000000000, 0.0000000000000000000, 0.0000000000000000000 ) ) ;
#197 = AXIS2_PLACEMENT_3D ( 'NONE', #128, #247, #171 ) ;
#198 = CARTESIAN_POINT ( 'NONE',  ( -0.2497499999999998888, 3.058555380870514950E-17, 1.000000000000000000 ) ) ;
#199 = CARTESIAN_POINT ( 'NONE',  ( -0.2350000000000011524, 0.0000000000000000000, 3.000000000000000444 ) ) ;
#200 = EDGE_CURVE ( 'NONE', #267, #41, #249, .T. ) ;
#201 = DIRECTION ( 'NONE',  ( 0.1736481776669314137, 0.0000000000000000000, 0.9848077530122077983 ) ) ;
#202 = VECTOR ( 'NONE', #273, 39.37007874015748854 ) ;
#203 = VECTOR ( 'NONE', #174, 39.37007874015748143 ) ;
#204 = DIRECTION ( 'NONE',  ( 1.000000000000000000, 0.0000000000000000000, 0.0000000000000000000 ) ) ;
#205 = DIRECTION ( 'NONE',  ( 1.224646799147353454E-16, 0.0000000000000000000, 1.000000000000000000 ) ) ;
#206 = VERTEX_POINT ( 'NONE', #274 ) ;
#207 = ORIENTED_EDGE ( 'NONE', *, *, #81, .T. ) ;
#208 = DIRECTION ( 'NONE',  ( 1.000000000000000000, 0.0000000000000000000, 0.0000000000000000000 ) ) ;
#209 = ADVANCED_FACE ( 'NONE', ( #145 ), #59, .T. ) ;
#210 = CIRCLE ( 'NONE', #248, 0.2500000000000000000 ) ;
#211 =( NAMED_UNIT ( * ) SI_UNIT ( $, .STERADIAN. ) SOLID_ANGLE_UNIT ( ) );
#212 = EDGE_LOOP ( 'NONE', ( #110, #223, #24, #237 ) ) ;
#213 = ORIENTED_EDGE ( 'NONE', *, *, #177, .T. ) ;
#214 = DIRECTION ( 'NONE',  ( -0.1736481776669312194, 2.126576849575783625E-17, 0.9848077530122080203 ) ) ;
#215 = DIRECTION ( 'NONE',  ( -1.224646799147353454E-16, -0.0000000000000000000, -1.000000000000000000 ) ) ;
#216 = CARTESIAN_POINT ( 'NONE',  ( 0.2350000000000011524, 2.877919977996294002E-17, 3.000000000000000444 ) ) ;
#217 = CIRCLE ( 'NONE', #133, 0.2350000000000011524 ) ;
#218 = CYLINDRICAL_SURFACE ( 'NONE', #90, 0.2497499999999999998 ) ;
#219 = EDGE_CURVE ( 'NONE', #206, #285, #104, .T. ) ;
#220 = DIRECTION ( 'NONE',  ( 0.7071067811865402453, 8.659560562354845344E-17, -0.7071067811865546782 ) ) ;
#221 = CARTESIAN_POINT ( 'NONE',  ( 1.224646799147353454E-16, 0.0000000000000000000, 1.000000000000000000 ) ) ;
#222 = AXIS2_PLACEMENT_3D ( 'NONE', #234, #54, #8 ) ;
#223 = ORIENTED_EDGE ( 'NONE', *, *, #9, .T. ) ;
#224 = DIRECTION ( 'NONE',  ( 0.0000000000000000000, 0.0000000000000000000, -1.000000000000000000 ) ) ;
#225 = ADVANCED_FACE ( 'NONE', ( #33 ), #218, .T. ) ;
#226 = SURFACE_STYLE_USAGE ( .BOTH. , #182 ) ;
#227 = PRODUCT_DEFINITION_SHAPE ( 'NONE', 'NONE',  #61 ) ;
#228 = ORIENTED_EDGE ( 'NONE', *, *, #153, .T. ) ;
#229 = VECTOR ( 'NONE', #215, 39.37007874015748143 ) ;
#230 = DIRECTION ( 'NONE',  ( -1.224646799147353454E-16, -0.0000000000000000000, -1.000000000000000000 ) ) ;
#231 = COLOUR_RGB ( '',0.7921568627450980005, 0.8196078431372548767, 0.9333333333333333481 ) ;
#232 = ORIENTED_EDGE ( 'NONE', *, *, #97, .T. ) ;
#233 = PRODUCT_RELATED_PRODUCT_CATEGORY ( 'part', '', ( #2 ) ) ;
#234 = CARTESIAN_POINT ( 'NONE',  ( 0.0000000000000000000, 0.0000000000000000000, 0.0000000000000000000 ) ) ;
#235 = PRODUCT_CONTEXT ( 'NONE', #180, 'mechanical' ) ;
#236 = AXIS2_PLACEMENT_3D ( 'NONE', #11, #151, #195 ) ;
#237 = ORIENTED_EDGE ( 'NONE', *, *, #219, .F. ) ;
#238 =( NAMED_UNIT ( * ) PLANE_ANGLE_UNIT ( ) SI_UNIT ( $, .RADIAN. ) );
#239 = FACE_OUTER_BOUND ( 'NONE', #87, .T. ) ;
#240 = SURFACE_STYLE_USAGE ( .BOTH. , #142 ) ;
#241 = DIRECTION ( 'NONE',  ( 0.0000000000000000000, 0.0000000000000000000, 1.000000000000000000 ) ) ;
#242 = AXIS2_PLACEMENT_3D ( 'NONE', #29, #107, #147 ) ;
#243 = CONICAL_SURFACE ( 'NONE', #20, 0.2497499999999999998, 0.1745329251994339192 ) ;
#244 = EDGE_CURVE ( 'NONE', #275, #67, #108, .T. ) ;
#245 = DIRECTION ( 'NONE',  ( -1.000000000000000000, 0.0000000000000000000, 1.224646799147353700E-16 ) ) ;
#246 = LINE ( 'NONE', #198, #38 ) ;
#247 = DIRECTION ( 'NONE',  ( 0.0000000000000000000, 0.0000000000000000000, 1.000000000000000000 ) ) ;
#248 = AXIS2_PLACEMENT_3D ( 'NONE', #144, #51, #165 ) ;
#249 = CIRCLE ( 'NONE', #197, 0.2350000000000011524 ) ;
#250 = CARTESIAN_POINT ( 'NONE',  ( 0.0000000000000000000, 0.0000000000000000000, 2.985000000000001208 ) ) ;
#251 =( NAMED_UNIT ( * ) SI_UNIT ( $, .STERADIAN. ) SOLID_ANGLE_UNIT ( ) );
#252 = CARTESIAN_POINT ( 'NONE',  ( 1.226383128429217700E-16, 0.0000000000000000000, 1.001417820454904462 ) ) ;
#253 = EDGE_CURVE ( 'NONE', #41, #267, #217, .T. ) ;
#254 = CARTESIAN_POINT ( 'NONE',  ( 3.745650057197990990E-33, 0.0000000000000000000, 3.058555380870515566E-17 ) ) ;
#255 = CARTESIAN_POINT ( 'NONE',  ( 0.2497500000000001386, 0.0000000000000000000, 1.000000000000000000 ) ) ;
#256 = VERTEX_POINT ( 'NONE', #109 ) ;
#257 = CARTESIAN_POINT ( 'NONE',  ( -0.2497499999999999998, 0.0000000000000000000, 6.117110761741031132E-17 ) ) ;
#258 = ADVANCED_FACE ( 'NONE', ( #152 ), #49, .T. ) ;
#259 = EDGE_LOOP ( 'NONE', ( #184, #213, #48, #89 ) ) ;
#260 = PRODUCT_DEFINITION_FORMATION_WITH_SPECIFIED_SOURCE ( 'ANY', '', #2, .NOT_KNOWN. ) ;
#261 = ORIENTED_EDGE ( 'NONE', *, *, #57, .F. ) ;
#262 = VERTEX_POINT ( 'NONE', #257 ) ;
#263 = ORIENTED_EDGE ( 'NONE', *, *, #172, .T. ) ;
#264 = AXIS2_PLACEMENT_3D ( 'NONE', #115, #86, #117 ) ;
#265 = SURFACE_STYLE_FILL_AREA ( #27 ) ;
#266 =( NAMED_UNIT ( * ) SI_UNIT ( $, .STERADIAN. ) SOLID_ANGLE_UNIT ( ) );
#267 = VERTEX_POINT ( 'NONE', #91 ) ;
#268 = DIRECTION ( 'NONE',  ( 0.0000000000000000000, 0.0000000000000000000, -1.000000000000000000 ) ) ;
#269 = DIRECTION ( 'NONE',  ( 0.0000000000000000000, 0.0000000000000000000, -1.000000000000000000 ) ) ;
#270 = AXIS2_PLACEMENT_3D ( 'NONE', #31, #131, #32 ) ;
#271 = FACE_OUTER_BOUND ( 'NONE', #139, .T. ) ;
#272 = DIRECTION ( 'NONE',  ( 1.000000000000000000, 0.0000000000000000000, 0.0000000000000000000 ) ) ;
#273 = DIRECTION ( 'NONE',  ( -0.7071067811865402453, 0.0000000000000000000, -0.7071067811865546782 ) ) ;
#274 = CARTESIAN_POINT ( 'NONE',  ( -0.2500000000000000000, 0.0000000000000000000, 2.985000000000001208 ) ) ;
#275 = VERTEX_POINT ( 'NONE', #255 ) ;
#276 = EDGE_CURVE ( 'NONE', #256, #206, #120, .T. ) ;
#277 =( LENGTH_UNIT ( ) NAMED_UNIT ( * ) SI_UNIT ( $, .METRE. ) );
#278 = AXIS2_PLACEMENT_3D ( 'NONE', #12, #176, #294 ) ;
#279 =( LENGTH_UNIT ( ) NAMED_UNIT ( * ) SI_UNIT ( $, .METRE. ) );
#280 = ORIENTED_EDGE ( 'NONE', *, *, #297, .F. ) ;
#281 = EDGE_CURVE ( 'NONE', #275, #164, #175, .T. ) ;
#282 =( CONVERSION_BASED_UNIT ( 'INCH', #65 ) LENGTH_UNIT ( ) NAMED_UNIT ( #22 ) );
#283 = EDGE_LOOP ( 'NONE', ( #298, #194, #112, #280 ) ) ;
#284 = ADVANCED_FACE ( 'NONE', ( #185 ), #243, .T. ) ;
#285 = VERTEX_POINT ( 'NONE', #64 ) ;
#286 = DIRECTION ( 'NONE',  ( -1.000000000000000000, 0.0000000000000000000, 0.0000000000000000000 ) ) ;
#287 = EDGE_CURVE ( 'NONE', #262, #43, #146, .T. ) ;
#288 = EDGE_LOOP ( 'NONE', ( #122, #181, #207, #7 ) ) ;
#289 = FACE_OUTER_BOUND ( 'NONE', #212, .T. ) ;
#290 = ADVANCED_BREP_SHAPE_REPRESENTATION ( 'Micro_EMS-500-4X', ( #53, #84 ), #55 ) ;
#291 = LINE ( 'NONE', #216, #126 ) ;
#292 = CARTESIAN_POINT ( 'NONE',  ( -0.2497499999999998888, 3.060086189369449292E-17, 1.000000000000000000 ) ) ;
#293 = ADVANCED_FACE ( 'NONE', ( #3 ), #34, .T. ) ;
#294 = DIRECTION ( 'NONE',  ( -1.000000000000000000, 0.0000000000000000000, 1.224646799147353700E-16 ) ) ;
#295 = CARTESIAN_POINT ( 'NONE',  ( 0.0000000000000000000, 0.0000000000000000000, 3.000000000000000444 ) ) ;
#296 = DIRECTION ( 'NONE',  ( -1.000000000000000000, 0.0000000000000000000, 1.224646799147353700E-16 ) ) ;
#297 = EDGE_CURVE ( 'NONE', #67, #285, #62, .T. ) ;
#298 = ORIENTED_EDGE ( 'NONE', *, *, #9, .F. ) ;
#299 = CARTESIAN_POINT ( 'NONE',  ( 0.0000000000000000000, 0.0000000000000000000, 2.985000000000001208 ) ) ;
ENDSEC;
END-ISO-10303-21;
