ISO-10303-21;
HEADER;
FILE_DESCRIPTION (( 'STEP AP214' ),
    '1' );
FILE_NAME ('Micro_BMRM-016-2.STEP',
    '2021-09-03T14:31:16',
    ( '' ),
    ( '' ),
    'SwSTEP 2.0',
    'SolidWorks 2020',
    '' );
FILE_SCHEMA (( 'AUTOMOTIVE_DESIGN' ));
ENDSEC;

DATA;
#1 = VECTOR ( 'NONE', #210, 39.37007874015747433 ) ;
#2 = ORIENTED_EDGE ( 'NONE', *, *, #120, .T. ) ;
#3 = ORIENTED_EDGE ( 'NONE', *, *, #199, .T. ) ;
#4 = AXIS2_PLACEMENT_3D ( 'NONE', #85, #179, #197 ) ;
#5 = ORIENTED_EDGE ( 'NONE', *, *, #18, .F. ) ;
#6 = AXIS2_PLACEMENT_3D ( 'NONE', #237, #45, #317 ) ;
#7 = EDGE_CURVE ( 'NONE', #143, #144, #107, .T. ) ;
#8 = DIRECTION ( 'NONE',  ( 1.000000000000000000, 0.0000000000000000000, 0.0000000000000000000 ) ) ;
#9 = CARTESIAN_POINT ( 'NONE',  ( 0.07874000000000004607, 9.642868896486264672E-18, 0.4570886609782083276 ) ) ;
#10 = CARTESIAN_POINT ( 'NONE',  ( -0.07874000000000000443, 0.0000000000000000000, 1.953504000000000129 ) ) ;
#11 = CIRCLE ( 'NONE', #91, 0.07874000000000000443 ) ;
#12 = CARTESIAN_POINT ( 'NONE',  ( 0.07874000000000000443, 9.642868896486258509E-18, 1.953504000000000129 ) ) ;
#13 =( CONVERSION_BASED_UNIT ( 'INCH', #156 ) LENGTH_UNIT ( ) NAMED_UNIT ( #251 ) );
#14 = CARTESIAN_POINT ( 'NONE',  ( 0.06374000000000018540, 7.805898697765251255E-18, 1.968503999999999809 ) ) ;
#15 = DIRECTION ( 'NONE',  ( 1.224646799147353207E-16, 0.0000000000000000000, 1.000000000000000000 ) ) ;
#16 = CARTESIAN_POINT ( 'NONE',  ( 2.314288535156702350E-17, 0.0000000000000000000, 0.1889760000000000051 ) ) ;
#17 = DIRECTION ( 'NONE',  ( 1.000000000000000000, 0.0000000000000000000, 0.0000000000000000000 ) ) ;
#18 = EDGE_CURVE ( 'NONE', #75, #147, #11, .T. ) ;
#19 = CARTESIAN_POINT ( 'NONE',  ( 0.03146450399999999731, 3.853290411035908808E-18, 0.03146450399999999037 ) ) ;
#20 = DIRECTION ( 'NONE',  ( 0.0000000000000000000, 1.000000000000000000, 0.0000000000000000000 ) ) ;
#21 = EDGE_LOOP ( 'NONE', ( #123, #324 ) ) ;
#22 = FACE_OUTER_BOUND ( 'NONE', #101, .T. ) ;
#23 = AXIS2_PLACEMENT_3D ( 'NONE', #182, #256, #109 ) ;
#24 = AXIS2_PLACEMENT_3D ( 'NONE', #157, #20, #289 ) ;
#25 = ORIENTED_EDGE ( 'NONE', *, *, #292, .T. ) ;
#26 = VERTEX_POINT ( 'NONE', #81 ) ;
#27 = AXIS2_PLACEMENT_3D ( 'NONE', #216, #293, #38 ) ;
#28 = LENGTH_MEASURE_WITH_UNIT ( LENGTH_MEASURE( 0.02539999999999999897 ), #281 );
#29 = ORIENTED_EDGE ( 'NONE', *, *, #228, .F. ) ;
#30 = AXIS2_PLACEMENT_3D ( 'NONE', #116, #234, #187 ) ;
#31 = DIRECTION ( 'NONE',  ( -1.224646799147353207E-16, -0.0000000000000000000, -1.000000000000000000 ) ) ;
#32 = MECHANICAL_DESIGN_GEOMETRIC_PRESENTATION_REPRESENTATION (  '', ( #145 ), #213 ) ;
#33 = SPHERICAL_SURFACE ( 'NONE', #233, 0.03146450399999999731 ) ;
#34 = DIRECTION ( 'NONE',  ( -1.224646799147353207E-16, -0.0000000000000000000, -1.000000000000000000 ) ) ;
#35 = FILL_AREA_STYLE_COLOUR ( '', #113 ) ;
#36 = CARTESIAN_POINT ( 'NONE',  ( 0.0000000000000000000, 0.0000000000000000000, 0.0000000000000000000 ) ) ;
#37 = SURFACE_STYLE_USAGE ( .BOTH. , #155 ) ;
#38 = DIRECTION ( 'NONE',  ( -1.000000000000000000, 0.0000000000000000000, 1.224646799147353207E-16 ) ) ;
#39 = DIRECTION ( 'NONE',  ( -1.224646799147353207E-16, -0.0000000000000000000, -1.000000000000000000 ) ) ;
#40 = CARTESIAN_POINT ( 'NONE',  ( 0.0000000000000000000, 0.0000000000000000000, 1.968503999999999809 ) ) ;
#41 = ADVANCED_FACE ( 'NONE', ( #202 ), #49, .T. ) ;
#42 = LINE ( 'NONE', #14, #126 ) ;
#43 = CONICAL_SURFACE ( 'NONE', #185, 0.03146450399999999731, 0.1745329251994338637 ) ;
#44 = ORIENTED_EDGE ( 'NONE', *, *, #106, .F. ) ;
#45 = DIRECTION ( 'NONE',  ( -0.0000000000000000000, -0.0000000000000000000, -1.000000000000000000 ) ) ;
#46 = ORIENTED_EDGE ( 'NONE', *, *, #148, .T. ) ;
#47 = ORIENTED_EDGE ( 'NONE', *, *, #7, .F. ) ;
#48 = ORIENTED_EDGE ( 'NONE', *, *, #166, .F. ) ;
#49 = CONICAL_SURFACE ( 'NONE', #4, 0.03146450399999999731, 0.1745329251994338637 ) ;
#50 = APPLICATION_PROTOCOL_DEFINITION ( 'draft international standard', 'automotive_design', 1998, #271 ) ;
#51 = ORIENTED_EDGE ( 'NONE', *, *, #219, .F. ) ;
#52 = DIRECTION ( 'NONE',  ( 1.000000000000000000, 0.0000000000000000000, 0.0000000000000000000 ) ) ;
#53 =( NAMED_UNIT ( * ) SI_UNIT ( $, .STERADIAN. ) SOLID_ANGLE_UNIT ( ) );
#54 = CIRCLE ( 'NONE', #23, 0.03146450399999999731 ) ;
#55 = FACE_OUTER_BOUND ( 'NONE', #270, .T. ) ;
#56 = VERTEX_POINT ( 'NONE', #177 ) ;
#57 = EDGE_CURVE ( 'NONE', #56, #215, #279, .T. ) ;
#58 = DIRECTION ( 'NONE',  ( 1.000000000000000000, 0.0000000000000000000, 0.0000000000000000000 ) ) ;
#59 = DIRECTION ( 'NONE',  ( 1.000000000000000000, 0.0000000000000000000, 0.0000000000000000000 ) ) ;
#60 = SURFACE_STYLE_FILL_AREA ( #316 ) ;
#61 = AXIS2_PLACEMENT_3D ( 'NONE', #259, #297, #58 ) ;
#62 = PRESENTATION_LAYER_ASSIGNMENT (  '', '', ( #145 ) ) ;
#63 =( LENGTH_UNIT ( ) NAMED_UNIT ( * ) SI_UNIT ( $, .METRE. ) );
#64 = ADVANCED_FACE ( 'NONE', ( #55 ), #33, .T. ) ;
#65 = CYLINDRICAL_SURFACE ( 'NONE', #27, 0.03146450399999999731 ) ;
#66 = FACE_OUTER_BOUND ( 'NONE', #310, .T. ) ;
#67 =( NAMED_UNIT ( * ) SI_UNIT ( $, .STERADIAN. ) SOLID_ANGLE_UNIT ( ) );
#68 = DIRECTION ( 'NONE',  ( 1.000000000000000000, 0.0000000000000000000, 0.0000000000000000000 ) ) ;
#69 = AXIS2_PLACEMENT_3D ( 'NONE', #125, #146, #277 ) ;
#70 = ORIENTED_EDGE ( 'NONE', *, *, #278, .T. ) ;
#71 = DIRECTION ( 'NONE',  ( 1.224646799147353207E-16, 0.0000000000000000000, 1.000000000000000000 ) ) ;
#72 = EDGE_CURVE ( 'NONE', #249, #143, #54, .T. ) ;
#73 = ORIENTED_EDGE ( 'NONE', *, *, #221, .T. ) ;
#74 = AXIS2_PLACEMENT_3D ( 'NONE', #242, #95, #142 ) ;
#75 = VERTEX_POINT ( 'NONE', #9 ) ;
#76 = ADVANCED_FACE ( 'NONE', ( #201 ), #97, .T. ) ;
#77 = EDGE_LOOP ( 'NONE', ( #203, #194, #105, #51 ) ) ;
#78 = SURFACE_SIDE_STYLE ('',( #304 ) ) ;
#79 = CARTESIAN_POINT ( 'NONE',  ( -0.06374000000000018540, 0.0000000000000000000, 1.968503999999999809 ) ) ;
#80 = AXIS2_PLACEMENT_3D ( 'NONE', #254, #83, #229 ) ;
#81 = CARTESIAN_POINT ( 'NONE',  ( 0.03146450400000001812, 0.0000000000000000000, 0.1889760000000000051 ) ) ;
#82 = PRESENTATION_STYLE_ASSIGNMENT (( #129 ) ) ;
#83 = DIRECTION ( 'NONE',  ( 1.224646799147353207E-16, 0.0000000000000000000, 1.000000000000000000 ) ) ;
#84 = UNCERTAINTY_MEASURE_WITH_UNIT (LENGTH_MEASURE( 1.000000000000000082E-05 ), #224, 'distance_accuracy_value', 'NONE');
#85 = CARTESIAN_POINT ( 'NONE',  ( 2.314288535156702350E-17, 0.0000000000000000000, 0.1889760000000000051 ) ) ;
#86 = AXIS2_PLACEMENT_3D ( 'NONE', #36, #153, #59 ) ;
#87 = LINE ( 'NONE', #288, #217 ) ;
#88 =( NAMED_UNIT ( * ) PLANE_ANGLE_UNIT ( ) SI_UNIT ( $, .RADIAN. ) );
#89 = DIRECTION ( 'NONE',  ( -1.224646799147353207E-16, -0.0000000000000000000, -1.000000000000000000 ) ) ;
#90 = EDGE_CURVE ( 'NONE', #147, #75, #276, .T. ) ;
#91 = AXIS2_PLACEMENT_3D ( 'NONE', #110, #31, #8 ) ;
#92 = CARTESIAN_POINT ( 'NONE',  ( 0.06374000000000018540, 8.724383797125754882E-18, 1.968503999999999809 ) ) ;
#93 = FACE_OUTER_BOUND ( 'NONE', #171, .T. ) ;
#94 = DIRECTION ( 'NONE',  ( 0.0000000000000000000, 0.0000000000000000000, 1.000000000000000000 ) ) ;
#95 = DIRECTION ( 'NONE',  ( 0.0000000000000000000, 0.0000000000000000000, -1.000000000000000000 ) ) ;
#96 = ORIENTED_EDGE ( 'NONE', *, *, #278, .F. ) ;
#97 = CONICAL_SURFACE ( 'NONE', #149, 0.06374000000000018540, 0.7853981633974522758 ) ;
#98 = EDGE_CURVE ( 'NONE', #225, #56, #180, .T. ) ;
#99 = ORIENTED_EDGE ( 'NONE', *, *, #318, .T. ) ;
#100 = ORIENTED_EDGE ( 'NONE', *, *, #178, .F. ) ;
#101 = EDGE_LOOP ( 'NONE', ( #244, #99, #47 ) ) ;
#102 = VECTOR ( 'NONE', #39, 39.37007874015748143 ) ;
#103 = FILL_AREA_STYLE_COLOUR ( '', #204 ) ;
#104 = EDGE_LOOP ( 'NONE', ( #163, #2, #44, #198 ) ) ;
#105 = ORIENTED_EDGE ( 'NONE', *, *, #7, .T. ) ;
#106 = EDGE_CURVE ( 'NONE', #215, #168, #266, .T. ) ;
#107 = CIRCLE ( 'NONE', #80, 0.03146450399999999731 ) ;
#108 = AXIS2_PLACEMENT_3D ( 'NONE', #40, #190, #68 ) ;
#109 = DIRECTION ( 'NONE',  ( 0.0000000000000000000, 0.0000000000000000000, -1.000000000000000000 ) ) ;
#110 = CARTESIAN_POINT ( 'NONE',  ( 5.597721655935125696E-17, 0.0000000000000000000, 0.4570886609782083276 ) ) ;
#111 = DIRECTION ( 'NONE',  ( 0.0000000000000000000, 0.0000000000000000000, -1.000000000000000000 ) ) ;
#112 = DIRECTION ( 'NONE',  ( -1.224646799147353207E-16, -0.0000000000000000000, -1.000000000000000000 ) ) ;
#113 = COLOUR_RGB ( '',0.7921568627450980005, 0.8196078431372548767, 0.9333333333333333481 ) ;
#114 = LINE ( 'NONE', #189, #102 ) ;
#115 = PRESENTATION_STYLE_ASSIGNMENT (( #37 ) ) ;
#116 = CARTESIAN_POINT ( 'NONE',  ( 0.0000000000000000000, 0.0000000000000000000, 0.0000000000000000000 ) ) ;
#117 = CARTESIAN_POINT ( 'NONE',  ( -0.07874000000000000443, 0.0000000000000000000, 1.968503999999999809 ) ) ;
#118 = CARTESIAN_POINT ( 'NONE',  ( 0.0000000000000000000, 0.0000000000000000000, 1.953504000000000129 ) ) ;
#119 = DIRECTION ( 'NONE',  ( -0.0000000000000000000, -0.0000000000000000000, -1.000000000000000000 ) ) ;
#120 = EDGE_CURVE ( 'NONE', #225, #168, #42, .T. ) ;
#121 = FACE_OUTER_BOUND ( 'NONE', #77, .T. ) ;
#122 = EDGE_LOOP ( 'NONE', ( #275, #303, #128, #252 ) ) ;
#123 = ORIENTED_EDGE ( 'NONE', *, *, #248, .T. ) ;
#124 = EDGE_LOOP ( 'NONE', ( #96, #325, #250, #218 ) ) ;
#125 = CARTESIAN_POINT ( 'NONE',  ( 3.853290411035908808E-18, 0.0000000000000000000, 0.03146450399999999731 ) ) ;
#126 = VECTOR ( 'NONE', #262, 39.37007874015748854 ) ;
#127 = DIMENSIONAL_EXPONENTS ( 1.000000000000000000, 0.0000000000000000000, 0.0000000000000000000, 0.0000000000000000000, 0.0000000000000000000, 0.0000000000000000000, 0.0000000000000000000 ) ;
#128 = ORIENTED_EDGE ( 'NONE', *, *, #57, .T. ) ;
#129 = SURFACE_STYLE_USAGE ( .BOTH. , #78 ) ;
#130 = VERTEX_POINT ( 'NONE', #150 ) ;
#131 = CIRCLE ( 'NONE', #69, 0.03146450399999999731 ) ;
#132 = ORIENTED_EDGE ( 'NONE', *, *, #106, .T. ) ;
#133 = LINE ( 'NONE', #232, #191 ) ;
#134 = UNCERTAINTY_MEASURE_WITH_UNIT (LENGTH_MEASURE( 1.000000000000000082E-05 ), #13, 'distance_accuracy_value', 'NONE');
#135 = CARTESIAN_POINT ( 'NONE',  ( 0.0000000000000000000, 0.0000000000000000000, 1.953504000000000129 ) ) ;
#136 = SHAPE_DEFINITION_REPRESENTATION ( #141, #315 ) ;
#137 = FACE_OUTER_BOUND ( 'NONE', #124, .T. ) ;
#138 = CYLINDRICAL_SURFACE ( 'NONE', #30, 0.03146450399999999731 ) ;
#139 = CIRCLE ( 'NONE', #211, 0.07874000000000000443 ) ;
#140 = VECTOR ( 'NONE', #119, 39.37007874015748143 ) ;
#141 = PRODUCT_DEFINITION_SHAPE ( 'NONE', 'NONE',  #284 ) ;
#142 = DIRECTION ( 'NONE',  ( -1.000000000000000000, 0.0000000000000000000, 0.0000000000000000000 ) ) ;
#143 = VERTEX_POINT ( 'NONE', #19 ) ;
#144 = VERTEX_POINT ( 'NONE', #186 ) ;
#145 = STYLED_ITEM ( 'NONE', ( #82 ), #315 ) ;
#146 = DIRECTION ( 'NONE',  ( 1.224646799147353207E-16, 1.000000000000000000, -0.0000000000000000000 ) ) ;
#147 = VERTEX_POINT ( 'NONE', #257 ) ;
#148 = EDGE_CURVE ( 'NONE', #26, #130, #238, .T. ) ;
#149 = AXIS2_PLACEMENT_3D ( 'NONE', #307, #111, #311 ) ;
#150 = CARTESIAN_POINT ( 'NONE',  ( -0.03146450399999997649, 6.748079653761082503E-18, 0.1889760000000000051 ) ) ;
#151 = DIRECTION ( 'NONE',  ( -1.224646799147353207E-16, -0.0000000000000000000, -1.000000000000000000 ) ) ;
#152 = CLOSED_SHELL ( 'NONE', ( #231, #274, #41, #76, #301, #212, #260, #236, #305, #172, #64 ) ) ;
#153 = DIRECTION ( 'NONE',  ( 0.0000000000000000000, 0.0000000000000000000, 1.000000000000000000 ) ) ;
#154 = PRESENTATION_LAYER_ASSIGNMENT (  '', '', ( #175 ) ) ;
#155 = SURFACE_SIDE_STYLE ('',( #60 ) ) ;
#156 = LENGTH_MEASURE_WITH_UNIT ( LENGTH_MEASURE( 0.02539999999999999897 ), #253 );
#157 = CARTESIAN_POINT ( 'NONE',  ( 3.853290411035908808E-18, 0.0000000000000000000, 0.03146450399999999731 ) ) ;
#158 = CARTESIAN_POINT ( 'NONE',  ( 0.0000000000000000000, 0.0000000000000000000, 1.968503999999999809 ) ) ;
#159 =( NAMED_UNIT ( * ) SI_UNIT ( $, .STERADIAN. ) SOLID_ANGLE_UNIT ( ) );
#160 = CIRCLE ( 'NONE', #108, 0.06374000000000018540 ) ;
#161 = CARTESIAN_POINT ( 'NONE',  ( 5.779935616553862056E-18, 0.0000000000000000000, 0.0000000000000000000 ) ) ;
#162 = PRODUCT ( 'Micro_BMRM-016-2', 'Micro_BMRM-016-2', '', ( #239 ) ) ;
#163 = ORIENTED_EDGE ( 'NONE', *, *, #98, .F. ) ;
#164 = FACE_OUTER_BOUND ( 'NONE', #21, .T. ) ;
#165 = EDGE_LOOP ( 'NONE', ( #132, #73, #220, #29 ) ) ;
#166 = EDGE_CURVE ( 'NONE', #26, #143, #114, .T. ) ;
#167 =( GEOMETRIC_REPRESENTATION_CONTEXT ( 3 ) GLOBAL_UNCERTAINTY_ASSIGNED_CONTEXT ( ( #308 ) ) GLOBAL_UNIT_ASSIGNED_CONTEXT ( ( #170, #280, #159 ) ) REPRESENTATION_CONTEXT ( 'NONE', 'WORKASPACE' ) );
#168 = VERTEX_POINT ( 'NONE', #12 ) ;
#169 = DIRECTION ( 'NONE',  ( 0.1736481776669313581, 0.0000000000000000000, 0.9848077530122077983 ) ) ;
#170 =( CONVERSION_BASED_UNIT ( 'INCH', #176 ) LENGTH_UNIT ( ) NAMED_UNIT ( #296 ) );
#171 = EDGE_LOOP ( 'NONE', ( #48, #46, #192, #25 ) ) ;
#172 = ADVANCED_FACE ( 'NONE', ( #93 ), #138, .T. ) ;
#173 = CARTESIAN_POINT ( 'NONE',  ( 3.853290411035908808E-18, 0.0000000000000000000, 0.03146450399999999731 ) ) ;
#174 = PRODUCT_DEFINITION_CONTEXT ( 'detailed design', #291, 'design' ) ;
#175 = STYLED_ITEM ( 'NONE', ( #115 ), #223 ) ;
#176 = LENGTH_MEASURE_WITH_UNIT ( LENGTH_MEASURE( 0.02539999999999999897 ), #63 );
#177 = CARTESIAN_POINT ( 'NONE',  ( -0.06374000000000018540, 0.0000000000000000000, 1.968503999999999809 ) ) ;
#178 = EDGE_CURVE ( 'NONE', #130, #26, #319, .T. ) ;
#179 = DIRECTION ( 'NONE',  ( 1.224646799147353207E-16, 0.0000000000000000000, 1.000000000000000000 ) ) ;
#180 = CIRCLE ( 'NONE', #61, 0.06374000000000018540 ) ;
#181 = AXIS2_PLACEMENT_3D ( 'NONE', #300, #71, #269 ) ;
#182 = CARTESIAN_POINT ( 'NONE',  ( 3.853290411035908808E-18, 0.0000000000000000000, 0.03146450399999999731 ) ) ;
#183 = DIRECTION ( 'NONE',  ( -0.0000000000000000000, -0.0000000000000000000, -1.000000000000000000 ) ) ;
#184 = DIRECTION ( 'NONE',  ( 1.000000000000000000, 0.0000000000000000000, 0.0000000000000000000 ) ) ;
#185 = AXIS2_PLACEMENT_3D ( 'NONE', #235, #15, #17 ) ;
#186 = CARTESIAN_POINT ( 'NONE',  ( -0.03146450399999999037, 0.0000000000000000000, 0.03146450399999999731 ) ) ;
#187 = DIRECTION ( 'NONE',  ( -1.000000000000000000, 0.0000000000000000000, 1.224646799147353207E-16 ) ) ;
#188 = LINE ( 'NONE', #295, #227 ) ;
#189 = CARTESIAN_POINT ( 'NONE',  ( 0.03146450399999999731, 3.853290411035908808E-18, -3.853290411035908808E-18 ) ) ;
#190 = DIRECTION ( 'NONE',  ( 0.0000000000000000000, 0.0000000000000000000, 1.000000000000000000 ) ) ;
#191 = VECTOR ( 'NONE', #112, 39.37007874015748143 ) ;
#192 = ORIENTED_EDGE ( 'NONE', *, *, #219, .T. ) ;
#193 = CARTESIAN_POINT ( 'NONE',  ( -0.03146450399999997649, 3.853290411035908808E-18, 0.1889760000000000051 ) ) ;
#194 = ORIENTED_EDGE ( 'NONE', *, *, #166, .T. ) ;
#195 = EDGE_LOOP ( 'NONE', ( #100, #70, #273, #247 ) ) ;
#196 = FILL_AREA_STYLE ('',( #103 ) ) ;
#197 = DIRECTION ( 'NONE',  ( 1.000000000000000000, 0.0000000000000000000, 0.0000000000000000000 ) ) ;
#198 = ORIENTED_EDGE ( 'NONE', *, *, #57, .F. ) ;
#199 = EDGE_CURVE ( 'NONE', #168, #215, #139, .T. ) ;
#200 =( NAMED_UNIT ( * ) PLANE_ANGLE_UNIT ( ) SI_UNIT ( $, .RADIAN. ) );
#201 = FACE_OUTER_BOUND ( 'NONE', #104, .T. ) ;
#202 = FACE_OUTER_BOUND ( 'NONE', #195, .T. ) ;
#203 = ORIENTED_EDGE ( 'NONE', *, *, #178, .T. ) ;
#204 = COLOUR_RGB ( '',0.7921568627450980005, 0.8196078431372548767, 0.9333333333333333481 ) ;
#205 = APPLICATION_PROTOCOL_DEFINITION ( 'draft international standard', 'automotive_design', 1998, #291 ) ;
#206 = CYLINDRICAL_SURFACE ( 'NONE', #323, 0.07874000000000000443 ) ;
#207 = DIRECTION ( 'NONE',  ( 1.000000000000000000, 0.0000000000000000000, 0.0000000000000000000 ) ) ;
#208 = DIRECTION ( 'NONE',  ( 1.000000000000000000, 0.0000000000000000000, -0.0000000000000000000 ) ) ;
#209 = CARTESIAN_POINT ( 'NONE',  ( 2.314288535156702350E-17, 0.0000000000000000000, 0.1889760000000000051 ) ) ;
#210 = DIRECTION ( 'NONE',  ( -0.1736481776669311639, 2.126576849575783008E-17, 0.9848077530122080203 ) ) ;
#211 = AXIS2_PLACEMENT_3D ( 'NONE', #118, #214, #207 ) ;
#212 = ADVANCED_FACE ( 'NONE', ( #66 ), #206, .T. ) ;
#213 =( GEOMETRIC_REPRESENTATION_CONTEXT ( 3 ) GLOBAL_UNCERTAINTY_ASSIGNED_CONTEXT ( ( #134 ) ) GLOBAL_UNIT_ASSIGNED_CONTEXT ( ( #13, #88, #67 ) ) REPRESENTATION_CONTEXT ( 'NONE', 'WORKASPACE' ) );
#214 = DIRECTION ( 'NONE',  ( 0.0000000000000000000, 0.0000000000000000000, -1.000000000000000000 ) ) ;
#215 = VERTEX_POINT ( 'NONE', #10 ) ;
#216 = CARTESIAN_POINT ( 'NONE',  ( 0.0000000000000000000, 0.0000000000000000000, 0.0000000000000000000 ) ) ;
#217 = VECTOR ( 'NONE', #183, 39.37007874015748143 ) ;
#218 = ORIENTED_EDGE ( 'NONE', *, *, #18, .T. ) ;
#219 = EDGE_CURVE ( 'NONE', #130, #144, #133, .T. ) ;
#220 = ORIENTED_EDGE ( 'NONE', *, *, #90, .F. ) ;
#221 = EDGE_CURVE ( 'NONE', #168, #75, #87, .T. ) ;
#222 = PRODUCT_RELATED_PRODUCT_CATEGORY ( 'part', '', ( #162 ) ) ;
#223 = MANIFOLD_SOLID_BREP ( 'Fillet1', #152 ) ;
#224 =( CONVERSION_BASED_UNIT ( 'INCH', #28 ) LENGTH_UNIT ( ) NAMED_UNIT ( #127 ) );
#225 = VERTEX_POINT ( 'NONE', #92 ) ;
#226 = ORIENTED_EDGE ( 'NONE', *, *, #292, .F. ) ;
#227 = VECTOR ( 'NONE', #169, 39.37007874015748143 ) ;
#228 = EDGE_CURVE ( 'NONE', #215, #147, #287, .T. ) ;
#229 = DIRECTION ( 'NONE',  ( -1.000000000000000000, 0.0000000000000000000, 1.356612038155888783E-16 ) ) ;
#230 = DIRECTION ( 'NONE',  ( 0.0000000000000000000, 1.000000000000000000, 0.0000000000000000000 ) ) ;
#231 = ADVANCED_FACE ( 'NONE', ( #22 ), #261, .T. ) ;
#232 = CARTESIAN_POINT ( 'NONE',  ( -0.03146450399999999731, 0.0000000000000000000, 3.853290411035908808E-18 ) ) ;
#233 = AXIS2_PLACEMENT_3D ( 'NONE', #173, #230, #52 ) ;
#234 = DIRECTION ( 'NONE',  ( -1.224646799147353207E-16, -0.0000000000000000000, -1.000000000000000000 ) ) ;
#235 = CARTESIAN_POINT ( 'NONE',  ( 2.314288535156702350E-17, 0.0000000000000000000, 0.1889760000000000051 ) ) ;
#236 = ADVANCED_FACE ( 'NONE', ( #298 ), #240, .T. ) ;
#237 = CARTESIAN_POINT ( 'NONE',  ( 0.0000000000000000000, 0.0000000000000000000, 1.968503999999999809 ) ) ;
#238 = CIRCLE ( 'NONE', #272, 0.03146450399999999731 ) ;
#239 = PRODUCT_CONTEXT ( 'NONE', #271, 'mechanical' ) ;
#240 = CONICAL_SURFACE ( 'NONE', #74, 0.06374000000000018540, 0.7853981633974522758 ) ;
#241 = DIRECTION ( 'NONE',  ( 1.000000000000000000, 0.0000000000000000000, 0.0000000000000000000 ) ) ;
#242 = CARTESIAN_POINT ( 'NONE',  ( 0.0000000000000000000, 0.0000000000000000000, 1.968503999999999809 ) ) ;
#243 = PLANE ( 'NONE',  #313 ) ;
#244 = ORIENTED_EDGE ( 'NONE', *, *, #72, .F. ) ;
#245 = AXIS2_PLACEMENT_3D ( 'NONE', #135, #314, #184 ) ;
#246 = ORIENTED_EDGE ( 'NONE', *, *, #221, .F. ) ;
#247 = ORIENTED_EDGE ( 'NONE', *, *, #309, .F. ) ;
#248 = EDGE_CURVE ( 'NONE', #56, #225, #160, .T. ) ;
#249 = VERTEX_POINT ( 'NONE', #161 ) ;
#250 = ORIENTED_EDGE ( 'NONE', *, *, #309, .T. ) ;
#251 = DIMENSIONAL_EXPONENTS ( 1.000000000000000000, 0.0000000000000000000, 0.0000000000000000000, 0.0000000000000000000, 0.0000000000000000000, 0.0000000000000000000, 0.0000000000000000000 ) ;
#252 = ORIENTED_EDGE ( 'NONE', *, *, #199, .F. ) ;
#253 =( LENGTH_UNIT ( ) NAMED_UNIT ( * ) SI_UNIT ( $, .METRE. ) );
#254 = CARTESIAN_POINT ( 'NONE',  ( 3.853290411035908808E-18, 0.0000000000000000000, 0.03146450399999999731 ) ) ;
#255 = MECHANICAL_DESIGN_GEOMETRIC_PRESENTATION_REPRESENTATION (  '', ( #175 ), #167 ) ;
#256 = DIRECTION ( 'NONE',  ( 0.0000000000000000000, -1.000000000000000000, 0.0000000000000000000 ) ) ;
#257 = CARTESIAN_POINT ( 'NONE',  ( -0.07873999999999994892, 0.0000000000000000000, 0.4570886609782083276 ) ) ;
#258 = DIRECTION ( 'NONE',  ( -1.000000000000000000, 0.0000000000000000000, 0.0000000000000000000 ) ) ;
#259 = CARTESIAN_POINT ( 'NONE',  ( 0.0000000000000000000, 0.0000000000000000000, 1.968503999999999809 ) ) ;
#260 = ADVANCED_FACE ( 'NONE', ( #164 ), #243, .T. ) ;
#261 = SPHERICAL_SURFACE ( 'NONE', #24, 0.03146450399999999731 ) ;
#262 = DIRECTION ( 'NONE',  ( 0.7071067811865502373, 8.659560562354966138E-17, -0.7071067811865446862 ) ) ;
#263 = CYLINDRICAL_SURFACE ( 'NONE', #6, 0.07874000000000000443 ) ;
#264 = DIRECTION ( 'NONE',  ( -0.0000000000000000000, -0.0000000000000000000, -1.000000000000000000 ) ) ;
#265 = FACE_OUTER_BOUND ( 'NONE', #165, .T. ) ;
#266 = CIRCLE ( 'NONE', #245, 0.07874000000000000443 ) ;
#267 = CARTESIAN_POINT ( 'NONE',  ( 0.0000000000000000000, 0.0000000000000000000, 1.968503999999999809 ) ) ;
#268 = ORIENTED_EDGE ( 'NONE', *, *, #72, .T. ) ;
#269 = DIRECTION ( 'NONE',  ( -1.000000000000000000, 0.0000000000000000000, 1.356612038155888783E-16 ) ) ;
#270 = EDGE_LOOP ( 'NONE', ( #306, #268, #226 ) ) ;
#271 = APPLICATION_CONTEXT ( 'automotive_design' ) ;
#272 = AXIS2_PLACEMENT_3D ( 'NONE', #16, #151, #258 ) ;
#273 = ORIENTED_EDGE ( 'NONE', *, *, #90, .T. ) ;
#274 = ADVANCED_FACE ( 'NONE', ( #121 ), #65, .T. ) ;
#275 = ORIENTED_EDGE ( 'NONE', *, *, #120, .F. ) ;
#276 = CIRCLE ( 'NONE', #312, 0.07874000000000000443 ) ;
#277 = DIRECTION ( 'NONE',  ( -1.000000000000000000, 1.224646799147353207E-16, 0.0000000000000000000 ) ) ;
#278 = EDGE_CURVE ( 'NONE', #130, #147, #322, .T. ) ;
#279 = LINE ( 'NONE', #79, #302 ) ;
#280 =( NAMED_UNIT ( * ) PLANE_ANGLE_UNIT ( ) SI_UNIT ( $, .RADIAN. ) );
#281 =( LENGTH_UNIT ( ) NAMED_UNIT ( * ) SI_UNIT ( $, .METRE. ) );
#282 = DIRECTION ( 'NONE',  ( -0.7071067811865502373, 0.0000000000000000000, -0.7071067811865446862 ) ) ;
#283 = AXIS2_PLACEMENT_3D ( 'NONE', #209, #34, #294 ) ;
#284 = PRODUCT_DEFINITION ( 'UNKNOWN', '', #290, #174 ) ;
#285 = CIRCLE ( 'NONE', #181, 0.03146450399999999731 ) ;
#286 = CARTESIAN_POINT ( 'NONE',  ( 5.597721655935125696E-17, 0.0000000000000000000, 0.4570886609782083276 ) ) ;
#287 = LINE ( 'NONE', #117, #140 ) ;
#288 = CARTESIAN_POINT ( 'NONE',  ( 0.07874000000000000443, 9.642868896486258509E-18, 1.968503999999999809 ) ) ;
#289 = DIRECTION ( 'NONE',  ( 1.000000000000000000, 0.0000000000000000000, 0.0000000000000000000 ) ) ;
#290 = PRODUCT_DEFINITION_FORMATION_WITH_SPECIFIED_SOURCE ( 'ANY', '', #162, .NOT_KNOWN. ) ;
#291 = APPLICATION_CONTEXT ( 'automotive_design' ) ;
#292 = EDGE_CURVE ( 'NONE', #144, #143, #285, .T. ) ;
#293 = DIRECTION ( 'NONE',  ( -1.224646799147353207E-16, -0.0000000000000000000, -1.000000000000000000 ) ) ;
#294 = DIRECTION ( 'NONE',  ( -1.000000000000000000, 0.0000000000000000000, 0.0000000000000000000 ) ) ;
#295 = CARTESIAN_POINT ( 'NONE',  ( 0.03146450400000001812, 0.0000000000000000000, 0.1889760000000000051 ) ) ;
#296 = DIMENSIONAL_EXPONENTS ( 1.000000000000000000, 0.0000000000000000000, 0.0000000000000000000, 0.0000000000000000000, 0.0000000000000000000, 0.0000000000000000000, 0.0000000000000000000 ) ;
#297 = DIRECTION ( 'NONE',  ( 0.0000000000000000000, 0.0000000000000000000, 1.000000000000000000 ) ) ;
#298 = FACE_OUTER_BOUND ( 'NONE', #122, .T. ) ;
#299 = ORIENTED_EDGE ( 'NONE', *, *, #228, .T. ) ;
#300 = CARTESIAN_POINT ( 'NONE',  ( 3.853290411035908808E-18, 0.0000000000000000000, 0.03146450399999999731 ) ) ;
#301 = ADVANCED_FACE ( 'NONE', ( #265 ), #263, .T. ) ;
#302 = VECTOR ( 'NONE', #282, 39.37007874015748854 ) ;
#303 = ORIENTED_EDGE ( 'NONE', *, *, #248, .F. ) ;
#304 = SURFACE_STYLE_FILL_AREA ( #196 ) ;
#305 = ADVANCED_FACE ( 'NONE', ( #137 ), #43, .T. ) ;
#306 = ORIENTED_EDGE ( 'NONE', *, *, #318, .F. ) ;
#307 = CARTESIAN_POINT ( 'NONE',  ( 0.0000000000000000000, 0.0000000000000000000, 1.968503999999999809 ) ) ;
#308 = UNCERTAINTY_MEASURE_WITH_UNIT (LENGTH_MEASURE( 1.000000000000000082E-05 ), #170, 'distance_accuracy_value', 'NONE');
#309 = EDGE_CURVE ( 'NONE', #26, #75, #188, .T. ) ;
#310 = EDGE_LOOP ( 'NONE', ( #246, #3, #299, #5 ) ) ;
#311 = DIRECTION ( 'NONE',  ( -1.000000000000000000, 0.0000000000000000000, 0.0000000000000000000 ) ) ;
#312 = AXIS2_PLACEMENT_3D ( 'NONE', #286, #89, #241 ) ;
#313 = AXIS2_PLACEMENT_3D ( 'NONE', #267, #94, #208 ) ;
#314 = DIRECTION ( 'NONE',  ( 0.0000000000000000000, 0.0000000000000000000, -1.000000000000000000 ) ) ;
#315 = ADVANCED_BREP_SHAPE_REPRESENTATION ( 'Micro_BMRM-016-2', ( #223, #86 ), #320 ) ;
#316 = FILL_AREA_STYLE ('',( #35 ) ) ;
#317 = DIRECTION ( 'NONE',  ( -1.000000000000000000, 0.0000000000000000000, 0.0000000000000000000 ) ) ;
#318 = EDGE_CURVE ( 'NONE', #249, #144, #131, .T. ) ;
#319 = CIRCLE ( 'NONE', #283, 0.03146450399999999731 ) ;
#320 =( GEOMETRIC_REPRESENTATION_CONTEXT ( 3 ) GLOBAL_UNCERTAINTY_ASSIGNED_CONTEXT ( ( #84 ) ) GLOBAL_UNIT_ASSIGNED_CONTEXT ( ( #224, #200, #53 ) ) REPRESENTATION_CONTEXT ( 'NONE', 'WORKASPACE' ) );
#321 = DIRECTION ( 'NONE',  ( -1.000000000000000000, 0.0000000000000000000, 0.0000000000000000000 ) ) ;
#322 = LINE ( 'NONE', #193, #1 ) ;
#323 = AXIS2_PLACEMENT_3D ( 'NONE', #158, #264, #321 ) ;
#324 = ORIENTED_EDGE ( 'NONE', *, *, #98, .T. ) ;
#325 = ORIENTED_EDGE ( 'NONE', *, *, #148, .F. ) ;
ENDSEC;
END-ISO-10303-21;
