ISO-10303-21;
HEADER;
FILE_DESCRIPTION (( 'STEP AP214' ),
    '1' );
FILE_NAME ('Micro_BMR-023-2.STEP',
    '2021-09-03T13:53:55',
    ( '' ),
    ( '' ),
    'SwSTEP 2.0',
    'SolidWorks 2020',
    '' );
FILE_SCHEMA (( 'AUTOMOTIVE_DESIGN' ));
ENDSEC;

DATA;
#1 = ORIENTED_EDGE ( 'NONE', *, *, #290, .T. ) ;
#2 = EDGE_CURVE ( 'NONE', #125, #161, #105, .T. ) ;
#3 = EDGE_LOOP ( 'NONE', ( #83, #203, #284 ) ) ;
#4 = CARTESIAN_POINT ( 'NONE',  ( 0.0000000000000000000, 0.0000000000000000000, 0.0000000000000000000 ) ) ;
#5 = ORIENTED_EDGE ( 'NONE', *, *, #29, .T. ) ;
#6 = VERTEX_POINT ( 'NONE', #14 ) ;
#7 = AXIS2_PLACEMENT_3D ( 'NONE', #20, #121, #221 ) ;
#8 = ORIENTED_EDGE ( 'NONE', *, *, #19, .T. ) ;
#9 = FACE_OUTER_BOUND ( 'NONE', #112, .T. ) ;
#10 = DIRECTION ( 'NONE',  ( 1.000000000000000000, 0.0000000000000000000, 0.0000000000000000000 ) ) ;
#11 = CIRCLE ( 'NONE', #196, 0.06250000000000002776 ) ;
#12 = CARTESIAN_POINT ( 'NONE',  ( 8.450062914116739989E-18, 0.0000000000000000000, 0.06900000000000000577 ) ) ;
#13 = DIRECTION ( 'NONE',  ( 1.224646799147353454E-16, 0.0000000000000000000, 1.000000000000000000 ) ) ;
#14 = CARTESIAN_POINT ( 'NONE',  ( 0.06250000000000006939, 7.654042494670963708E-18, 0.3583005925414273762 ) ) ;
#15 = CIRCLE ( 'NONE', #314, 0.06250000000000002776 ) ;
#16 = DIRECTION ( 'NONE',  ( 1.000000000000000000, 0.0000000000000000000, 0.0000000000000000000 ) ) ;
#17 = CARTESIAN_POINT ( 'NONE',  ( -0.04750000000000064587, 0.0000000000000000000, 1.500000000000000222 ) ) ;
#18 = DIRECTION ( 'NONE',  ( 1.000000000000000000, 0.0000000000000000000, -0.0000000000000000000 ) ) ;
#19 = EDGE_CURVE ( 'NONE', #55, #310, #116, .T. ) ;
#20 = CARTESIAN_POINT ( 'NONE',  ( 0.0000000000000000000, 0.0000000000000000000, 0.0000000000000000000 ) ) ;
#21 = AXIS2_PLACEMENT_3D ( 'NONE', #94, #58, #223 ) ;
#22 = CYLINDRICAL_SURFACE ( 'NONE', #21, 0.06250000000000002776 ) ;
#23 = ORIENTED_EDGE ( 'NONE', *, *, #2, .T. ) ;
#24 = ADVANCED_BREP_SHAPE_REPRESENTATION ( 'Micro_BMR-023-2', ( #36, #269 ), #191 ) ;
#25 = EDGE_CURVE ( 'NONE', #161, #48, #165, .T. ) ;
#26 =( LENGTH_UNIT ( ) NAMED_UNIT ( * ) SI_UNIT ( $, .METRE. ) );
#27 = EDGE_LOOP ( 'NONE', ( #276, #34, #283, #206 ) ) ;
#28 = VECTOR ( 'NONE', #119, 39.37007874015748143 ) ;
#29 = EDGE_CURVE ( 'NONE', #78, #55, #213, .T. ) ;
#30 = ORIENTED_EDGE ( 'NONE', *, *, #192, .F. ) ;
#31 = DIRECTION ( 'NONE',  ( 0.0000000000000000000, 1.000000000000000000, 0.0000000000000000000 ) ) ;
#32 = ORIENTED_EDGE ( 'NONE', *, *, #38, .F. ) ;
#33 = DIRECTION ( 'NONE',  ( 0.0000000000000000000, 0.0000000000000000000, 1.000000000000000000 ) ) ;
#34 = ORIENTED_EDGE ( 'NONE', *, *, #190, .T. ) ;
#35 = AXIS2_PLACEMENT_3D ( 'NONE', #163, #137, #259 ) ;
#36 = MANIFOLD_SOLID_BREP ( 'Fillet1', #47 ) ;
#37 = DIRECTION ( 'NONE',  ( -1.224646799147353454E-16, -0.0000000000000000000, -1.000000000000000000 ) ) ;
#38 = EDGE_CURVE ( 'NONE', #227, #127, #212, .T. ) ;
#39 =( CONVERSION_BASED_UNIT ( 'INCH', #261 ) LENGTH_UNIT ( ) NAMED_UNIT ( #74 ) );
#40 = AXIS2_PLACEMENT_3D ( 'NONE', #88, #13, #115 ) ;
#41 = STYLED_ITEM ( 'NONE', ( #316 ), #36 ) ;
#42 = DIRECTION ( 'NONE',  ( 0.0000000000000000000, 0.0000000000000000000, -1.000000000000000000 ) ) ;
#43 = CARTESIAN_POINT ( 'NONE',  ( 8.450062914116739989E-18, 0.0000000000000000000, 0.06900000000000000577 ) ) ;
#44 = CARTESIAN_POINT ( 'NONE',  ( 0.0000000000000000000, 0.0000000000000000000, 1.500000000000000222 ) ) ;
#45 = AXIS2_PLACEMENT_3D ( 'NONE', #300, #294, #198 ) ;
#46 = FACE_OUTER_BOUND ( 'NONE', #27, .T. ) ;
#47 = CLOSED_SHELL ( 'NONE', ( #321, #96, #95, #140, #297, #160, #202, #56, #91, #229, #317 ) ) ;
#48 = VERTEX_POINT ( 'NONE', #289 ) ;
#49 = CARTESIAN_POINT ( 'NONE',  ( 0.0000000000000000000, 0.0000000000000000000, 1.500000000000000222 ) ) ;
#50 = PRODUCT_DEFINITION ( 'UNKNOWN', '', #315, #228 ) ;
#51 = DIRECTION ( 'NONE',  ( 0.0000000000000000000, 0.0000000000000000000, 1.000000000000000000 ) ) ;
#52 = CARTESIAN_POINT ( 'NONE',  ( 2.110403212800655716E-18, 0.0000000000000000000, 0.0000000000000000000 ) ) ;
#53 = AXIS2_PLACEMENT_3D ( 'NONE', #120, #293, #219 ) ;
#54 = DIRECTION ( 'NONE',  ( -0.7071067811865462405, 0.0000000000000000000, -0.7071067811865486830 ) ) ;
#55 = VERTEX_POINT ( 'NONE', #166 ) ;
#56 = ADVANCED_FACE ( 'NONE', ( #193 ), #117, .T. ) ;
#57 = MECHANICAL_DESIGN_GEOMETRIC_PRESENTATION_REPRESENTATION (  '', ( #41 ), #280 ) ;
#58 = DIRECTION ( 'NONE',  ( -0.0000000000000000000, -0.0000000000000000000, -1.000000000000000000 ) ) ;
#59 = ORIENTED_EDGE ( 'NONE', *, *, #164, .T. ) ;
#60 =( NAMED_UNIT ( * ) PLANE_ANGLE_UNIT ( ) SI_UNIT ( $, .RADIAN. ) );
#61 = ORIENTED_EDGE ( 'NONE', *, *, #2, .F. ) ;
#62 = CARTESIAN_POINT ( 'NONE',  ( 0.01148850000000001086, 0.0000000000000000000, 0.06900000000000000577 ) ) ;
#63 = APPLICATION_PROTOCOL_DEFINITION ( 'draft international standard', 'automotive_design', 1998, #285 ) ;
#64 = DIRECTION ( 'NONE',  ( -1.224646799147353454E-16, -0.0000000000000000000, -1.000000000000000000 ) ) ;
#65 = EDGE_CURVE ( 'NONE', #78, #6, #312, .T. ) ;
#66 = CARTESIAN_POINT ( 'NONE',  ( 0.0000000000000000000, 0.0000000000000000000, 1.500000000000000222 ) ) ;
#67 = AXIS2_PLACEMENT_3D ( 'NONE', #267, #118, #323 ) ;
#68 = DIRECTION ( 'NONE',  ( -0.0000000000000000000, -0.0000000000000000000, -1.000000000000000000 ) ) ;
#69 = CARTESIAN_POINT ( 'NONE',  ( 1.406935475200437208E-18, 0.0000000000000000000, 0.01148850000000000218 ) ) ;
#70 = CIRCLE ( 'NONE', #201, 0.04750000000000064587 ) ;
#71 = FACE_OUTER_BOUND ( 'NONE', #184, .T. ) ;
#72 = CARTESIAN_POINT ( 'NONE',  ( 0.04750000000000064587, 6.735557395310483192E-18, 1.500000000000000222 ) ) ;
#73 = DIRECTION ( 'NONE',  ( 1.224646799147353207E-16, 1.000000000000000000, -0.0000000000000000000 ) ) ;
#74 = DIMENSIONAL_EXPONENTS ( 1.000000000000000000, 0.0000000000000000000, 0.0000000000000000000, 0.0000000000000000000, 0.0000000000000000000, 0.0000000000000000000, 0.0000000000000000000 ) ;
#75 = CIRCLE ( 'NONE', #35, 0.04750000000000064587 ) ;
#76 = FACE_OUTER_BOUND ( 'NONE', #235, .T. ) ;
#77 = ORIENTED_EDGE ( 'NONE', *, *, #19, .F. ) ;
#78 = VERTEX_POINT ( 'NONE', #62 ) ;
#79 = DIRECTION ( 'NONE',  ( 1.000000000000000000, 0.0000000000000000000, 0.0000000000000000000 ) ) ;
#80 = ORIENTED_EDGE ( 'NONE', *, *, #87, .F. ) ;
#81 = AXIS2_PLACEMENT_3D ( 'NONE', #199, #73, #176 ) ;
#82 = PRESENTATION_STYLE_ASSIGNMENT (( #178 ) ) ;
#83 = ORIENTED_EDGE ( 'NONE', *, *, #262, .F. ) ;
#84 = ORIENTED_EDGE ( 'NONE', *, *, #239, .F. ) ;
#85 = DIRECTION ( 'NONE',  ( 1.224646799147353454E-16, 0.0000000000000000000, 1.000000000000000000 ) ) ;
#86 = VECTOR ( 'NONE', #64, 39.37007874015748143 ) ;
#87 = EDGE_CURVE ( 'NONE', #227, #125, #75, .T. ) ;
#88 = CARTESIAN_POINT ( 'NONE',  ( 8.450062914116739989E-18, 0.0000000000000000000, 0.06900000000000000577 ) ) ;
#89 = SHAPE_DEFINITION_REPRESENTATION ( #186, #24 ) ;
#90 = SURFACE_STYLE_USAGE ( .BOTH. , #313 ) ;
#91 = ADVANCED_FACE ( 'NONE', ( #9 ), #237, .T. ) ;
#92 = CARTESIAN_POINT ( 'NONE',  ( 0.04750000000000064587, 5.817072295950006528E-18, 1.500000000000000222 ) ) ;
#93 =( NAMED_UNIT ( * ) SI_UNIT ( $, .STERADIAN. ) SOLID_ANGLE_UNIT ( ) );
#94 = CARTESIAN_POINT ( 'NONE',  ( 0.0000000000000000000, 0.0000000000000000000, 1.500000000000000222 ) ) ;
#95 = ADVANCED_FACE ( 'NONE', ( #240 ), #162, .T. ) ;
#96 = ADVANCED_FACE ( 'NONE', ( #292 ), #215, .T. ) ;
#97 = DIRECTION ( 'NONE',  ( 1.000000000000000000, 0.0000000000000000000, 0.0000000000000000000 ) ) ;
#98 = CARTESIAN_POINT ( 'NONE',  ( 0.01148849999999999871, 1.406935475200436630E-18, -1.406935475200436823E-18 ) ) ;
#99 = UNCERTAINTY_MEASURE_WITH_UNIT (LENGTH_MEASURE( 1.000000000000000082E-05 ), #179, 'distance_accuracy_value', 'NONE');
#100 = CARTESIAN_POINT ( 'NONE',  ( 0.06250000000000002776, 7.654042494670959086E-18, 1.485000000000000764 ) ) ;
#101 = EDGE_CURVE ( 'NONE', #55, #48, #138, .T. ) ;
#102 = PLANE ( 'NONE',  #135 ) ;
#103 = PRODUCT_RELATED_PRODUCT_CATEGORY ( 'part', '', ( #324 ) ) ;
#104 = STYLED_ITEM ( 'NONE', ( #82 ), #24 ) ;
#105 = LINE ( 'NONE', #303, #296 ) ;
#106 = ORIENTED_EDGE ( 'NONE', *, *, #143, .F. ) ;
#107 = CARTESIAN_POINT ( 'NONE',  ( 1.406935475200437208E-18, 0.0000000000000000000, 0.01148850000000000218 ) ) ;
#108 = EDGE_CURVE ( 'NONE', #48, #6, #279, .T. ) ;
#109 = ORIENTED_EDGE ( 'NONE', *, *, #65, .F. ) ;
#110 = SPHERICAL_SURFACE ( 'NONE', #243, 0.01148850000000000218 ) ;
#111 = VERTEX_POINT ( 'NONE', #172 ) ;
#112 = EDGE_LOOP ( 'NONE', ( #204, #256, #281, #1 ) ) ;
#113 = DIRECTION ( 'NONE',  ( 0.7071067811865462405, 8.659560562354916834E-17, -0.7071067811865486830 ) ) ;
#114 =( NAMED_UNIT ( * ) PLANE_ANGLE_UNIT ( ) SI_UNIT ( $, .RADIAN. ) );
#115 = DIRECTION ( 'NONE',  ( 1.000000000000000000, 0.0000000000000000000, 0.0000000000000000000 ) ) ;
#116 = LINE ( 'NONE', #134, #86 ) ;
#117 = CONICAL_SURFACE ( 'NONE', #274, 0.04750000000000064587, 0.7853981633974466137 ) ;
#118 = DIRECTION ( 'NONE',  ( 1.224646799147353454E-16, 0.0000000000000000000, 1.000000000000000000 ) ) ;
#119 = DIRECTION ( 'NONE',  ( -0.0000000000000000000, -0.0000000000000000000, -1.000000000000000000 ) ) ;
#120 = CARTESIAN_POINT ( 'NONE',  ( 4.387916737884590977E-17, 0.0000000000000000000, 0.3583005925414273762 ) ) ;
#121 = DIRECTION ( 'NONE',  ( -1.224646799147353454E-16, -0.0000000000000000000, -1.000000000000000000 ) ) ;
#122 = DIRECTION ( 'NONE',  ( -1.000000000000000000, 0.0000000000000000000, 0.0000000000000000000 ) ) ;
#123 = ORIENTED_EDGE ( 'NONE', *, *, #145, .T. ) ;
#124 = AXIS2_PLACEMENT_3D ( 'NONE', #69, #270, #218 ) ;
#125 = VERTEX_POINT ( 'NONE', #17 ) ;
#126 = VECTOR ( 'NONE', #287, 39.37007874015748143 ) ;
#127 = VERTEX_POINT ( 'NONE', #100 ) ;
#128 = FACE_OUTER_BOUND ( 'NONE', #3, .T. ) ;
#129 = ORIENTED_EDGE ( 'NONE', *, *, #182, .F. ) ;
#130 = CIRCLE ( 'NONE', #220, 0.01148850000000000218 ) ;
#131 = ORIENTED_EDGE ( 'NONE', *, *, #190, .F. ) ;
#132 = FILL_AREA_STYLE_COLOUR ( '', #157 ) ;
#133 = DIRECTION ( 'NONE',  ( -1.000000000000000000, 0.0000000000000000000, 0.0000000000000000000 ) ) ;
#134 = CARTESIAN_POINT ( 'NONE',  ( -0.01148849999999999871, 0.0000000000000000000, 1.406935475200436823E-18 ) ) ;
#135 = AXIS2_PLACEMENT_3D ( 'NONE', #246, #51, #18 ) ;
#136 = AXIS2_PLACEMENT_3D ( 'NONE', #12, #37, #133 ) ;
#137 = DIRECTION ( 'NONE',  ( 0.0000000000000000000, 0.0000000000000000000, 1.000000000000000000 ) ) ;
#138 = LINE ( 'NONE', #188, #211 ) ;
#139 = DIRECTION ( 'NONE',  ( 1.000000000000000000, 0.0000000000000000000, 0.0000000000000000000 ) ) ;
#140 = ADVANCED_FACE ( 'NONE', ( #273 ), #258, .T. ) ;
#141 = MECHANICAL_DESIGN_GEOMETRIC_PRESENTATION_REPRESENTATION (  '', ( #104 ), #225 ) ;
#142 = CARTESIAN_POINT ( 'NONE',  ( 0.06250000000000002776, 7.654042494670959086E-18, 1.500000000000000222 ) ) ;
#143 = EDGE_CURVE ( 'NONE', #78, #111, #247, .T. ) ;
#144 = CARTESIAN_POINT ( 'NONE',  ( 0.0000000000000000000, 0.0000000000000000000, 1.500000000000000222 ) ) ;
#145 = EDGE_CURVE ( 'NONE', #55, #78, #253, .T. ) ;
#146 = CYLINDRICAL_SURFACE ( 'NONE', #7, 0.01148849999999999871 ) ;
#147 = AXIS2_PLACEMENT_3D ( 'NONE', #43, #85, #10 ) ;
#148 = CARTESIAN_POINT ( 'NONE',  ( 4.387916737884590977E-17, 0.0000000000000000000, 0.3583005925414273762 ) ) ;
#149 = UNCERTAINTY_MEASURE_WITH_UNIT (LENGTH_MEASURE( 1.000000000000000082E-05 ), #226, 'distance_accuracy_value', 'NONE');
#150 = CARTESIAN_POINT ( 'NONE',  ( -0.01148849999999999698, 0.0000000000000000000, 0.01148850000000000392 ) ) ;
#151 = EDGE_LOOP ( 'NONE', ( #210, #305, #232, #254 ) ) ;
#152 = SURFACE_SIDE_STYLE ('',( #159 ) ) ;
#153 = EDGE_LOOP ( 'NONE', ( #80, #309, #84, #61 ) ) ;
#154 = LENGTH_MEASURE_WITH_UNIT ( LENGTH_MEASURE( 0.02539999999999999897 ), #26 );
#155 = VECTOR ( 'NONE', #174, 39.37007874015748143 ) ;
#156 = ORIENTED_EDGE ( 'NONE', *, *, #108, .T. ) ;
#157 = COLOUR_RGB ( '',0.7921568627450980005, 0.8196078431372548767, 0.9333333333333333481 ) ;
#158 = ORIENTED_EDGE ( 'NONE', *, *, #87, .T. ) ;
#159 = SURFACE_STYLE_FILL_AREA ( #205 ) ;
#160 = ADVANCED_FACE ( 'NONE', ( #46 ), #325, .T. ) ;
#161 = VERTEX_POINT ( 'NONE', #268 ) ;
#162 = CONICAL_SURFACE ( 'NONE', #40, 0.01148850000000000218, 0.1745329251994338915 ) ;
#163 = CARTESIAN_POINT ( 'NONE',  ( 0.0000000000000000000, 0.0000000000000000000, 1.500000000000000222 ) ) ;
#164 = EDGE_CURVE ( 'NONE', #111, #310, #311, .T. ) ;
#165 = LINE ( 'NONE', #214, #126 ) ;
#166 = CARTESIAN_POINT ( 'NONE',  ( -0.01148849999999999351, 4.530488984935698628E-18, 0.06900000000000000577 ) ) ;
#167 = CIRCLE ( 'NONE', #263, 0.06250000000000002776 ) ;
#168 = CARTESIAN_POINT ( 'NONE',  ( 0.0000000000000000000, 0.0000000000000000000, 0.0000000000000000000 ) ) ;
#169 = DIMENSIONAL_EXPONENTS ( 1.000000000000000000, 0.0000000000000000000, 0.0000000000000000000, 0.0000000000000000000, 0.0000000000000000000, 0.0000000000000000000, 0.0000000000000000000 ) ;
#170 = EDGE_CURVE ( 'NONE', #127, #6, #194, .T. ) ;
#171 = CARTESIAN_POINT ( 'NONE',  ( 0.0000000000000000000, 0.0000000000000000000, 1.485000000000000764 ) ) ;
#172 = CARTESIAN_POINT ( 'NONE',  ( 0.01148850000000000218, 1.406935475200436630E-18, 0.01148849999999999871 ) ) ;
#173 = VECTOR ( 'NONE', #113, 39.37007874015748854 ) ;
#174 = DIRECTION ( 'NONE',  ( -1.224646799147353454E-16, -0.0000000000000000000, -1.000000000000000000 ) ) ;
#175 = FACE_OUTER_BOUND ( 'NONE', #209, .T. ) ;
#176 = DIRECTION ( 'NONE',  ( -1.000000000000000000, 1.224646799147352961E-16, 0.0000000000000000000 ) ) ;
#177 = COLOUR_RGB ( '',0.7921568627450980005, 0.8196078431372548767, 0.9333333333333333481 ) ;
#178 = SURFACE_STYLE_USAGE ( .BOTH. , #152 ) ;
#179 =( CONVERSION_BASED_UNIT ( 'INCH', #275 ) LENGTH_UNIT ( ) NAMED_UNIT ( #265 ) );
#180 = EDGE_LOOP ( 'NONE', ( #32, #30, #23, #131 ) ) ;
#181 = ORIENTED_EDGE ( 'NONE', *, *, #101, .T. ) ;
#182 = EDGE_CURVE ( 'NONE', #278, #111, #130, .T. ) ;
#183 =( NAMED_UNIT ( * ) SI_UNIT ( $, .STERADIAN. ) SOLID_ANGLE_UNIT ( ) );
#184 = EDGE_LOOP ( 'NONE', ( #185, #158 ) ) ;
#185 = ORIENTED_EDGE ( 'NONE', *, *, #192, .T. ) ;
#186 = PRODUCT_DEFINITION_SHAPE ( 'NONE', 'NONE',  #50 ) ;
#187 = EDGE_LOOP ( 'NONE', ( #224, #181, #156, #109 ) ) ;
#188 = CARTESIAN_POINT ( 'NONE',  ( -0.01148849999999999351, 1.406935475200436823E-18, 0.06900000000000000577 ) ) ;
#189 = CARTESIAN_POINT ( 'NONE',  ( 0.01148850000000001086, 0.0000000000000000000, 0.06900000000000000577 ) ) ;
#190 = EDGE_CURVE ( 'NONE', #127, #161, #15, .T. ) ;
#191 =( GEOMETRIC_REPRESENTATION_CONTEXT ( 3 ) GLOBAL_UNCERTAINTY_ASSIGNED_CONTEXT ( ( #99 ) ) GLOBAL_UNIT_ASSIGNED_CONTEXT ( ( #179, #250, #183 ) ) REPRESENTATION_CONTEXT ( 'NONE', 'WORKASPACE' ) );
#192 = EDGE_CURVE ( 'NONE', #125, #227, #70, .T. ) ;
#193 = FACE_OUTER_BOUND ( 'NONE', #180, .T. ) ;
#194 = LINE ( 'NONE', #142, #28 ) ;
#195 = DIRECTION ( 'NONE',  ( 0.0000000000000000000, 0.0000000000000000000, 1.000000000000000000 ) ) ;
#196 = AXIS2_PLACEMENT_3D ( 'NONE', #171, #318, #16 ) ;
#197 = PRESENTATION_LAYER_ASSIGNMENT (  '', '', ( #41 ) ) ;
#198 = DIRECTION ( 'NONE',  ( -1.000000000000000000, 0.0000000000000000000, 0.0000000000000000000 ) ) ;
#199 = CARTESIAN_POINT ( 'NONE',  ( 1.406935475200437208E-18, 0.0000000000000000000, 0.01148850000000000218 ) ) ;
#200 = PRODUCT_CONTEXT ( 'NONE', #233, 'mechanical' ) ;
#201 = AXIS2_PLACEMENT_3D ( 'NONE', #44, #195, #295 ) ;
#202 = ADVANCED_FACE ( 'NONE', ( #71 ), #102, .T. ) ;
#203 = ORIENTED_EDGE ( 'NONE', *, *, #182, .T. ) ;
#204 = ORIENTED_EDGE ( 'NONE', *, *, #101, .F. ) ;
#205 = FILL_AREA_STYLE ('',( #282 ) ) ;
#206 = ORIENTED_EDGE ( 'NONE', *, *, #290, .F. ) ;
#207 =( LENGTH_UNIT ( ) NAMED_UNIT ( * ) SI_UNIT ( $, .METRE. ) );
#208 = AXIS2_PLACEMENT_3D ( 'NONE', #277, #301, #79 ) ;
#209 = EDGE_LOOP ( 'NONE', ( #106, #5, #8, #230 ) ) ;
#210 = ORIENTED_EDGE ( 'NONE', *, *, #239, .T. ) ;
#211 = VECTOR ( 'NONE', #241, 39.37007874015747433 ) ;
#212 = LINE ( 'NONE', #92, #173 ) ;
#213 = CIRCLE ( 'NONE', #136, 0.01148850000000000218 ) ;
#214 = CARTESIAN_POINT ( 'NONE',  ( -0.06250000000000002776, 0.0000000000000000000, 1.500000000000000222 ) ) ;
#215 = CYLINDRICAL_SURFACE ( 'NONE', #302, 0.01148849999999999871 ) ;
#216 = SURFACE_STYLE_FILL_AREA ( #238 ) ;
#217 = CARTESIAN_POINT ( 'NONE',  ( 1.406935475200437208E-18, 0.0000000000000000000, 0.01148850000000000218 ) ) ;
#218 = DIRECTION ( 'NONE',  ( -1.000000000000000000, 0.0000000000000000000, 1.857732728424255486E-16 ) ) ;
#219 = DIRECTION ( 'NONE',  ( 1.000000000000000000, 0.0000000000000000000, 0.0000000000000000000 ) ) ;
#220 = AXIS2_PLACEMENT_3D ( 'NONE', #217, #319, #244 ) ;
#221 = DIRECTION ( 'NONE',  ( -1.000000000000000000, 0.0000000000000000000, 1.224646799147353454E-16 ) ) ;
#222 = DIRECTION ( 'NONE',  ( -1.000000000000000000, 0.0000000000000000000, 0.0000000000000000000 ) ) ;
#223 = DIRECTION ( 'NONE',  ( -1.000000000000000000, 0.0000000000000000000, 0.0000000000000000000 ) ) ;
#224 = ORIENTED_EDGE ( 'NONE', *, *, #145, .F. ) ;
#225 =( GEOMETRIC_REPRESENTATION_CONTEXT ( 3 ) GLOBAL_UNCERTAINTY_ASSIGNED_CONTEXT ( ( #149 ) ) GLOBAL_UNIT_ASSIGNED_CONTEXT ( ( #226, #60, #304 ) ) REPRESENTATION_CONTEXT ( 'NONE', 'WORKASPACE' ) );
#226 =( CONVERSION_BASED_UNIT ( 'INCH', #154 ) LENGTH_UNIT ( ) NAMED_UNIT ( #169 ) );
#227 = VERTEX_POINT ( 'NONE', #72 ) ;
#228 = PRODUCT_DEFINITION_CONTEXT ( 'detailed design', #285, 'design' ) ;
#229 = ADVANCED_FACE ( 'NONE', ( #175 ), #146, .T. ) ;
#230 = ORIENTED_EDGE ( 'NONE', *, *, #245, .T. ) ;
#231 = DIRECTION ( 'NONE',  ( 1.000000000000000000, 0.0000000000000000000, 0.0000000000000000000 ) ) ;
#232 = ORIENTED_EDGE ( 'NONE', *, *, #108, .F. ) ;
#233 = APPLICATION_CONTEXT ( 'automotive_design' ) ;
#234 = SPHERICAL_SURFACE ( 'NONE', #208, 0.01148850000000000218 ) ;
#235 = EDGE_LOOP ( 'NONE', ( #129, #307, #251 ) ) ;
#236 =( LENGTH_UNIT ( ) NAMED_UNIT ( * ) SI_UNIT ( $, .METRE. ) );
#237 = CONICAL_SURFACE ( 'NONE', #147, 0.01148850000000000218, 0.1745329251994338915 ) ;
#238 = FILL_AREA_STYLE ('',( #132 ) ) ;
#239 = EDGE_CURVE ( 'NONE', #161, #127, #11, .T. ) ;
#240 = FACE_OUTER_BOUND ( 'NONE', #187, .T. ) ;
#241 = DIRECTION ( 'NONE',  ( -0.1736481776669311916, 2.126576849575783316E-17, 0.9848077530122080203 ) ) ;
#242 = FACE_OUTER_BOUND ( 'NONE', #151, .T. ) ;
#243 = AXIS2_PLACEMENT_3D ( 'NONE', #107, #31, #231 ) ;
#244 = DIRECTION ( 'NONE',  ( 0.0000000000000000000, 0.0000000000000000000, -1.000000000000000000 ) ) ;
#245 = EDGE_CURVE ( 'NONE', #310, #111, #308, .T. ) ;
#246 = CARTESIAN_POINT ( 'NONE',  ( 0.0000000000000000000, 0.0000000000000000000, 1.500000000000000222 ) ) ;
#247 = LINE ( 'NONE', #98, #155 ) ;
#248 = VECTOR ( 'NONE', #264, 39.37007874015748143 ) ;
#249 = DIRECTION ( 'NONE',  ( -1.224646799147353454E-16, -0.0000000000000000000, -1.000000000000000000 ) ) ;
#250 =( NAMED_UNIT ( * ) PLANE_ANGLE_UNIT ( ) SI_UNIT ( $, .RADIAN. ) );
#251 = ORIENTED_EDGE ( 'NONE', *, *, #164, .F. ) ;
#252 = ORIENTED_EDGE ( 'NONE', *, *, #143, .T. ) ;
#253 = CIRCLE ( 'NONE', #45, 0.01148850000000000218 ) ;
#254 = ORIENTED_EDGE ( 'NONE', *, *, #25, .F. ) ;
#255 = APPLICATION_PROTOCOL_DEFINITION ( 'draft international standard', 'automotive_design', 1998, #233 ) ;
#256 = ORIENTED_EDGE ( 'NONE', *, *, #29, .F. ) ;
#257 = EDGE_LOOP ( 'NONE', ( #123, #252, #59, #77 ) ) ;
#258 = CONICAL_SURFACE ( 'NONE', #291, 0.04750000000000064587, 0.7853981633974466137 ) ;
#259 = DIRECTION ( 'NONE',  ( 1.000000000000000000, 0.0000000000000000000, 0.0000000000000000000 ) ) ;
#260 = DIRECTION ( 'NONE',  ( -1.000000000000000000, 0.0000000000000000000, 0.0000000000000000000 ) ) ;
#261 = LENGTH_MEASURE_WITH_UNIT ( LENGTH_MEASURE( 0.02539999999999999897 ), #236 );
#262 = EDGE_CURVE ( 'NONE', #278, #310, #322, .T. ) ;
#263 = AXIS2_PLACEMENT_3D ( 'NONE', #148, #249, #139 ) ;
#264 = DIRECTION ( 'NONE',  ( 0.1736481776669313859, 0.0000000000000000000, 0.9848077530122077983 ) ) ;
#265 = DIMENSIONAL_EXPONENTS ( 1.000000000000000000, 0.0000000000000000000, 0.0000000000000000000, 0.0000000000000000000, 0.0000000000000000000, 0.0000000000000000000, 0.0000000000000000000 ) ;
#266 = DIRECTION ( 'NONE',  ( -1.000000000000000000, 0.0000000000000000000, 1.224646799147353454E-16 ) ) ;
#267 = CARTESIAN_POINT ( 'NONE',  ( 1.406935475200437208E-18, 0.0000000000000000000, 0.01148850000000000218 ) ) ;
#268 = CARTESIAN_POINT ( 'NONE',  ( -0.06250000000000002776, 0.0000000000000000000, 1.485000000000000764 ) ) ;
#269 = AXIS2_PLACEMENT_3D ( 'NONE', #4, #33, #306 ) ;
#270 = DIRECTION ( 'NONE',  ( 1.224646799147353454E-16, 0.0000000000000000000, 1.000000000000000000 ) ) ;
#271 = UNCERTAINTY_MEASURE_WITH_UNIT (LENGTH_MEASURE( 1.000000000000000082E-05 ), #39, 'distance_accuracy_value', 'NONE');
#272 = DIRECTION ( 'NONE',  ( 0.0000000000000000000, 0.0000000000000000000, -1.000000000000000000 ) ) ;
#273 = FACE_OUTER_BOUND ( 'NONE', #153, .T. ) ;
#274 = AXIS2_PLACEMENT_3D ( 'NONE', #66, #42, #260 ) ;
#275 = LENGTH_MEASURE_WITH_UNIT ( LENGTH_MEASURE( 0.02539999999999999897 ), #207 );
#276 = ORIENTED_EDGE ( 'NONE', *, *, #170, .F. ) ;
#277 = CARTESIAN_POINT ( 'NONE',  ( 1.406935475200437208E-18, 0.0000000000000000000, 0.01148850000000000218 ) ) ;
#278 = VERTEX_POINT ( 'NONE', #52 ) ;
#279 = CIRCLE ( 'NONE', #53, 0.06250000000000002776 ) ;
#280 =( GEOMETRIC_REPRESENTATION_CONTEXT ( 3 ) GLOBAL_UNCERTAINTY_ASSIGNED_CONTEXT ( ( #271 ) ) GLOBAL_UNIT_ASSIGNED_CONTEXT ( ( #39, #114, #93 ) ) REPRESENTATION_CONTEXT ( 'NONE', 'WORKASPACE' ) );
#281 = ORIENTED_EDGE ( 'NONE', *, *, #65, .T. ) ;
#282 = FILL_AREA_STYLE_COLOUR ( '', #177 ) ;
#283 = ORIENTED_EDGE ( 'NONE', *, *, #25, .T. ) ;
#284 = ORIENTED_EDGE ( 'NONE', *, *, #245, .F. ) ;
#285 = APPLICATION_CONTEXT ( 'automotive_design' ) ;
#286 = PRESENTATION_LAYER_ASSIGNMENT (  '', '', ( #104 ) ) ;
#287 = DIRECTION ( 'NONE',  ( -0.0000000000000000000, -0.0000000000000000000, -1.000000000000000000 ) ) ;
#288 = DIRECTION ( 'NONE',  ( -1.224646799147353454E-16, -0.0000000000000000000, -1.000000000000000000 ) ) ;
#289 = CARTESIAN_POINT ( 'NONE',  ( -0.06249999999999997918, 0.0000000000000000000, 0.3583005925414273762 ) ) ;
#290 = EDGE_CURVE ( 'NONE', #6, #48, #167, .T. ) ;
#291 = AXIS2_PLACEMENT_3D ( 'NONE', #144, #320, #222 ) ;
#292 = FACE_OUTER_BOUND ( 'NONE', #257, .T. ) ;
#293 = DIRECTION ( 'NONE',  ( -1.224646799147353454E-16, -0.0000000000000000000, -1.000000000000000000 ) ) ;
#294 = DIRECTION ( 'NONE',  ( -1.224646799147353454E-16, -0.0000000000000000000, -1.000000000000000000 ) ) ;
#295 = DIRECTION ( 'NONE',  ( 1.000000000000000000, 0.0000000000000000000, 0.0000000000000000000 ) ) ;
#296 = VECTOR ( 'NONE', #54, 39.37007874015748854 ) ;
#297 = ADVANCED_FACE ( 'NONE', ( #242 ), #22, .T. ) ;
#298 = AXIS2_PLACEMENT_3D ( 'NONE', #49, #68, #122 ) ;
#299 = CARTESIAN_POINT ( 'NONE',  ( 0.0000000000000000000, 0.0000000000000000000, 1.485000000000000764 ) ) ;
#300 = CARTESIAN_POINT ( 'NONE',  ( 8.450062914116739989E-18, 0.0000000000000000000, 0.06900000000000000577 ) ) ;
#301 = DIRECTION ( 'NONE',  ( 0.0000000000000000000, 1.000000000000000000, 0.0000000000000000000 ) ) ;
#302 = AXIS2_PLACEMENT_3D ( 'NONE', #168, #288, #266 ) ;
#303 = CARTESIAN_POINT ( 'NONE',  ( -0.04750000000000064587, 0.0000000000000000000, 1.500000000000000222 ) ) ;
#304 =( NAMED_UNIT ( * ) SI_UNIT ( $, .STERADIAN. ) SOLID_ANGLE_UNIT ( ) );
#305 = ORIENTED_EDGE ( 'NONE', *, *, #170, .T. ) ;
#306 = DIRECTION ( 'NONE',  ( 1.000000000000000000, 0.0000000000000000000, 0.0000000000000000000 ) ) ;
#307 = ORIENTED_EDGE ( 'NONE', *, *, #262, .T. ) ;
#308 = CIRCLE ( 'NONE', #67, 0.01148849999999999871 ) ;
#309 = ORIENTED_EDGE ( 'NONE', *, *, #38, .T. ) ;
#310 = VERTEX_POINT ( 'NONE', #150 ) ;
#311 = CIRCLE ( 'NONE', #124, 0.01148849999999999871 ) ;
#312 = LINE ( 'NONE', #189, #248 ) ;
#313 = SURFACE_SIDE_STYLE ('',( #216 ) ) ;
#314 = AXIS2_PLACEMENT_3D ( 'NONE', #299, #272, #97 ) ;
#315 = PRODUCT_DEFINITION_FORMATION_WITH_SPECIFIED_SOURCE ( 'ANY', '', #324, .NOT_KNOWN. ) ;
#316 = PRESENTATION_STYLE_ASSIGNMENT (( #90 ) ) ;
#317 = ADVANCED_FACE ( 'NONE', ( #128 ), #110, .T. ) ;
#318 = DIRECTION ( 'NONE',  ( 0.0000000000000000000, 0.0000000000000000000, -1.000000000000000000 ) ) ;
#319 = DIRECTION ( 'NONE',  ( 0.0000000000000000000, -1.000000000000000000, 0.0000000000000000000 ) ) ;
#320 = DIRECTION ( 'NONE',  ( 0.0000000000000000000, 0.0000000000000000000, -1.000000000000000000 ) ) ;
#321 = ADVANCED_FACE ( 'NONE', ( #76 ), #234, .T. ) ;
#322 = CIRCLE ( 'NONE', #81, 0.01148850000000000218 ) ;
#323 = DIRECTION ( 'NONE',  ( -1.000000000000000000, 0.0000000000000000000, 1.857732728424255486E-16 ) ) ;
#324 = PRODUCT ( 'Micro_BMR-023-2', 'Micro_BMR-023-2', '', ( #200 ) ) ;
#325 = CYLINDRICAL_SURFACE ( 'NONE', #298, 0.06250000000000002776 ) ;
ENDSEC;
END-ISO-10303-21;
