ISO-10303-21;
HEADER;
FILE_DESCRIPTION (( 'STEP AP214' ),
    '1' );
FILE_NAME ('Micro_EMS-062-3.STEP',
    '2021-09-01T17:34:23',
    ( '' ),
    ( '' ),
    'SwSTEP 2.0',
    'SolidWorks 2020',
    '' );
FILE_SCHEMA (( 'AUTOMOTIVE_DESIGN' ));
ENDSEC;

DATA;
#1 = PRODUCT_CONTEXT ( 'NONE', #195, 'mechanical' ) ;
#2 = ORIENTED_EDGE ( 'NONE', *, *, #282, .F. ) ;
#3 = PRESENTATION_LAYER_ASSIGNMENT (  '', '', ( #168 ) ) ;
#4 = DIRECTION ( 'NONE',  ( -1.000000000000000000, 0.0000000000000000000, 0.0000000000000000000 ) ) ;
#5 = ORIENTED_EDGE ( 'NONE', *, *, #108, .F. ) ;
#6 = EDGE_CURVE ( 'NONE', #236, #37, #199, .T. ) ;
#7 = VERTEX_POINT ( 'NONE', #31 ) ;
#8 = AXIS2_PLACEMENT_3D ( 'NONE', #69, #247, #226 ) ;
#9 =( GEOMETRIC_REPRESENTATION_CONTEXT ( 3 ) GLOBAL_UNCERTAINTY_ASSIGNED_CONTEXT ( ( #76 ) ) GLOBAL_UNIT_ASSIGNED_CONTEXT ( ( #185, #251, #210 ) ) REPRESENTATION_CONTEXT ( 'NONE', 'WORKASPACE' ) );
#10 = ORIENTED_EDGE ( 'NONE', *, *, #158, .T. ) ;
#11 = ADVANCED_BREP_SHAPE_REPRESENTATION ( 'Micro_EMS-062-3', ( #101, #130 ), #9 ) ;
#12 = ADVANCED_FACE ( 'NONE', ( #220 ), #61, .T. ) ;
#13 = FACE_OUTER_BOUND ( 'NONE', #29, .T. ) ;
#14 = CARTESIAN_POINT ( 'NONE',  ( 0.0000000000000000000, 0.0000000000000000000, 1.500000000000000222 ) ) ;
#15 = AXIS2_PLACEMENT_3D ( 'NONE', #253, #224, #28 ) ;
#16 = CARTESIAN_POINT ( 'NONE',  ( -0.03121874999999998609, 5.738618360379552157E-18, 0.1880000000000000282 ) ) ;
#17 = DIRECTION ( 'NONE',  ( 1.224646799147353700E-16, 0.0000000000000000000, 1.000000000000000000 ) ) ;
#18 = SURFACE_STYLE_USAGE ( .BOTH. , #206 ) ;
#19 = DIMENSIONAL_EXPONENTS ( 1.000000000000000000, 0.0000000000000000000, 0.0000000000000000000, 0.0000000000000000000, 0.0000000000000000000, 0.0000000000000000000, 0.0000000000000000000 ) ;
#20 = CARTESIAN_POINT ( 'NONE',  ( 2.302335982397025094E-17, 0.0000000000000000000, 0.1880000000000000282 ) ) ;
#21 = CARTESIAN_POINT ( 'NONE',  ( 0.03121875000000002773, 0.0000000000000000000, 0.1880000000000000282 ) ) ;
#22 = FACE_OUTER_BOUND ( 'NONE', #232, .T. ) ;
#23 = CARTESIAN_POINT ( 'NONE',  ( 2.302335982397025094E-17, 0.0000000000000000000, 0.1880000000000000282 ) ) ;
#24 = EDGE_CURVE ( 'NONE', #194, #7, #35, .T. ) ;
#25 = DIRECTION ( 'NONE',  ( -1.224646799147353700E-16, -0.0000000000000000000, -1.000000000000000000 ) ) ;
#26 = SURFACE_STYLE_FILL_AREA ( #93 ) ;
#27 = ORIENTED_EDGE ( 'NONE', *, *, #248, .T. ) ;
#28 = DIRECTION ( 'NONE',  ( -1.000000000000000000, 0.0000000000000000000, 0.0000000000000000000 ) ) ;
#29 = EDGE_LOOP ( 'NONE', ( #2, #274, #265, #266 ) ) ;
#30 = VECTOR ( 'NONE', #155, 39.37007874015748143 ) ;
#31 = CARTESIAN_POINT ( 'NONE',  ( -0.06250000000000002776, 0.0000000000000000000, 1.485000000000000764 ) ) ;
#32 = FACE_OUTER_BOUND ( 'NONE', #180, .T. ) ;
#33 = ORIENTED_EDGE ( 'NONE', *, *, #103, .T. ) ;
#34 = VECTOR ( 'NONE', #296, 39.37007874015748854 ) ;
#35 = LINE ( 'NONE', #132, #191 ) ;
#36 = CARTESIAN_POINT ( 'NONE',  ( 0.06250000000000002776, 7.654042494670959086E-18, 1.500000000000000222 ) ) ;
#37 = VERTEX_POINT ( 'NONE', #239 ) ;
#38 = AXIS2_PLACEMENT_3D ( 'NONE', #116, #40, #275 ) ;
#39 = DIMENSIONAL_EXPONENTS ( 1.000000000000000000, 0.0000000000000000000, 0.0000000000000000000, 0.0000000000000000000, 0.0000000000000000000, 0.0000000000000000000, 0.0000000000000000000 ) ;
#40 = DIRECTION ( 'NONE',  ( 0.0000000000000000000, 0.0000000000000000000, 1.000000000000000000 ) ) ;
#41 = ADVANCED_FACE ( 'NONE', ( #13 ), #75, .T. ) ;
#42 = FACE_OUTER_BOUND ( 'NONE', #127, .T. ) ;
#43 = CIRCLE ( 'NONE', #8, 0.06250000000000002776 ) ;
#44 = CONICAL_SURFACE ( 'NONE', #109, 0.03121875000000000691, 0.1745329251994338915 ) ;
#45 = DIRECTION ( 'NONE',  ( 0.1736481776669313859, 0.0000000000000000000, 0.9848077530122077983 ) ) ;
#46 = PRESENTATION_STYLE_ASSIGNMENT (( #18 ) ) ;
#47 = FILL_AREA_STYLE_COLOUR ( '', #219 ) ;
#48 = VERTEX_POINT ( 'NONE', #16 ) ;
#49 = AXIS2_PLACEMENT_3D ( 'NONE', #126, #280, #237 ) ;
#50 = AXIS2_PLACEMENT_3D ( 'NONE', #139, #17, #294 ) ;
#51 = ADVANCED_FACE ( 'NONE', ( #159 ), #110, .T. ) ;
#52 = UNCERTAINTY_MEASURE_WITH_UNIT (LENGTH_MEASURE( 1.000000000000000082E-05 ), #85, 'distance_accuracy_value', 'NONE');
#53 = CARTESIAN_POINT ( 'NONE',  ( 4.682062571497491304E-34, 0.0000000000000000000, 3.823194226088145228E-18 ) ) ;
#54 = FACE_OUTER_BOUND ( 'NONE', #94, .T. ) ;
#55 = MECHANICAL_DESIGN_GEOMETRIC_PRESENTATION_REPRESENTATION (  '', ( #168 ), #92 ) ;
#56 = CARTESIAN_POINT ( 'NONE',  ( -0.03121875000000000691, 0.0000000000000000000, 3.823194226088145998E-18 ) ) ;
#57 = ORIENTED_EDGE ( 'NONE', *, *, #186, .F. ) ;
#58 = DIRECTION ( 'NONE',  ( -0.0000000000000000000, -0.0000000000000000000, -1.000000000000000000 ) ) ;
#59 = AXIS2_PLACEMENT_3D ( 'NONE', #14, #243, #133 ) ;
#60 = AXIS2_PLACEMENT_3D ( 'NONE', #203, #164, #249 ) ;
#61 = CYLINDRICAL_SURFACE ( 'NONE', #97, 0.06250000000000002776 ) ;
#62 = EDGE_LOOP ( 'NONE', ( #131, #82 ) ) ;
#63 = DIRECTION ( 'NONE',  ( -1.000000000000000000, 0.0000000000000000000, 1.224646799147353700E-16 ) ) ;
#64 =( NAMED_UNIT ( * ) PLANE_ANGLE_UNIT ( ) SI_UNIT ( $, .RADIAN. ) );
#65 = AXIS2_PLACEMENT_3D ( 'NONE', #53, #293, #250 ) ;
#66 =( GEOMETRIC_REPRESENTATION_CONTEXT ( 3 ) GLOBAL_UNCERTAINTY_ASSIGNED_CONTEXT ( ( #52 ) ) GLOBAL_UNIT_ASSIGNED_CONTEXT ( ( #85, #64, #135 ) ) REPRESENTATION_CONTEXT ( 'NONE', 'WORKASPACE' ) );
#67 = CARTESIAN_POINT ( 'NONE',  ( 0.04750000000000064587, 5.817072295950006528E-18, 1.500000000000000222 ) ) ;
#68 = CARTESIAN_POINT ( 'NONE',  ( 0.03121874999999999997, 3.823194226088143687E-18, -4.739000847409537175E-34 ) ) ;
#69 = CARTESIAN_POINT ( 'NONE',  ( 4.474917996329784544E-17, 0.0000000000000000000, 0.3654047844199155848 ) ) ;
#70 = PLANE ( 'NONE',  #60 ) ;
#71 = LENGTH_MEASURE_WITH_UNIT ( LENGTH_MEASURE( 0.02539999999999999897 ), #295 );
#72 = ORIENTED_EDGE ( 'NONE', *, *, #282, .T. ) ;
#73 = DIRECTION ( 'NONE',  ( -1.224646799147353700E-16, -0.0000000000000000000, -1.000000000000000000 ) ) ;
#74 =( LENGTH_UNIT ( ) NAMED_UNIT ( * ) SI_UNIT ( $, .METRE. ) );
#75 = CONICAL_SURFACE ( 'NONE', #235, 0.04750000000000064587, 0.7853981633974466137 ) ;
#76 = UNCERTAINTY_MEASURE_WITH_UNIT (LENGTH_MEASURE( 1.000000000000000082E-05 ), #185, 'distance_accuracy_value', 'NONE');
#77 = CARTESIAN_POINT ( 'NONE',  ( 0.0000000000000000000, 0.0000000000000000000, 0.0000000000000000000 ) ) ;
#78 = APPLICATION_PROTOCOL_DEFINITION ( 'draft international standard', 'automotive_design', 1998, #136 ) ;
#79 = CARTESIAN_POINT ( 'NONE',  ( 0.03121875000000002773, 0.0000000000000000000, 0.1880000000000000282 ) ) ;
#80 = ORIENTED_EDGE ( 'NONE', *, *, #103, .F. ) ;
#81 = ORIENTED_EDGE ( 'NONE', *, *, #24, .F. ) ;
#82 = ORIENTED_EDGE ( 'NONE', *, *, #175, .T. ) ;
#83 = VERTEX_POINT ( 'NONE', #79 ) ;
#84 = EDGE_CURVE ( 'NONE', #48, #264, #176, .T. ) ;
#85 =( CONVERSION_BASED_UNIT ( 'INCH', #71 ) LENGTH_UNIT ( ) NAMED_UNIT ( #19 ) );
#86 = DIRECTION ( 'NONE',  ( -1.224646799147353700E-16, -0.0000000000000000000, -1.000000000000000000 ) ) ;
#87 = LINE ( 'NONE', #21, #227 ) ;
#88 = ADVANCED_FACE ( 'NONE', ( #238 ), #129, .T. ) ;
#89 = CARTESIAN_POINT ( 'NONE',  ( 0.0000000000000000000, 0.0000000000000000000, 1.485000000000000764 ) ) ;
#90 = DIRECTION ( 'NONE',  ( -0.0000000000000000000, -0.0000000000000000000, -1.000000000000000000 ) ) ;
#91 = DIMENSIONAL_EXPONENTS ( 1.000000000000000000, 0.0000000000000000000, 0.0000000000000000000, 0.0000000000000000000, 0.0000000000000000000, 0.0000000000000000000, 0.0000000000000000000 ) ;
#92 =( GEOMETRIC_REPRESENTATION_CONTEXT ( 3 ) GLOBAL_UNCERTAINTY_ASSIGNED_CONTEXT ( ( #233 ) ) GLOBAL_UNIT_ASSIGNED_CONTEXT ( ( #273, #122, #171 ) ) REPRESENTATION_CONTEXT ( 'NONE', 'WORKASPACE' ) );
#93 = FILL_AREA_STYLE ('',( #47 ) ) ;
#94 = EDGE_LOOP ( 'NONE', ( #57, #72, #125, #81 ) ) ;
#95 = CARTESIAN_POINT ( 'NONE',  ( -0.03121874999999998609, 3.823194226088144458E-18, 0.1880000000000000282 ) ) ;
#96 = APPLICATION_PROTOCOL_DEFINITION ( 'draft international standard', 'automotive_design', 1998, #195 ) ;
#97 = AXIS2_PLACEMENT_3D ( 'NONE', #134, #58, #242 ) ;
#98 = CONICAL_SURFACE ( 'NONE', #50, 0.03121875000000000691, 0.1745329251994338915 ) ;
#99 = CARTESIAN_POINT ( 'NONE',  ( -0.06250000000000002776, 0.0000000000000000000, 1.500000000000000222 ) ) ;
#100 = ORIENTED_EDGE ( 'NONE', *, *, #254, .F. ) ;
#101 = MANIFOLD_SOLID_BREP ( 'Cut-Revolve1', #172 ) ;
#102 = ORIENTED_EDGE ( 'NONE', *, *, #158, .F. ) ;
#103 = EDGE_CURVE ( 'NONE', #37, #196, #43, .T. ) ;
#104 = VERTEX_POINT ( 'NONE', #68 ) ;
#105 = CARTESIAN_POINT ( 'NONE',  ( 0.0000000000000000000, 0.0000000000000000000, 1.500000000000000222 ) ) ;
#106 = ORIENTED_EDGE ( 'NONE', *, *, #120, .T. ) ;
#107 = AXIS2_PLACEMENT_3D ( 'NONE', #20, #25, #234 ) ;
#108 = EDGE_CURVE ( 'NONE', #83, #48, #167, .T. ) ;
#109 = AXIS2_PLACEMENT_3D ( 'NONE', #23, #166, #141 ) ;
#110 = PLANE ( 'NONE',  #59 ) ;
#111 = DIRECTION ( 'NONE',  ( -1.224646799147353700E-16, -0.0000000000000000000, -1.000000000000000000 ) ) ;
#112 = FILL_AREA_STYLE_COLOUR ( '', #299 ) ;
#113 = VECTOR ( 'NONE', #188, 39.37007874015747433 ) ;
#114 = AXIS2_PLACEMENT_3D ( 'NONE', #213, #192, #4 ) ;
#115 = FACE_OUTER_BOUND ( 'NONE', #62, .T. ) ;
#116 = CARTESIAN_POINT ( 'NONE',  ( 0.0000000000000000000, 0.0000000000000000000, 1.500000000000000222 ) ) ;
#117 = DIRECTION ( 'NONE',  ( 0.0000000000000000000, 0.0000000000000000000, 1.000000000000000000 ) ) ;
#118 = DIRECTION ( 'NONE',  ( -1.000000000000000000, 0.0000000000000000000, 0.0000000000000000000 ) ) ;
#119 = DIRECTION ( 'NONE',  ( -0.0000000000000000000, -0.0000000000000000000, -1.000000000000000000 ) ) ;
#120 = EDGE_CURVE ( 'NONE', #196, #37, #267, .T. ) ;
#121 = VECTOR ( 'NONE', #86, 39.37007874015748143 ) ;
#122 =( NAMED_UNIT ( * ) PLANE_ANGLE_UNIT ( ) SI_UNIT ( $, .RADIAN. ) );
#123 = LINE ( 'NONE', #289, #121 ) ;
#124 = EDGE_CURVE ( 'NONE', #48, #196, #137, .T. ) ;
#125 = ORIENTED_EDGE ( 'NONE', *, *, #182, .F. ) ;
#126 = CARTESIAN_POINT ( 'NONE',  ( 0.0000000000000000000, 0.0000000000000000000, 1.485000000000000764 ) ) ;
#127 = EDGE_LOOP ( 'NONE', ( #255, #5, #178, #33 ) ) ;
#128 = CARTESIAN_POINT ( 'NONE',  ( 0.06250000000000002776, 7.654042494670959086E-18, 1.485000000000000764 ) ) ;
#129 = CYLINDRICAL_SURFACE ( 'NONE', #201, 0.06250000000000002776 ) ;
#130 = AXIS2_PLACEMENT_3D ( 'NONE', #151, #153, #147 ) ;
#131 = ORIENTED_EDGE ( 'NONE', *, *, #189, .T. ) ;
#132 = CARTESIAN_POINT ( 'NONE',  ( -0.04750000000000064587, 0.0000000000000000000, 1.500000000000000222 ) ) ;
#133 = DIRECTION ( 'NONE',  ( 1.000000000000000000, 0.0000000000000000000, -0.0000000000000000000 ) ) ;
#134 = CARTESIAN_POINT ( 'NONE',  ( 0.0000000000000000000, 0.0000000000000000000, 1.500000000000000222 ) ) ;
#135 =( NAMED_UNIT ( * ) SI_UNIT ( $, .STERADIAN. ) SOLID_ANGLE_UNIT ( ) );
#136 = APPLICATION_CONTEXT ( 'automotive_design' ) ;
#137 = LINE ( 'NONE', #95, #113 ) ;
#138 = ADVANCED_FACE ( 'NONE', ( #22 ), #165, .T. ) ;
#139 = CARTESIAN_POINT ( 'NONE',  ( 2.302335982397025094E-17, 0.0000000000000000000, 0.1880000000000000282 ) ) ;
#140 = DIRECTION ( 'NONE',  ( 1.000000000000000000, 0.0000000000000000000, 0.0000000000000000000 ) ) ;
#141 = DIRECTION ( 'NONE',  ( 1.000000000000000000, 0.0000000000000000000, 0.0000000000000000000 ) ) ;
#142 = PRESENTATION_STYLE_ASSIGNMENT (( #145 ) ) ;
#143 = VECTOR ( 'NONE', #154, 39.37007874015748143 ) ;
#144 = CONICAL_SURFACE ( 'NONE', #114, 0.04750000000000064587, 0.7853981633974466137 ) ;
#145 = SURFACE_STYLE_USAGE ( .BOTH. , #169 ) ;
#146 = CARTESIAN_POINT ( 'NONE',  ( 4.474917996329784544E-17, 0.0000000000000000000, 0.3654047844199155848 ) ) ;
#147 = DIRECTION ( 'NONE',  ( 1.000000000000000000, 0.0000000000000000000, 0.0000000000000000000 ) ) ;
#148 = ORIENTED_EDGE ( 'NONE', *, *, #211, .T. ) ;
#149 = LINE ( 'NONE', #99, #287 ) ;
#150 = PRODUCT_DEFINITION_CONTEXT ( 'detailed design', #136, 'design' ) ;
#151 = CARTESIAN_POINT ( 'NONE',  ( 0.0000000000000000000, 0.0000000000000000000, 0.0000000000000000000 ) ) ;
#152 = PRODUCT_DEFINITION_SHAPE ( 'NONE', 'NONE',  #258 ) ;
#153 = DIRECTION ( 'NONE',  ( 0.0000000000000000000, 0.0000000000000000000, 1.000000000000000000 ) ) ;
#154 = DIRECTION ( 'NONE',  ( -1.224646799147353700E-16, -0.0000000000000000000, -1.000000000000000000 ) ) ;
#155 = DIRECTION ( 'NONE',  ( -0.0000000000000000000, -0.0000000000000000000, -1.000000000000000000 ) ) ;
#156 = AXIS2_PLACEMENT_3D ( 'NONE', #223, #117, #225 ) ;
#157 = ORIENTED_EDGE ( 'NONE', *, *, #186, .T. ) ;
#158 = EDGE_CURVE ( 'NONE', #48, #83, #229, .T. ) ;
#159 = FACE_OUTER_BOUND ( 'NONE', #177, .T. ) ;
#160 = ORIENTED_EDGE ( 'NONE', *, *, #298, .T. ) ;
#161 = DIRECTION ( 'NONE',  ( 0.0000000000000000000, 0.0000000000000000000, -1.000000000000000000 ) ) ;
#162 = CIRCLE ( 'NONE', #49, 0.06250000000000002776 ) ;
#163 = DIRECTION ( 'NONE',  ( -1.224646799147353700E-16, -0.0000000000000000000, -1.000000000000000000 ) ) ;
#164 = DIRECTION ( 'NONE',  ( 0.0000000000000000000, 0.0000000000000000000, 1.000000000000000000 ) ) ;
#165 = CYLINDRICAL_SURFACE ( 'NONE', #241, 0.03121875000000000691 ) ;
#166 = DIRECTION ( 'NONE',  ( 1.224646799147353700E-16, 0.0000000000000000000, 1.000000000000000000 ) ) ;
#167 = CIRCLE ( 'NONE', #107, 0.03121875000000000691 ) ;
#168 = STYLED_ITEM ( 'NONE', ( #142 ), #11 ) ;
#169 = SURFACE_SIDE_STYLE ('',( #26 ) ) ;
#170 = ORIENTED_EDGE ( 'NONE', *, *, #182, .T. ) ;
#171 =( NAMED_UNIT ( * ) SI_UNIT ( $, .STERADIAN. ) SOLID_ANGLE_UNIT ( ) );
#172 = CLOSED_SHELL ( 'NONE', ( #138, #262, #240, #12, #88, #51, #41, #292, #244, #286 ) ) ;
#173 = DIRECTION ( 'NONE',  ( -1.000000000000000000, 0.0000000000000000000, 1.224646799147353700E-16 ) ) ;
#174 = AXIS2_PLACEMENT_3D ( 'NONE', #89, #161, #140 ) ;
#175 = EDGE_CURVE ( 'NONE', #104, #264, #187, .T. ) ;
#176 = LINE ( 'NONE', #56, #143 ) ;
#177 = EDGE_LOOP ( 'NONE', ( #160, #157 ) ) ;
#178 = ORIENTED_EDGE ( 'NONE', *, *, #254, .T. ) ;
#179 = ORIENTED_EDGE ( 'NONE', *, *, #84, .F. ) ;
#180 = EDGE_LOOP ( 'NONE', ( #245, #214, #212, #230 ) ) ;
#181 = LENGTH_MEASURE_WITH_UNIT ( LENGTH_MEASURE( 0.02539999999999999897 ), #205 );
#182 = EDGE_CURVE ( 'NONE', #7, #236, #218, .T. ) ;
#183 = AXIS2_PLACEMENT_3D ( 'NONE', #146, #73, #222 ) ;
#184 = CIRCLE ( 'NONE', #156, 0.04750000000000064587 ) ;
#185 =( CONVERSION_BASED_UNIT ( 'INCH', #181 ) LENGTH_UNIT ( ) NAMED_UNIT ( #91 ) );
#186 = EDGE_CURVE ( 'NONE', #215, #194, #260, .T. ) ;
#187 = CIRCLE ( 'NONE', #65, 0.03121874999999999997 ) ;
#188 = DIRECTION ( 'NONE',  ( -0.1736481776669311916, 2.126576849575783316E-17, 0.9848077530122080203 ) ) ;
#189 = EDGE_CURVE ( 'NONE', #264, #104, #207, .T. ) ;
#190 = EDGE_LOOP ( 'NONE', ( #288, #284, #27, #80 ) ) ;
#191 = VECTOR ( 'NONE', #216, 39.37007874015748854 ) ;
#192 = DIRECTION ( 'NONE',  ( 0.0000000000000000000, 0.0000000000000000000, -1.000000000000000000 ) ) ;
#193 = STYLED_ITEM ( 'NONE', ( #46 ), #101 ) ;
#194 = VERTEX_POINT ( 'NONE', #257 ) ;
#195 = APPLICATION_CONTEXT ( 'automotive_design' ) ;
#196 = VERTEX_POINT ( 'NONE', #204 ) ;
#197 = DIRECTION ( 'NONE',  ( 0.0000000000000000000, 0.0000000000000000000, -1.000000000000000000 ) ) ;
#198 = ORIENTED_EDGE ( 'NONE', *, *, #120, .F. ) ;
#199 = LINE ( 'NONE', #36, #30 ) ;
#200 = DIRECTION ( 'NONE',  ( -1.224646799147353700E-16, -0.0000000000000000000, -1.000000000000000000 ) ) ;
#201 = AXIS2_PLACEMENT_3D ( 'NONE', #228, #90, #118 ) ;
#202 = CARTESIAN_POINT ( 'NONE',  ( 0.0000000000000000000, 0.0000000000000000000, 0.0000000000000000000 ) ) ;
#203 = CARTESIAN_POINT ( 'NONE',  ( 0.0000000000000000000, 0.0000000000000000000, 0.0000000000000000000 ) ) ;
#204 = CARTESIAN_POINT ( 'NONE',  ( -0.06249999999999997918, 0.0000000000000000000, 0.3654047844199155848 ) ) ;
#205 =( LENGTH_UNIT ( ) NAMED_UNIT ( * ) SI_UNIT ( $, .METRE. ) );
#206 = SURFACE_SIDE_STYLE ('',( #271 ) ) ;
#207 = CIRCLE ( 'NONE', #246, 0.03121874999999999997 ) ;
#208 = ORIENTED_EDGE ( 'NONE', *, *, #124, .T. ) ;
#209 = PRODUCT_DEFINITION_FORMATION_WITH_SPECIFIED_SOURCE ( 'ANY', '', #278, .NOT_KNOWN. ) ;
#210 =( NAMED_UNIT ( * ) SI_UNIT ( $, .STERADIAN. ) SOLID_ANGLE_UNIT ( ) );
#211 = EDGE_CURVE ( 'NONE', #83, #104, #123, .T. ) ;
#212 = ORIENTED_EDGE ( 'NONE', *, *, #84, .T. ) ;
#213 = CARTESIAN_POINT ( 'NONE',  ( 0.0000000000000000000, 0.0000000000000000000, 1.500000000000000222 ) ) ;
#214 = ORIENTED_EDGE ( 'NONE', *, *, #108, .T. ) ;
#215 = VERTEX_POINT ( 'NONE', #269 ) ;
#216 = DIRECTION ( 'NONE',  ( -0.7071067811865462405, 0.0000000000000000000, -0.7071067811865486830 ) ) ;
#217 = EDGE_LOOP ( 'NONE', ( #170, #263, #198, #283 ) ) ;
#218 = CIRCLE ( 'NONE', #174, 0.06250000000000002776 ) ;
#219 = COLOUR_RGB ( '',0.7921568627450980005, 0.8196078431372548767, 0.9333333333333333481 ) ;
#220 = FACE_OUTER_BOUND ( 'NONE', #217, .T. ) ;
#221 = LINE ( 'NONE', #67, #34 ) ;
#222 = DIRECTION ( 'NONE',  ( 1.000000000000000000, 0.0000000000000000000, 0.0000000000000000000 ) ) ;
#223 = CARTESIAN_POINT ( 'NONE',  ( 0.0000000000000000000, 0.0000000000000000000, 1.500000000000000222 ) ) ;
#224 = DIRECTION ( 'NONE',  ( -1.224646799147353700E-16, -0.0000000000000000000, -1.000000000000000000 ) ) ;
#225 = DIRECTION ( 'NONE',  ( 1.000000000000000000, 0.0000000000000000000, 0.0000000000000000000 ) ) ;
#226 = DIRECTION ( 'NONE',  ( 1.000000000000000000, 0.0000000000000000000, 0.0000000000000000000 ) ) ;
#227 = VECTOR ( 'NONE', #45, 39.37007874015748143 ) ;
#228 = CARTESIAN_POINT ( 'NONE',  ( 0.0000000000000000000, 0.0000000000000000000, 1.500000000000000222 ) ) ;
#229 = CIRCLE ( 'NONE', #15, 0.03121875000000000691 ) ;
#230 = ORIENTED_EDGE ( 'NONE', *, *, #175, .F. ) ;
#231 = EDGE_CURVE ( 'NONE', #236, #7, #162, .T. ) ;
#232 = EDGE_LOOP ( 'NONE', ( #10, #148, #256, #179 ) ) ;
#233 = UNCERTAINTY_MEASURE_WITH_UNIT (LENGTH_MEASURE( 1.000000000000000082E-05 ), #273, 'distance_accuracy_value', 'NONE');
#234 = DIRECTION ( 'NONE',  ( -1.000000000000000000, 0.0000000000000000000, 0.0000000000000000000 ) ) ;
#235 = AXIS2_PLACEMENT_3D ( 'NONE', #105, #197, #285 ) ;
#236 = VERTEX_POINT ( 'NONE', #128 ) ;
#237 = DIRECTION ( 'NONE',  ( 1.000000000000000000, 0.0000000000000000000, 0.0000000000000000000 ) ) ;
#238 = FACE_OUTER_BOUND ( 'NONE', #190, .T. ) ;
#239 = CARTESIAN_POINT ( 'NONE',  ( 0.06250000000000006939, 7.654042494670963708E-18, 0.3654047844199155848 ) ) ;
#240 = ADVANCED_FACE ( 'NONE', ( #54 ), #144, .T. ) ;
#241 = AXIS2_PLACEMENT_3D ( 'NONE', #202, #163, #173 ) ;
#242 = DIRECTION ( 'NONE',  ( -1.000000000000000000, 0.0000000000000000000, 0.0000000000000000000 ) ) ;
#243 = DIRECTION ( 'NONE',  ( 0.0000000000000000000, 0.0000000000000000000, 1.000000000000000000 ) ) ;
#244 = ADVANCED_FACE ( 'NONE', ( #32 ), #279, .T. ) ;
#245 = ORIENTED_EDGE ( 'NONE', *, *, #211, .F. ) ;
#246 = AXIS2_PLACEMENT_3D ( 'NONE', #270, #200, #290 ) ;
#247 = DIRECTION ( 'NONE',  ( -1.224646799147353700E-16, -0.0000000000000000000, -1.000000000000000000 ) ) ;
#248 = EDGE_CURVE ( 'NONE', #7, #196, #149, .T. ) ;
#249 = DIRECTION ( 'NONE',  ( 1.000000000000000000, 0.0000000000000000000, -0.0000000000000000000 ) ) ;
#250 = DIRECTION ( 'NONE',  ( -1.000000000000000000, 0.0000000000000000000, 1.224646799147353947E-16 ) ) ;
#251 =( NAMED_UNIT ( * ) PLANE_ANGLE_UNIT ( ) SI_UNIT ( $, .RADIAN. ) );
#252 = MECHANICAL_DESIGN_GEOMETRIC_PRESENTATION_REPRESENTATION (  '', ( #193 ), #66 ) ;
#253 = CARTESIAN_POINT ( 'NONE',  ( 2.302335982397025094E-17, 0.0000000000000000000, 0.1880000000000000282 ) ) ;
#254 = EDGE_CURVE ( 'NONE', #83, #37, #87, .T. ) ;
#255 = ORIENTED_EDGE ( 'NONE', *, *, #124, .F. ) ;
#256 = ORIENTED_EDGE ( 'NONE', *, *, #189, .F. ) ;
#257 = CARTESIAN_POINT ( 'NONE',  ( -0.04750000000000064587, 0.0000000000000000000, 1.500000000000000222 ) ) ;
#258 = PRODUCT_DEFINITION ( 'UNKNOWN', '', #209, #150 ) ;
#259 = LENGTH_MEASURE_WITH_UNIT ( LENGTH_MEASURE( 0.02539999999999999897 ), #74 );
#260 = CIRCLE ( 'NONE', #38, 0.04750000000000064587 ) ;
#261 = EDGE_LOOP ( 'NONE', ( #102, #208, #106, #100 ) ) ;
#262 = ADVANCED_FACE ( 'NONE', ( #291 ), #44, .T. ) ;
#263 = ORIENTED_EDGE ( 'NONE', *, *, #6, .T. ) ;
#264 = VERTEX_POINT ( 'NONE', #272 ) ;
#265 = ORIENTED_EDGE ( 'NONE', *, *, #24, .T. ) ;
#266 = ORIENTED_EDGE ( 'NONE', *, *, #231, .F. ) ;
#267 = CIRCLE ( 'NONE', #183, 0.06250000000000002776 ) ;
#268 = AXIS2_PLACEMENT_3D ( 'NONE', #77, #111, #63 ) ;
#269 = CARTESIAN_POINT ( 'NONE',  ( 0.04750000000000064587, 6.735557395310483192E-18, 1.500000000000000222 ) ) ;
#270 = CARTESIAN_POINT ( 'NONE',  ( 4.682062571497491304E-34, 0.0000000000000000000, 3.823194226088145228E-18 ) ) ;
#271 = SURFACE_STYLE_FILL_AREA ( #297 ) ;
#272 = CARTESIAN_POINT ( 'NONE',  ( -0.03121874999999999997, 0.0000000000000000000, 7.646388452176290456E-18 ) ) ;
#273 =( CONVERSION_BASED_UNIT ( 'INCH', #259 ) LENGTH_UNIT ( ) NAMED_UNIT ( #39 ) );
#274 = ORIENTED_EDGE ( 'NONE', *, *, #298, .F. ) ;
#275 = DIRECTION ( 'NONE',  ( 1.000000000000000000, 0.0000000000000000000, 0.0000000000000000000 ) ) ;
#276 = PRODUCT_RELATED_PRODUCT_CATEGORY ( 'part', '', ( #278 ) ) ;
#277 = SHAPE_DEFINITION_REPRESENTATION ( #152, #11 ) ;
#278 = PRODUCT ( 'Micro_EMS-062-3', 'Micro_EMS-062-3', '', ( #1 ) ) ;
#279 = CYLINDRICAL_SURFACE ( 'NONE', #268, 0.03121875000000000691 ) ;
#280 = DIRECTION ( 'NONE',  ( 0.0000000000000000000, 0.0000000000000000000, -1.000000000000000000 ) ) ;
#281 = PRESENTATION_LAYER_ASSIGNMENT (  '', '', ( #193 ) ) ;
#282 = EDGE_CURVE ( 'NONE', #215, #236, #221, .T. ) ;
#283 = ORIENTED_EDGE ( 'NONE', *, *, #248, .F. ) ;
#284 = ORIENTED_EDGE ( 'NONE', *, *, #231, .T. ) ;
#285 = DIRECTION ( 'NONE',  ( -1.000000000000000000, 0.0000000000000000000, 0.0000000000000000000 ) ) ;
#286 = ADVANCED_FACE ( 'NONE', ( #115 ), #70, .F. ) ;
#287 = VECTOR ( 'NONE', #119, 39.37007874015748143 ) ;
#288 = ORIENTED_EDGE ( 'NONE', *, *, #6, .F. ) ;
#289 = CARTESIAN_POINT ( 'NONE',  ( 0.03121875000000000691, 3.823194226088144458E-18, -3.823194226088145998E-18 ) ) ;
#290 = DIRECTION ( 'NONE',  ( -1.000000000000000000, 0.0000000000000000000, 1.224646799147353947E-16 ) ) ;
#291 = FACE_OUTER_BOUND ( 'NONE', #261, .T. ) ;
#292 = ADVANCED_FACE ( 'NONE', ( #42 ), #98, .T. ) ;
#293 = DIRECTION ( 'NONE',  ( -1.224646799147353700E-16, -0.0000000000000000000, -1.000000000000000000 ) ) ;
#294 = DIRECTION ( 'NONE',  ( 1.000000000000000000, 0.0000000000000000000, 0.0000000000000000000 ) ) ;
#295 =( LENGTH_UNIT ( ) NAMED_UNIT ( * ) SI_UNIT ( $, .METRE. ) );
#296 = DIRECTION ( 'NONE',  ( 0.7071067811865462405, 8.659560562354916834E-17, -0.7071067811865486830 ) ) ;
#297 = FILL_AREA_STYLE ('',( #112 ) ) ;
#298 = EDGE_CURVE ( 'NONE', #194, #215, #184, .T. ) ;
#299 = COLOUR_RGB ( '',0.7921568627450980005, 0.8196078431372548767, 0.9333333333333333481 ) ;
ENDSEC;
END-ISO-10303-21;
