ISO-10303-21;
HEADER;
FILE_DESCRIPTION (( 'STEP AP214' ),
    '1' );
FILE_NAME ('81715.STEP',
    '2023-06-23T03:01:51',
    ( '' ),
    ( '' ),
    'SwSTEP 2.0',
    'SolidWorks 2023',
    '' );
FILE_SCHEMA (( 'AUTOMOTIVE_DESIGN' ));
ENDSEC;

DATA;
#1 = FACE_OUTER_BOUND ( 'NONE', #131, .T. ) ;
#2 = ORIENTED_EDGE ( 'NONE', *, *, #233, .T. ) ;
#3 = ORIENTED_EDGE ( 'NONE', *, *, #291, .T. ) ;
#4 = VERTEX_POINT ( 'NONE', #264 ) ;
#5 = MECHANICAL_DESIGN_GEOMETRIC_PRESENTATION_REPRESENTATION (  '', ( #296 ), #124 ) ;
#6 = CARTESIAN_POINT ( 'NONE',  ( 3.061616997868383018E-17, 2.500000000000000000, 0.2500000000000000000 ) ) ;
#7 = DIRECTION ( 'NONE',  ( -1.000000000000000000, 0.000000000000000000, 0.000000000000000000 ) ) ;
#8 = DIRECTION ( 'NONE',  ( 0.000000000000000000, 0.000000000000000000, -1.000000000000000000 ) ) ;
#9 = FILL_AREA_STYLE ('',( #227 ) ) ;
#10 = AXIS2_PLACEMENT_3D ( 'NONE', #15, #13, #171 ) ;
#11 = DIRECTION ( 'NONE',  ( -0.000000000000000000, -1.000000000000000000, -0.000000000000000000 ) ) ;
#12 = PRESENTATION_LAYER_ASSIGNMENT (  '', '', ( #36 ) ) ;
#13 = DIRECTION ( 'NONE',  ( -0.000000000000000000, -1.000000000000000000, -0.000000000000000000 ) ) ;
#14 = LINE ( 'NONE', #84, #262 ) ;
#15 = CARTESIAN_POINT ( 'NONE',  ( 0.000000000000000000, 0.000000000000000000, 0.000000000000000000 ) ) ;
#16 = VECTOR ( 'NONE', #236, 39.37007874015748143 ) ;
#17 = CARTESIAN_POINT ( 'NONE',  ( 0.000000000000000000, 0.000000000000000000, 0.000000000000000000 ) ) ;
#18 = DIRECTION ( 'NONE',  ( 0.000000000000000000, 0.000000000000000000, 1.000000000000000000 ) ) ;
#19 = AXIS2_PLACEMENT_3D ( 'NONE', #45, #109, #286 ) ;
#20 = FACE_OUTER_BOUND ( 'NONE', #64, .T. ) ;
#21 = VERTEX_POINT ( 'NONE', #198 ) ;
#22 =( NAMED_UNIT ( * ) SI_UNIT ( $, .STERADIAN. ) SOLID_ANGLE_UNIT ( ) );
#23 = ORIENTED_EDGE ( 'NONE', *, *, #251, .T. ) ;
#24 = VERTEX_POINT ( 'NONE', #42 ) ;
#25 = PRESENTATION_STYLE_ASSIGNMENT (( #26 ) ) ;
#26 = SURFACE_STYLE_USAGE ( .BOTH. , #245 ) ;
#27 = FACE_OUTER_BOUND ( 'NONE', #235, .T. ) ;
#28 = CARTESIAN_POINT ( 'NONE',  ( 0.000000000000000000, 2.500000000000000000, -0.2500000000000000000 ) ) ;
#29 = CIRCLE ( 'NONE', #135, 0.2500000000000002776 ) ;
#30 = AXIS2_PLACEMENT_3D ( 'NONE', #181, #32, #35 ) ;
#31 = EDGE_CURVE ( 'NONE', #66, #4, #168, .T. ) ;
#32 = DIRECTION ( 'NONE',  ( -0.000000000000000000, -1.000000000000000000, -0.000000000000000000 ) ) ;
#33 = DIRECTION ( 'NONE',  ( -1.224646799147353207E-16, 1.000000000000000000, -0.000000000000000000 ) ) ;
#34 =( NAMED_UNIT ( * ) PLANE_ANGLE_UNIT ( ) SI_UNIT ( $, .RADIAN. ) );
#35 = DIRECTION ( 'NONE',  ( 0.000000000000000000, 0.000000000000000000, -1.000000000000000000 ) ) ;
#36 = STYLED_ITEM ( 'NONE', ( #295 ), #230 ) ;
#37 = DIRECTION ( 'NONE',  ( -1.224646799147353207E-16, 1.000000000000000000, -0.000000000000000000 ) ) ;
#38 = ORIENTED_EDGE ( 'NONE', *, *, #251, .F. ) ;
#39 = UNCERTAINTY_MEASURE_WITH_UNIT (LENGTH_MEASURE( 1.000000000000000082E-05 ), #200, 'distance_accuracy_value', 'NONE');
#40 = ORIENTED_EDGE ( 'NONE', *, *, #61, .T. ) ;
#41 = AXIS2_PLACEMENT_3D ( 'NONE', #225, #74, #147 ) ;
#42 = CARTESIAN_POINT ( 'NONE',  ( 3.061616997868383018E-17, 0.000000000000000000, 0.2500000000000000000 ) ) ;
#43 = DIMENSIONAL_EXPONENTS ( 1.000000000000000000, 0.000000000000000000, 0.000000000000000000, 0.000000000000000000, 0.000000000000000000, 0.000000000000000000, 0.000000000000000000 ) ;
#44 = ADVANCED_FACE ( 'NONE', ( #213 ), #308, .T. ) ;
#45 = CARTESIAN_POINT ( 'NONE',  ( 1.874699728327322010E-33, 2.500000000000000000, 0.000000000000000000 ) ) ;
#46 = CARTESIAN_POINT ( 'NONE',  ( 0.000000000000000000, 0.000000000000000000, 0.000000000000000000 ) ) ;
#47 = MECHANICAL_DESIGN_GEOMETRIC_PRESENTATION_REPRESENTATION (  '', ( #36 ), #242 ) ;
#48 = AXIS2_PLACEMENT_3D ( 'NONE', #46, #256, #226 ) ;
#49 = CARTESIAN_POINT ( 'NONE',  ( 0.000000000000000000, 0.000000000000000000, 0.000000000000000000 ) ) ;
#50 =( CONVERSION_BASED_UNIT ( 'INCH', #297 ) LENGTH_UNIT ( ) NAMED_UNIT ( #43 ) );
#51 = CYLINDRICAL_SURFACE ( 'NONE', #89, 0.2500000000000000000 ) ;
#52 = CIRCLE ( 'NONE', #48, 0.2500000000000000000 ) ;
#53 = LINE ( 'NONE', #252, #278 ) ;
#54 =( NAMED_UNIT ( * ) SI_UNIT ( $, .STERADIAN. ) SOLID_ANGLE_UNIT ( ) );
#55 =( NAMED_UNIT ( * ) SI_UNIT ( $, .STERADIAN. ) SOLID_ANGLE_UNIT ( ) );
#56 = DIRECTION ( 'NONE',  ( -1.000000000000000000, 0.000000000000000000, 0.000000000000000000 ) ) ;
#57 = STYLED_ITEM ( 'NONE', ( #169 ), #119 ) ;
#58 = STYLED_ITEM ( 'NONE', ( #94 ), #211 ) ;
#59 =( LENGTH_UNIT ( ) NAMED_UNIT ( * ) SI_UNIT ( $, .METRE. ) );
#60 =( LENGTH_UNIT ( ) NAMED_UNIT ( * ) SI_UNIT ( $, .METRE. ) );
#61 = EDGE_CURVE ( 'NONE', #244, #164, #294, .T. ) ;
#62 = DIRECTION ( 'NONE',  ( 1.224646799147353207E-16, -1.000000000000000000, 0.000000000000000000 ) ) ;
#63 = AXIS2_PLACEMENT_3D ( 'NONE', #232, #172, #272 ) ;
#64 = EDGE_LOOP ( 'NONE', ( #163, #65, #108, #266 ) ) ;
#65 = ORIENTED_EDGE ( 'NONE', *, *, #175, .T. ) ;
#66 = VERTEX_POINT ( 'NONE', #28 ) ;
#67 = SURFACE_SIDE_STYLE ('',( #104 ) ) ;
#68 = PRESENTATION_LAYER_ASSIGNMENT (  '', '', ( #92 ) ) ;
#69 = EDGE_LOOP ( 'NONE', ( #243, #2, #114, #293 ) ) ;
#70 = CARTESIAN_POINT ( 'NONE',  ( -3.061616997868383141E-16, 5.000000000000000000, 0.000000000000000000 ) ) ;
#71 = ADVANCED_FACE ( 'NONE', ( #150 ), #132, .T. ) ;
#72 = DIMENSIONAL_EXPONENTS ( 1.000000000000000000, 0.000000000000000000, 0.000000000000000000, 0.000000000000000000, 0.000000000000000000, 0.000000000000000000, 0.000000000000000000 ) ;
#73 = SURFACE_STYLE_USAGE ( .BOTH. , #246 ) ;
#74 = DIRECTION ( 'NONE',  ( -1.224646799147353207E-16, 1.000000000000000000, -0.000000000000000000 ) ) ;
#75 = CLOSED_SHELL ( 'NONE', ( #165, #71, #255, #211 ) ) ;
#76 = FILL_AREA_STYLE_COLOUR ( '', #82 ) ;
#77 = EDGE_CURVE ( 'NONE', #244, #237, #149, .T. ) ;
#78 =( NAMED_UNIT ( * ) PLANE_ANGLE_UNIT ( ) SI_UNIT ( $, .RADIAN. ) );
#79 =( CONVERSION_BASED_UNIT ( 'INCH', #203 ) LENGTH_UNIT ( ) NAMED_UNIT ( #221 ) );
#80 = CARTESIAN_POINT ( 'NONE',  ( 0.000000000000000000, 2.500000000000000000, 0.000000000000000000 ) ) ;
#81 = SURFACE_STYLE_USAGE ( .BOTH. , #299 ) ;
#82 = COLOUR_RGB ( '',1.000000000000000000, 0.000000000000000000, 0.000000000000000000 ) ;
#83 = PRODUCT_DEFINITION ( 'UNKNOWN', '', #234, #91 ) ;
#84 = CARTESIAN_POINT ( 'NONE',  ( 0.2499999999999998335, 5.000000000000000000, 3.061616997868384251E-17 ) ) ;
#85 = COLOUR_RGB ( '',1.000000000000000000, 0.000000000000000000, 0.000000000000000000 ) ;
#86 = DIRECTION ( 'NONE',  ( 0.000000000000000000, 0.000000000000000000, -1.000000000000000000 ) ) ;
#87 = CARTESIAN_POINT ( 'NONE',  ( -3.061616997868383141E-16, 5.000000000000000000, 0.000000000000000000 ) ) ;
#88 = CIRCLE ( 'NONE', #267, 0.2500000000000000000 ) ;
#89 = AXIS2_PLACEMENT_3D ( 'NONE', #49, #11, #99 ) ;
#90 = ORIENTED_EDGE ( 'NONE', *, *, #77, .F. ) ;
#91 = PRODUCT_DEFINITION_CONTEXT ( 'detailed design', #144, 'design' ) ;
#92 = STYLED_ITEM ( 'NONE', ( #146 ), #255 ) ;
#93 = COLOUR_RGB ( '',0.7921568627450980005, 0.8196078431372548767, 0.9333333333333333481 ) ;
#94 = PRESENTATION_STYLE_ASSIGNMENT (( #177 ) ) ;
#95 = SURFACE_STYLE_FILL_AREA ( #271 ) ;
#96 = SURFACE_STYLE_FILL_AREA ( #9 ) ;
#97 = FILL_AREA_STYLE_COLOUR ( '', #85 ) ;
#98 = MECHANICAL_DESIGN_GEOMETRIC_PRESENTATION_REPRESENTATION (  '', ( #58 ), #279 ) ;
#99 = DIRECTION ( 'NONE',  ( 0.000000000000000000, 0.000000000000000000, -1.000000000000000000 ) ) ;
#100 = CYLINDRICAL_SURFACE ( 'NONE', #41, 0.2500000000000001110 ) ;
#101 = FILL_AREA_STYLE_COLOUR ( '', #159 ) ;
#102 = EDGE_CURVE ( 'NONE', #164, #21, #29, .T. ) ;
#103 =( CONVERSION_BASED_UNIT ( 'INCH', #300 ) LENGTH_UNIT ( ) NAMED_UNIT ( #191 ) );
#104 = SURFACE_STYLE_FILL_AREA ( #223 ) ;
#105 = PRESENTATION_LAYER_ASSIGNMENT (  '', '', ( #296 ) ) ;
#106 = AXIS2_PLACEMENT_3D ( 'NONE', #122, #231, #86 ) ;
#107 = FILL_AREA_STYLE ('',( #192 ) ) ;
#108 = ORIENTED_EDGE ( 'NONE', *, *, #201, .F. ) ;
#109 = DIRECTION ( 'NONE',  ( -1.224646799147353207E-16, 1.000000000000000000, 0.000000000000000000 ) ) ;
#110 =( NAMED_UNIT ( * ) PLANE_ANGLE_UNIT ( ) SI_UNIT ( $, .RADIAN. ) );
#111 = FILL_AREA_STYLE ('',( #97 ) ) ;
#112 = ORIENTED_EDGE ( 'NONE', *, *, #116, .F. ) ;
#113 = UNCERTAINTY_MEASURE_WITH_UNIT (LENGTH_MEASURE( 1.000000000000000082E-05 ), #79, 'distance_accuracy_value', 'NONE');
#114 = ORIENTED_EDGE ( 'NONE', *, *, #102, .F. ) ;
#115 = ORIENTED_EDGE ( 'NONE', *, *, #188, .F. ) ;
#116 = EDGE_CURVE ( 'NONE', #24, #4, #88, .T. ) ;
#117 = PRODUCT_DEFINITION_SHAPE ( 'NONE', 'NONE',  #83 ) ;
#118 = DIRECTION ( 'NONE',  ( -1.000000000000000000, 0.000000000000000000, 0.000000000000000000 ) ) ;
#119 = MANIFOLD_SOLID_BREP ( 'Revolve - Tool Body (Straight Shanked)', #301 ) ;
#120 = PLANE ( 'NONE',  #202 ) ;
#121 = SURFACE_STYLE_USAGE ( .BOTH. , #204 ) ;
#122 = CARTESIAN_POINT ( 'NONE',  ( 0.000000000000000000, 2.500000000000000000, 0.000000000000000000 ) ) ;
#123 = APPLICATION_CONTEXT ( 'automotive_design' ) ;
#124 =( GEOMETRIC_REPRESENTATION_CONTEXT ( 3 ) GLOBAL_UNCERTAINTY_ASSIGNED_CONTEXT ( ( #39 ) ) GLOBAL_UNIT_ASSIGNED_CONTEXT ( ( #200, #155, #187 ) ) REPRESENTATION_CONTEXT ( 'NONE', 'WORKASPACE' ) );
#125 = CIRCLE ( 'NONE', #30, 0.2500000000000000000 ) ;
#126 = SURFACE_STYLE_FILL_AREA ( #303 ) ;
#127 = LENGTH_MEASURE_WITH_UNIT ( LENGTH_MEASURE( 0.02539999999999999897 ), #209 );
#128 = CARTESIAN_POINT ( 'NONE',  ( -3.061616997868383141E-16, 5.000000000000000000, 0.000000000000000000 ) ) ;
#129 = DIRECTION ( 'NONE',  ( 0.000000000000000000, 0.000000000000000000, -1.000000000000000000 ) ) ;
#130 = PRESENTATION_LAYER_ASSIGNMENT (  '', '', ( #273 ) ) ;
#131 = EDGE_LOOP ( 'NONE', ( #161, #3 ) ) ;
#132 = PLANE ( 'NONE',  #63 ) ;
#133 = DIRECTION ( 'NONE',  ( 1.000000000000000000, 1.224646799147353207E-16, 0.000000000000000000 ) ) ;
#134 = ORIENTED_EDGE ( 'NONE', *, *, #175, .F. ) ;
#135 = AXIS2_PLACEMENT_3D ( 'NONE', #70, #37, #305 ) ;
#136 = UNCERTAINTY_MEASURE_WITH_UNIT (LENGTH_MEASURE( 1.000000000000000082E-05 ), #152, 'distance_accuracy_value', 'NONE');
#137 = AXIS2_PLACEMENT_3D ( 'NONE', #281, #62, #133 ) ;
#138 = DIRECTION ( 'NONE',  ( -0.000000000000000000, -1.000000000000000000, -0.000000000000000000 ) ) ;
#139 = SURFACE_STYLE_USAGE ( .BOTH. , #67 ) ;
#140 = DIMENSIONAL_EXPONENTS ( 1.000000000000000000, 0.000000000000000000, 0.000000000000000000, 0.000000000000000000, 0.000000000000000000, 0.000000000000000000, 0.000000000000000000 ) ;
#141 = SURFACE_STYLE_FILL_AREA ( #111 ) ;
#142 = UNCERTAINTY_MEASURE_WITH_UNIT (LENGTH_MEASURE( 1.000000000000000082E-05 ), #280, 'distance_accuracy_value', 'NONE');
#143 = SURFACE_STYLE_FILL_AREA ( #107 ) ;
#144 = APPLICATION_CONTEXT ( 'automotive_design' ) ;
#145 =( NAMED_UNIT ( * ) PLANE_ANGLE_UNIT ( ) SI_UNIT ( $, .RADIAN. ) );
#146 = PRESENTATION_STYLE_ASSIGNMENT (( #121 ) ) ;
#147 = DIRECTION ( 'NONE',  ( -1.000000000000000000, 0.000000000000000000, 0.000000000000000000 ) ) ;
#148 =( LENGTH_UNIT ( ) NAMED_UNIT ( * ) SI_UNIT ( $, .METRE. ) );
#149 = CIRCLE ( 'NONE', #292, 0.2500000000000000000 ) ;
#150 = FACE_OUTER_BOUND ( 'NONE', #194, .T. ) ;
#151 =( LENGTH_UNIT ( ) NAMED_UNIT ( * ) SI_UNIT ( $, .METRE. ) );
#152 =( CONVERSION_BASED_UNIT ( 'INCH', #238 ) LENGTH_UNIT ( ) NAMED_UNIT ( #265 ) );
#153 =( NAMED_UNIT ( * ) PLANE_ANGLE_UNIT ( ) SI_UNIT ( $, .RADIAN. ) );
#154 = PRODUCT_CONTEXT ( 'NONE', #123, 'mechanical' ) ;
#155 =( NAMED_UNIT ( * ) PLANE_ANGLE_UNIT ( ) SI_UNIT ( $, .RADIAN. ) );
#156 = SHAPE_DEFINITION_REPRESENTATION ( #117, #190 ) ;
#157 = ADVANCED_FACE ( 'NONE', ( #309 ), #282, .F. ) ;
#158 = APPLICATION_PROTOCOL_DEFINITION ( 'draft international standard', 'automotive_design', 1998, #144 ) ;
#159 = COLOUR_RGB ( '',1.000000000000000000, 0.000000000000000000, 0.000000000000000000 ) ;
#160 = DIMENSIONAL_EXPONENTS ( 1.000000000000000000, 0.000000000000000000, 0.000000000000000000, 0.000000000000000000, 0.000000000000000000, 0.000000000000000000, 0.000000000000000000 ) ;
#161 = ORIENTED_EDGE ( 'NONE', *, *, #102, .T. ) ;
#162 = DIRECTION ( 'NONE',  ( -1.224646799147353207E-16, 1.000000000000000000, -0.000000000000000000 ) ) ;
#163 = ORIENTED_EDGE ( 'NONE', *, *, #260, .T. ) ;
#164 = VERTEX_POINT ( 'NONE', #283 ) ;
#165 = ADVANCED_FACE ( 'NONE', ( #20 ), #185, .T. ) ;
#166 = EDGE_LOOP ( 'NONE', ( #90, #115 ) ) ;
#167 = CIRCLE ( 'NONE', #254, 0.2500000000000002776 ) ;
#168 = LINE ( 'NONE', #263, #304 ) ;
#169 = PRESENTATION_STYLE_ASSIGNMENT (( #139 ) ) ;
#170 = CARTESIAN_POINT ( 'NONE',  ( 0.000000000000000000, 2.500000000000000000, 0.000000000000000000 ) ) ;
#171 = DIRECTION ( 'NONE',  ( 0.000000000000000000, 0.000000000000000000, -1.000000000000000000 ) ) ;
#172 = DIRECTION ( 'NONE',  ( 0.000000000000000000, 1.000000000000000000, 0.000000000000000000 ) ) ;
#173 = DIRECTION ( 'NONE',  ( -1.224646799147353207E-16, 1.000000000000000000, -0.000000000000000000 ) ) ;
#174 = FACE_OUTER_BOUND ( 'NONE', #289, .T. ) ;
#175 = EDGE_CURVE ( 'NONE', #199, #24, #53, .T. ) ;
#176 =( LENGTH_UNIT ( ) NAMED_UNIT ( * ) SI_UNIT ( $, .METRE. ) );
#177 = SURFACE_STYLE_USAGE ( .BOTH. , #275 ) ;
#178 = AXIS2_PLACEMENT_3D ( 'NONE', #87, #285, #7 ) ;
#179 = AXIS2_PLACEMENT_3D ( 'NONE', #287, #18, #284 ) ;
#180 = FACE_OUTER_BOUND ( 'NONE', #220, .T. ) ;
#181 = CARTESIAN_POINT ( 'NONE',  ( 0.000000000000000000, 2.500000000000000000, 0.000000000000000000 ) ) ;
#182 = APPLICATION_PROTOCOL_DEFINITION ( 'draft international standard', 'automotive_design', 1998, #123 ) ;
#183 = CARTESIAN_POINT ( 'NONE',  ( -0.2500000000000004441, 5.000000000000000000, 0.000000000000000000 ) ) ;
#184 = AXIS2_PLACEMENT_3D ( 'NONE', #170, #33, #118 ) ;
#185 = CYLINDRICAL_SURFACE ( 'NONE', #10, 0.2500000000000000000 ) ;
#186 =( GEOMETRIC_REPRESENTATION_CONTEXT ( 3 ) GLOBAL_UNCERTAINTY_ASSIGNED_CONTEXT ( ( #136 ) ) GLOBAL_UNIT_ASSIGNED_CONTEXT ( ( #152, #110, #215 ) ) REPRESENTATION_CONTEXT ( 'NONE', 'WORKASPACE' ) );
#187 =( NAMED_UNIT ( * ) SI_UNIT ( $, .STERADIAN. ) SOLID_ANGLE_UNIT ( ) );
#188 = EDGE_CURVE ( 'NONE', #237, #244, #224, .T. ) ;
#189 = ORIENTED_EDGE ( 'NONE', *, *, #201, .T. ) ;
#190 = ADVANCED_BREP_SHAPE_REPRESENTATION ( '81715', ( #230, #119, #179 ), #186 ) ;
#191 = DIMENSIONAL_EXPONENTS ( 1.000000000000000000, 0.000000000000000000, 0.000000000000000000, 0.000000000000000000, 0.000000000000000000, 0.000000000000000000, 0.000000000000000000 ) ;
#192 = FILL_AREA_STYLE_COLOUR ( '', #241 ) ;
#193 =( GEOMETRIC_REPRESENTATION_CONTEXT ( 3 ) GLOBAL_UNCERTAINTY_ASSIGNED_CONTEXT ( ( #249 ) ) GLOBAL_UNIT_ASSIGNED_CONTEXT ( ( #302, #78, #54 ) ) REPRESENTATION_CONTEXT ( 'NONE', 'WORKASPACE' ) );
#194 = EDGE_LOOP ( 'NONE', ( #290, #38 ) ) ;
#195 = ORIENTED_EDGE ( 'NONE', *, *, #31, .T. ) ;
#196 = UNCERTAINTY_MEASURE_WITH_UNIT (LENGTH_MEASURE( 1.000000000000000082E-05 ), #103, 'distance_accuracy_value', 'NONE');
#197 = ADVANCED_FACE ( 'NONE', ( #174 ), #100, .T. ) ;
#198 = CARTESIAN_POINT ( 'NONE',  ( 0.2500000000000000000, 5.000000000000000000, 3.061616997868385483E-17 ) ) ;
#199 = VERTEX_POINT ( 'NONE', #6 ) ;
#200 =( CONVERSION_BASED_UNIT ( 'INCH', #307 ) LENGTH_UNIT ( ) NAMED_UNIT ( #140 ) );
#201 = EDGE_CURVE ( 'NONE', #4, #24, #52, .T. ) ;
#202 = AXIS2_PLACEMENT_3D ( 'NONE', #268, #250, #8 ) ;
#203 = LENGTH_MEASURE_WITH_UNIT ( LENGTH_MEASURE( 0.02539999999999999897 ), #148 );
#204 = SURFACE_SIDE_STYLE ('',( #126 ) ) ;
#205 =( NAMED_UNIT ( * ) SI_UNIT ( $, .STERADIAN. ) SOLID_ANGLE_UNIT ( ) );
#206 = CARTESIAN_POINT ( 'NONE',  ( -0.2500000000000000000, 2.500000000000000000, 0.000000000000000000 ) ) ;
#207 = MECHANICAL_DESIGN_GEOMETRIC_PRESENTATION_REPRESENTATION (  '', ( #273 ), #193 ) ;
#208 = CARTESIAN_POINT ( 'NONE',  ( 0.2500000000000000000, 2.500000000000000000, 3.061616997868385483E-17 ) ) ;
#209 =( LENGTH_UNIT ( ) NAMED_UNIT ( * ) SI_UNIT ( $, .METRE. ) );
#210 = COLOUR_RGB ( '',0.7921568627450980005, 0.8196078431372548767, 0.9333333333333333481 ) ;
#211 = ADVANCED_FACE ( 'NONE', ( #27 ), #120, .T. ) ;
#212 = LENGTH_MEASURE_WITH_UNIT ( LENGTH_MEASURE( 0.02539999999999999897 ), #214 );
#213 = FACE_OUTER_BOUND ( 'NONE', #69, .T. ) ;
#214 =( LENGTH_UNIT ( ) NAMED_UNIT ( * ) SI_UNIT ( $, .METRE. ) );
#215 =( NAMED_UNIT ( * ) SI_UNIT ( $, .STERADIAN. ) SOLID_ANGLE_UNIT ( ) );
#216 =( GEOMETRIC_REPRESENTATION_CONTEXT ( 3 ) GLOBAL_UNCERTAINTY_ASSIGNED_CONTEXT ( ( #196 ) ) GLOBAL_UNIT_ASSIGNED_CONTEXT ( ( #103, #34, #228 ) ) REPRESENTATION_CONTEXT ( 'NONE', 'WORKASPACE' ) );
#217 = PRODUCT_RELATED_PRODUCT_CATEGORY ( 'part', '', ( #218 ) ) ;
#218 = PRODUCT ( '81715', '81715', '', ( #154 ) ) ;
#219 = ORIENTED_EDGE ( 'NONE', *, *, #233, .F. ) ;
#220 = EDGE_LOOP ( 'NONE', ( #134, #23, #195, #112 ) ) ;
#221 = DIMENSIONAL_EXPONENTS ( 1.000000000000000000, 0.000000000000000000, 0.000000000000000000, 0.000000000000000000, 0.000000000000000000, 0.000000000000000000, 0.000000000000000000 ) ;
#222 = ORIENTED_EDGE ( 'NONE', *, *, #291, .F. ) ;
#223 = FILL_AREA_STYLE ('',( #261 ) ) ;
#224 = CIRCLE ( 'NONE', #184, 0.2500000000000000000 ) ;
#225 = CARTESIAN_POINT ( 'NONE',  ( -3.061616997868383141E-16, 5.000000000000000000, 0.000000000000000000 ) ) ;
#226 = DIRECTION ( 'NONE',  ( 0.000000000000000000, 0.000000000000000000, -1.000000000000000000 ) ) ;
#227 = FILL_AREA_STYLE_COLOUR ( '', #93 ) ;
#228 =( NAMED_UNIT ( * ) SI_UNIT ( $, .STERADIAN. ) SOLID_ANGLE_UNIT ( ) );
#229 = DIRECTION ( 'NONE',  ( -0.000000000000000000, -1.000000000000000000, -0.000000000000000000 ) ) ;
#230 = MANIFOLD_SOLID_BREP ( 'Revolve - Cutting Edge', #75 ) ;
#231 = DIRECTION ( 'NONE',  ( -0.000000000000000000, -1.000000000000000000, -0.000000000000000000 ) ) ;
#232 = CARTESIAN_POINT ( 'NONE',  ( 0.000000000000000000, 2.500000000000000000, 0.000000000000000000 ) ) ;
#233 = EDGE_CURVE ( 'NONE', #237, #21, #14, .T. ) ;
#234 = PRODUCT_DEFINITION_FORMATION_WITH_SPECIFIED_SOURCE ( 'ANY', '', #218, .NOT_KNOWN. ) ;
#235 = EDGE_LOOP ( 'NONE', ( #189, #288 ) ) ;
#236 = DIRECTION ( 'NONE',  ( -1.224646799147353207E-16, 1.000000000000000000, -0.000000000000000000 ) ) ;
#237 = VERTEX_POINT ( 'NONE', #208 ) ;
#238 = LENGTH_MEASURE_WITH_UNIT ( LENGTH_MEASURE( 0.02539999999999999897 ), #60 );
#239 = ORIENTED_EDGE ( 'NONE', *, *, #188, .T. ) ;
#240 = UNCERTAINTY_MEASURE_WITH_UNIT (LENGTH_MEASURE( 1.000000000000000082E-05 ), #50, 'distance_accuracy_value', 'NONE');
#241 = COLOUR_RGB ( '',1.000000000000000000, 0.000000000000000000, 0.000000000000000000 ) ;
#242 =( GEOMETRIC_REPRESENTATION_CONTEXT ( 3 ) GLOBAL_UNCERTAINTY_ASSIGNED_CONTEXT ( ( #113 ) ) GLOBAL_UNIT_ASSIGNED_CONTEXT ( ( #79, #298, #55 ) ) REPRESENTATION_CONTEXT ( 'NONE', 'WORKASPACE' ) );
#243 = ORIENTED_EDGE ( 'NONE', *, *, #77, .T. ) ;
#244 = VERTEX_POINT ( 'NONE', #206 ) ;
#245 = SURFACE_SIDE_STYLE ('',( #143 ) ) ;
#246 = SURFACE_SIDE_STYLE ('',( #141 ) ) ;
#247 = DIRECTION ( 'NONE',  ( -0.000000000000000000, -1.000000000000000000, -0.000000000000000000 ) ) ;
#248 = MECHANICAL_DESIGN_GEOMETRIC_PRESENTATION_REPRESENTATION (  '', ( #92 ), #216 ) ;
#249 = UNCERTAINTY_MEASURE_WITH_UNIT (LENGTH_MEASURE( 1.000000000000000082E-05 ), #302, 'distance_accuracy_value', 'NONE');
#250 = DIRECTION ( 'NONE',  ( 0.000000000000000000, -1.000000000000000000, -0.000000000000000000 ) ) ;
#251 = EDGE_CURVE ( 'NONE', #199, #66, #125, .T. ) ;
#252 = CARTESIAN_POINT ( 'NONE',  ( 3.061616997868383018E-17, 0.000000000000000000, 0.2500000000000000000 ) ) ;
#253 = MECHANICAL_DESIGN_GEOMETRIC_PRESENTATION_REPRESENTATION (  '', ( #57 ), #257 ) ;
#254 = AXIS2_PLACEMENT_3D ( 'NONE', #128, #162, #259 ) ;
#255 = ADVANCED_FACE ( 'NONE', ( #180 ), #51, .T. ) ;
#256 = DIRECTION ( 'NONE',  ( -0.000000000000000000, -1.000000000000000000, -0.000000000000000000 ) ) ;
#257 =( GEOMETRIC_REPRESENTATION_CONTEXT ( 3 ) GLOBAL_UNCERTAINTY_ASSIGNED_CONTEXT ( ( #142 ) ) GLOBAL_UNIT_ASSIGNED_CONTEXT ( ( #280, #153, #22 ) ) REPRESENTATION_CONTEXT ( 'NONE', 'WORKASPACE' ) );
#258 = PRESENTATION_LAYER_ASSIGNMENT (  '', '', ( #58 ) ) ;
#259 = DIRECTION ( 'NONE',  ( -1.000000000000000000, 0.000000000000000000, 0.000000000000000000 ) ) ;
#260 = EDGE_CURVE ( 'NONE', #66, #199, #274, .T. ) ;
#261 = FILL_AREA_STYLE_COLOUR ( '', #210 ) ;
#262 = VECTOR ( 'NONE', #173, 39.37007874015748143 ) ;
#263 = CARTESIAN_POINT ( 'NONE',  ( 0.000000000000000000, 0.000000000000000000, -0.2500000000000000000 ) ) ;
#264 = CARTESIAN_POINT ( 'NONE',  ( 0.000000000000000000, 0.000000000000000000, -0.2500000000000000000 ) ) ;
#265 = DIMENSIONAL_EXPONENTS ( 1.000000000000000000, 0.000000000000000000, 0.000000000000000000, 0.000000000000000000, 0.000000000000000000, 0.000000000000000000, 0.000000000000000000 ) ;
#266 = ORIENTED_EDGE ( 'NONE', *, *, #31, .F. ) ;
#267 = AXIS2_PLACEMENT_3D ( 'NONE', #17, #247, #129 ) ;
#268 = CARTESIAN_POINT ( 'NONE',  ( 0.000000000000000000, 0.000000000000000000, 0.000000000000000000 ) ) ;
#269 = PRESENTATION_LAYER_ASSIGNMENT (  '', '', ( #57 ) ) ;
#270 = PRESENTATION_STYLE_ASSIGNMENT (( #73 ) ) ;
#271 = FILL_AREA_STYLE ('',( #76 ) ) ;
#272 = DIRECTION ( 'NONE',  ( 0.000000000000000000, -0.000000000000000000, 1.000000000000000000 ) ) ;
#273 = STYLED_ITEM ( 'NONE', ( #270 ), #71 ) ;
#274 = CIRCLE ( 'NONE', #106, 0.2500000000000000000 ) ;
#275 = SURFACE_SIDE_STYLE ('',( #95 ) ) ;
#276 = DIRECTION ( 'NONE',  ( -1.224646799147353207E-16, 1.000000000000000000, -0.000000000000000000 ) ) ;
#277 = PLANE ( 'NONE',  #137 ) ;
#278 = VECTOR ( 'NONE', #229, 39.37007874015748143 ) ;
#279 =( GEOMETRIC_REPRESENTATION_CONTEXT ( 3 ) GLOBAL_UNCERTAINTY_ASSIGNED_CONTEXT ( ( #240 ) ) GLOBAL_UNIT_ASSIGNED_CONTEXT ( ( #50, #145, #205 ) ) REPRESENTATION_CONTEXT ( 'NONE', 'WORKASPACE' ) );
#280 =( CONVERSION_BASED_UNIT ( 'INCH', #212 ) LENGTH_UNIT ( ) NAMED_UNIT ( #72 ) );
#281 = CARTESIAN_POINT ( 'NONE',  ( 0.2500000000000000000, 5.000000000000000000, 0.000000000000000000 ) ) ;
#282 = PLANE ( 'NONE',  #19 ) ;
#283 = CARTESIAN_POINT ( 'NONE',  ( -0.2500000000000006106, 5.000000000000000000, 0.000000000000000000 ) ) ;
#284 = DIRECTION ( 'NONE',  ( 1.000000000000000000, 0.000000000000000000, 0.000000000000000000 ) ) ;
#285 = DIRECTION ( 'NONE',  ( -1.224646799147353207E-16, 1.000000000000000000, -0.000000000000000000 ) ) ;
#286 = DIRECTION ( 'NONE',  ( -1.000000000000000000, -1.224646799147353207E-16, 0.000000000000000000 ) ) ;
#287 = CARTESIAN_POINT ( 'NONE',  ( 0.000000000000000000, 0.000000000000000000, 0.000000000000000000 ) ) ;
#288 = ORIENTED_EDGE ( 'NONE', *, *, #116, .T. ) ;
#289 = EDGE_LOOP ( 'NONE', ( #219, #239, #40, #222 ) ) ;
#290 = ORIENTED_EDGE ( 'NONE', *, *, #260, .F. ) ;
#291 = EDGE_CURVE ( 'NONE', #21, #164, #167, .T. ) ;
#292 = AXIS2_PLACEMENT_3D ( 'NONE', #80, #276, #56 ) ;
#293 = ORIENTED_EDGE ( 'NONE', *, *, #61, .F. ) ;
#294 = LINE ( 'NONE', #183, #16 ) ;
#295 = PRESENTATION_STYLE_ASSIGNMENT (( #81 ) ) ;
#296 = STYLED_ITEM ( 'NONE', ( #25 ), #165 ) ;
#297 = LENGTH_MEASURE_WITH_UNIT ( LENGTH_MEASURE( 0.02539999999999999897 ), #151 );
#298 =( NAMED_UNIT ( * ) PLANE_ANGLE_UNIT ( ) SI_UNIT ( $, .RADIAN. ) );
#299 = SURFACE_SIDE_STYLE ('',( #96 ) ) ;
#300 = LENGTH_MEASURE_WITH_UNIT ( LENGTH_MEASURE( 0.02539999999999999897 ), #176 );
#301 = CLOSED_SHELL ( 'NONE', ( #44, #157, #197, #306 ) ) ;
#302 =( CONVERSION_BASED_UNIT ( 'INCH', #127 ) LENGTH_UNIT ( ) NAMED_UNIT ( #160 ) );
#303 = FILL_AREA_STYLE ('',( #101 ) ) ;
#304 = VECTOR ( 'NONE', #138, 39.37007874015748143 ) ;
#305 = DIRECTION ( 'NONE',  ( -1.000000000000000000, 0.000000000000000000, 0.000000000000000000 ) ) ;
#306 = ADVANCED_FACE ( 'NONE', ( #1 ), #277, .F. ) ;
#307 = LENGTH_MEASURE_WITH_UNIT ( LENGTH_MEASURE( 0.02539999999999999897 ), #59 );
#308 = CYLINDRICAL_SURFACE ( 'NONE', #178, 0.2500000000000001110 ) ;
#309 = FACE_OUTER_BOUND ( 'NONE', #166, .T. ) ;
ENDSEC;
END-ISO-10303-21;
