ISO-10303-21;
HEADER;
FILE_DESCRIPTION (( 'STEP AP214' ),
    '1' );
FILE_NAME ('Micro_BMS-015-2X.STEP',
    '2021-09-03T14:50:16',
    ( '' ),
    ( '' ),
    'SwSTEP 2.0',
    'SolidWorks 2020',
    '' );
FILE_SCHEMA (( 'AUTOMOTIVE_DESIGN' ));
ENDSEC;

DATA;
#1 = ORIENTED_EDGE ( 'NONE', *, *, #296, .F. ) ;
#2 = CARTESIAN_POINT ( 'NONE',  ( -0.007492499999999999161, 0.0000000000000000000, 0.007492500000000001763 ) ) ;
#3 = ORIENTED_EDGE ( 'NONE', *, *, #130, .T. ) ;
#4 =( NAMED_UNIT ( * ) SI_UNIT ( $, .STERADIAN. ) SOLID_ANGLE_UNIT ( ) );
#5 = SHAPE_DEFINITION_REPRESENTATION ( #118, #171 ) ;
#6 = DIRECTION ( 'NONE',  ( 0.1736481776669313581, 0.0000000000000000000, 0.9848077530122077983 ) ) ;
#7 = SURFACE_STYLE_USAGE ( .BOTH. , #59 ) ;
#8 = AXIS2_PLACEMENT_3D ( 'NONE', #175, #140, #248 ) ;
#9 = CONICAL_SURFACE ( 'NONE', #288, 0.04750000000000064587, 0.7853981633974457255 ) ;
#10 =( NAMED_UNIT ( * ) PLANE_ANGLE_UNIT ( ) SI_UNIT ( $, .RADIAN. ) );
#11 = DIRECTION ( 'NONE',  ( 1.000000000000000000, 0.0000000000000000000, 0.0000000000000000000 ) ) ;
#12 = CONICAL_SURFACE ( 'NONE', #181, 0.007492500000000001763, 0.1745329251994338637 ) ;
#13 = CARTESIAN_POINT ( 'NONE',  ( 4.089867614698530514E-17, 0.0000000000000000000, 0.3339630346926194537 ) ) ;
#14 = DIRECTION ( 'NONE',  ( -1.000000000000000000, 0.0000000000000000000, 1.224646799147353454E-16 ) ) ;
#15 = DIRECTION ( 'NONE',  ( -1.224646799147353454E-16, -0.0000000000000000000, -1.000000000000000000 ) ) ;
#16 = AXIS2_PLACEMENT_3D ( 'NONE', #146, #72, #14 ) ;
#17 = PRESENTATION_LAYER_ASSIGNMENT (  '', '', ( #262 ) ) ;
#18 = CARTESIAN_POINT ( 'NONE',  ( -0.007492500000000000028, 0.0000000000000000000, 9.175666142611546005E-19 ) ) ;
#19 = VERTEX_POINT ( 'NONE', #225 ) ;
#20 = DIRECTION ( 'NONE',  ( -1.224646799147353454E-16, -0.0000000000000000000, -1.000000000000000000 ) ) ;
#21 = ADVANCED_FACE ( 'NONE', ( #202 ), #293, .T. ) ;
#22 = CARTESIAN_POINT ( 'NONE',  ( -0.007492499999999998293, 9.175666142611546005E-19, 0.02199999999999999872 ) ) ;
#23 = VERTEX_POINT ( 'NONE', #40 ) ;
#24 =( NAMED_UNIT ( * ) SI_UNIT ( $, .STERADIAN. ) SOLID_ANGLE_UNIT ( ) );
#25 = ORIENTED_EDGE ( 'NONE', *, *, #190, .T. ) ;
#26 = ADVANCED_FACE ( 'NONE', ( #117 ), #259, .T. ) ;
#27 = ORIENTED_EDGE ( 'NONE', *, *, #99, .F. ) ;
#28 = FILL_AREA_STYLE ('',( #47 ) ) ;
#29 = VECTOR ( 'NONE', #309, 39.37007874015748143 ) ;
#30 = VERTEX_POINT ( 'NONE', #310 ) ;
#31 = CARTESIAN_POINT ( 'NONE',  ( 2.694222958124177253E-18, 0.0000000000000000000, 0.02199999999999999872 ) ) ;
#32 = ORIENTED_EDGE ( 'NONE', *, *, #60, .F. ) ;
#33 = EDGE_CURVE ( 'NONE', #30, #282, #90, .T. ) ;
#34 =( CONVERSION_BASED_UNIT ( 'INCH', #158 ) LENGTH_UNIT ( ) NAMED_UNIT ( #239 ) );
#35 = PRESENTATION_LAYER_ASSIGNMENT (  '', '', ( #106 ) ) ;
#36 = VECTOR ( 'NONE', #15, 39.37007874015748143 ) ;
#37 = DIRECTION ( 'NONE',  ( 0.0000000000000000000, -1.000000000000000000, 0.0000000000000000000 ) ) ;
#38 = UNCERTAINTY_MEASURE_WITH_UNIT (LENGTH_MEASURE( 1.000000000000000082E-05 ), #34, 'distance_accuracy_value', 'NONE');
#39 = CARTESIAN_POINT ( 'NONE',  ( 2.694222958124177253E-18, 0.0000000000000000000, 0.02199999999999999872 ) ) ;
#40 = CARTESIAN_POINT ( 'NONE',  ( 0.007492500000000001763, 9.175666142611544079E-19, 0.007492499999999999161 ) ) ;
#41 = SPHERICAL_SURFACE ( 'NONE', #150, 0.007492500000000000028 ) ;
#42 = ORIENTED_EDGE ( 'NONE', *, *, #261, .T. ) ;
#43 = DIRECTION ( 'NONE',  ( -1.000000000000000000, 0.0000000000000000000, 0.0000000000000000000 ) ) ;
#44 = DIRECTION ( 'NONE',  ( -1.000000000000000000, 0.0000000000000000000, 1.224646799147353454E-16 ) ) ;
#45 = EDGE_CURVE ( 'NONE', #254, #127, #249, .T. ) ;
#46 = ORIENTED_EDGE ( 'NONE', *, *, #231, .F. ) ;
#47 = FILL_AREA_STYLE_COLOUR ( '', #250 ) ;
#48 = DIRECTION ( 'NONE',  ( -1.000000000000000000, 1.224646799147353207E-16, 0.0000000000000000000 ) ) ;
#49 =( LENGTH_UNIT ( ) NAMED_UNIT ( * ) SI_UNIT ( $, .METRE. ) );
#50 =( GEOMETRIC_REPRESENTATION_CONTEXT ( 3 ) GLOBAL_UNCERTAINTY_ASSIGNED_CONTEXT ( ( #268 ) ) GLOBAL_UNIT_ASSIGNED_CONTEXT ( ( #236, #133, #258 ) ) REPRESENTATION_CONTEXT ( 'NONE', 'WORKASPACE' ) );
#51 = DIRECTION ( 'NONE',  ( 1.224646799147353454E-16, 0.0000000000000000000, 1.000000000000000000 ) ) ;
#52 = ORIENTED_EDGE ( 'NONE', *, *, #324, .F. ) ;
#53 = DIRECTION ( 'NONE',  ( -1.000000000000000000, 0.0000000000000000000, 0.0000000000000000000 ) ) ;
#54 = ORIENTED_EDGE ( 'NONE', *, *, #119, .F. ) ;
#55 = DIRECTION ( 'NONE',  ( 1.000000000000000000, 0.0000000000000000000, -0.0000000000000000000 ) ) ;
#56 = AXIS2_PLACEMENT_3D ( 'NONE', #143, #199, #93 ) ;
#57 = ORIENTED_EDGE ( 'NONE', *, *, #33, .T. ) ;
#58 = FILL_AREA_STYLE_COLOUR ( '', #156 ) ;
#59 = SURFACE_SIDE_STYLE ('',( #303 ) ) ;
#60 = EDGE_CURVE ( 'NONE', #184, #216, #226, .T. ) ;
#61 = EDGE_LOOP ( 'NONE', ( #178, #210, #27, #76 ) ) ;
#62 = DIRECTION ( 'NONE',  ( -1.000000000000000000, 0.0000000000000000000, 0.0000000000000000000 ) ) ;
#63 = ADVANCED_FACE ( 'NONE', ( #87 ), #169, .T. ) ;
#64 = CARTESIAN_POINT ( 'NONE',  ( 9.175666142611546005E-19, 0.0000000000000000000, 0.007492500000000000028 ) ) ;
#65 = LINE ( 'NONE', #111, #275 ) ;
#66 = ORIENTED_EDGE ( 'NONE', *, *, #138, .T. ) ;
#67 = DIRECTION ( 'NONE',  ( 0.0000000000000000000, 0.0000000000000000000, -1.000000000000000000 ) ) ;
#68 = AXIS2_PLACEMENT_3D ( 'NONE', #88, #295, #48 ) ;
#69 = EDGE_CURVE ( 'NONE', #186, #127, #122, .T. ) ;
#70 = AXIS2_PLACEMENT_3D ( 'NONE', #185, #104, #55 ) ;
#71 = LINE ( 'NONE', #18, #36 ) ;
#72 = DIRECTION ( 'NONE',  ( -1.224646799147353454E-16, -0.0000000000000000000, -1.000000000000000000 ) ) ;
#73 = CARTESIAN_POINT ( 'NONE',  ( 9.175666142611546005E-19, 0.0000000000000000000, 0.007492500000000000028 ) ) ;
#74 = VERTEX_POINT ( 'NONE', #289 ) ;
#75 = LINE ( 'NONE', #22, #136 ) ;
#76 = ORIENTED_EDGE ( 'NONE', *, *, #149, .F. ) ;
#77 = DIRECTION ( 'NONE',  ( 1.224646799147353454E-16, 0.0000000000000000000, 1.000000000000000000 ) ) ;
#78 = ORIENTED_EDGE ( 'NONE', *, *, #321, .F. ) ;
#79 = PRODUCT_RELATED_PRODUCT_CATEGORY ( 'part', '', ( #320 ) ) ;
#80 = CIRCLE ( 'NONE', #285, 0.04750000000000064587 ) ;
#81 = APPLICATION_PROTOCOL_DEFINITION ( 'draft international standard', 'automotive_design', 1998, #191 ) ;
#82 = ORIENTED_EDGE ( 'NONE', *, *, #190, .F. ) ;
#83 = AXIS2_PLACEMENT_3D ( 'NONE', #13, #240, #91 ) ;
#84 = AXIS2_PLACEMENT_3D ( 'NONE', #124, #179, #214 ) ;
#85 = ORIENTED_EDGE ( 'NONE', *, *, #89, .T. ) ;
#86 = CARTESIAN_POINT ( 'NONE',  ( 0.0000000000000000000, 0.0000000000000000000, 1.500000000000000222 ) ) ;
#87 = FACE_OUTER_BOUND ( 'NONE', #302, .T. ) ;
#88 = CARTESIAN_POINT ( 'NONE',  ( 9.175666142611546005E-19, 0.0000000000000000000, 0.007492500000000000028 ) ) ;
#89 = EDGE_CURVE ( 'NONE', #254, #23, #65, .T. ) ;
#90 = CIRCLE ( 'NONE', #68, 0.007492500000000000028 ) ;
#91 = DIRECTION ( 'NONE',  ( 1.000000000000000000, 0.0000000000000000000, 0.0000000000000000000 ) ) ;
#92 = AXIS2_PLACEMENT_3D ( 'NONE', #73, #77, #126 ) ;
#93 = DIRECTION ( 'NONE',  ( -1.000000000000000000, 0.0000000000000000000, 1.424261758458595593E-16 ) ) ;
#94 = ORIENTED_EDGE ( 'NONE', *, *, #69, .F. ) ;
#95 = DIRECTION ( 'NONE',  ( 0.0000000000000000000, 0.0000000000000000000, -1.000000000000000000 ) ) ;
#96 = CARTESIAN_POINT ( 'NONE',  ( 0.06250000000000000000, 7.654042494670956004E-18, 1.500000000000000222 ) ) ;
#97 = FACE_OUTER_BOUND ( 'NONE', #247, .T. ) ;
#98 = CARTESIAN_POINT ( 'NONE',  ( 0.04750000000000064587, 5.817072295950006528E-18, 1.500000000000000222 ) ) ;
#99 = EDGE_CURVE ( 'NONE', #316, #127, #166, .T. ) ;
#100 = PRODUCT_DEFINITION_FORMATION_WITH_SPECIFIED_SOURCE ( 'ANY', '', #320, .NOT_KNOWN. ) ;
#101 = ORIENTED_EDGE ( 'NONE', *, *, #227, .F. ) ;
#102 = SURFACE_SIDE_STYLE ('',( #128 ) ) ;
#103 = ORIENTED_EDGE ( 'NONE', *, *, #227, .T. ) ;
#104 = DIRECTION ( 'NONE',  ( 0.0000000000000000000, 0.0000000000000000000, 1.000000000000000000 ) ) ;
#105 = ADVANCED_FACE ( 'NONE', ( #220 ), #201, .T. ) ;
#106 = STYLED_ITEM ( 'NONE', ( #322 ), #291 ) ;
#107 = PRESENTATION_STYLE_ASSIGNMENT (( #7 ) ) ;
#108 = ORIENTED_EDGE ( 'NONE', *, *, #119, .T. ) ;
#109 = AXIS2_PLACEMENT_3D ( 'NONE', #297, #229, #189 ) ;
#110 = CIRCLE ( 'NONE', #84, 0.04750000000000064587 ) ;
#111 = CARTESIAN_POINT ( 'NONE',  ( 0.007492500000000000028, 9.175666142611544079E-19, -9.175666142611546005E-19 ) ) ;
#112 = ADVANCED_FACE ( 'NONE', ( #313 ), #215, .T. ) ;
#113 = CARTESIAN_POINT ( 'NONE',  ( 4.089867614698530514E-17, 0.0000000000000000000, 0.3339630346926194537 ) ) ;
#114 = AXIS2_PLACEMENT_3D ( 'NONE', #86, #266, #43 ) ;
#115 = MECHANICAL_DESIGN_GEOMETRIC_PRESENTATION_REPRESENTATION (  '', ( #262 ), #264 ) ;
#116 = CARTESIAN_POINT ( 'NONE',  ( 9.175666142611546005E-19, 0.0000000000000000000, 0.007492500000000000028 ) ) ;
#117 = FACE_OUTER_BOUND ( 'NONE', #213, .T. ) ;
#118 = PRODUCT_DEFINITION_SHAPE ( 'NONE', 'NONE',  #307 ) ;
#119 = EDGE_CURVE ( 'NONE', #282, #23, #135, .T. ) ;
#120 = FACE_OUTER_BOUND ( 'NONE', #155, .T. ) ;
#121 = ORIENTED_EDGE ( 'NONE', *, *, #130, .F. ) ;
#122 = LINE ( 'NONE', #96, #162 ) ;
#123 =( NAMED_UNIT ( * ) PLANE_ANGLE_UNIT ( ) SI_UNIT ( $, .RADIAN. ) );
#124 = CARTESIAN_POINT ( 'NONE',  ( 0.0000000000000000000, 0.0000000000000000000, 1.500000000000000222 ) ) ;
#125 = EDGE_CURVE ( 'NONE', #19, #282, #71, .T. ) ;
#126 = DIRECTION ( 'NONE',  ( -1.000000000000000000, 0.0000000000000000000, 1.424261758458595593E-16 ) ) ;
#127 = VERTEX_POINT ( 'NONE', #292 ) ;
#128 = SURFACE_STYLE_FILL_AREA ( #28 ) ;
#129 = CIRCLE ( 'NONE', #109, 0.06250000000000000000 ) ;
#130 = EDGE_CURVE ( 'NONE', #30, #23, #312, .T. ) ;
#131 = ORIENTED_EDGE ( 'NONE', *, *, #296, .T. ) ;
#132 = EDGE_LOOP ( 'NONE', ( #52, #235, #280, #279 ) ) ;
#133 =( NAMED_UNIT ( * ) PLANE_ANGLE_UNIT ( ) SI_UNIT ( $, .RADIAN. ) );
#134 = CIRCLE ( 'NONE', #8, 0.06250000000000000000 ) ;
#135 = CIRCLE ( 'NONE', #56, 0.007492500000000000028 ) ;
#136 = VECTOR ( 'NONE', #230, 39.37007874015747433 ) ;
#137 = CARTESIAN_POINT ( 'NONE',  ( 0.0000000000000000000, 0.0000000000000000000, 0.0000000000000000000 ) ) ;
#138 = EDGE_CURVE ( 'NONE', #184, #74, #80, .T. ) ;
#139 = DIRECTION ( 'NONE',  ( -0.0000000000000000000, -0.0000000000000000000, -1.000000000000000000 ) ) ;
#140 = DIRECTION ( 'NONE',  ( 0.0000000000000000000, 0.0000000000000000000, -1.000000000000000000 ) ) ;
#141 = CARTESIAN_POINT ( 'NONE',  ( 0.0000000000000000000, 0.0000000000000000000, 1.500000000000000222 ) ) ;
#142 = CIRCLE ( 'NONE', #270, 0.007492500000000001763 ) ;
#143 = CARTESIAN_POINT ( 'NONE',  ( 9.175666142611546005E-19, 0.0000000000000000000, 0.007492500000000000028 ) ) ;
#144 = ORIENTED_EDGE ( 'NONE', *, *, #33, .F. ) ;
#145 = DIRECTION ( 'NONE',  ( 1.000000000000000000, 0.0000000000000000000, 0.0000000000000000000 ) ) ;
#146 = CARTESIAN_POINT ( 'NONE',  ( 0.0000000000000000000, 0.0000000000000000000, 0.0000000000000000000 ) ) ;
#147 = LINE ( 'NONE', #98, #237 ) ;
#148 = CARTESIAN_POINT ( 'NONE',  ( 0.0000000000000000000, 0.0000000000000000000, 0.0000000000000000000 ) ) ;
#149 = EDGE_CURVE ( 'NONE', #216, #316, #224, .T. ) ;
#150 = AXIS2_PLACEMENT_3D ( 'NONE', #64, #311, #145 ) ;
#151 = CARTESIAN_POINT ( 'NONE',  ( 2.694222958124177253E-18, 0.0000000000000000000, 0.02199999999999999872 ) ) ;
#152 = ORIENTED_EDGE ( 'NONE', *, *, #281, .F. ) ;
#153 = ORIENTED_EDGE ( 'NONE', *, *, #99, .T. ) ;
#154 = DIRECTION ( 'NONE',  ( -1.000000000000000000, 0.0000000000000000000, 0.0000000000000000000 ) ) ;
#155 = EDGE_LOOP ( 'NONE', ( #144, #3, #54 ) ) ;
#156 = COLOUR_RGB ( '',0.7921568627450980005, 0.8196078431372548767, 0.9333333333333333481 ) ;
#157 = ORIENTED_EDGE ( 'NONE', *, *, #45, .F. ) ;
#158 = LENGTH_MEASURE_WITH_UNIT ( LENGTH_MEASURE( 0.02539999999999999897 ), #159 );
#159 =( LENGTH_UNIT ( ) NAMED_UNIT ( * ) SI_UNIT ( $, .METRE. ) );
#160 = ORIENTED_EDGE ( 'NONE', *, *, #149, .T. ) ;
#161 = ADVANCED_FACE ( 'NONE', ( #290 ), #269, .T. ) ;
#162 = VECTOR ( 'NONE', #168, 39.37007874015748143 ) ;
#163 = MECHANICAL_DESIGN_GEOMETRIC_PRESENTATION_REPRESENTATION (  '', ( #106 ), #180 ) ;
#164 = DIRECTION ( 'NONE',  ( 0.0000000000000000000, 0.0000000000000000000, 1.000000000000000000 ) ) ;
#165 = ADVANCED_FACE ( 'NONE', ( #120 ), #41, .T. ) ;
#166 = CIRCLE ( 'NONE', #319, 0.06250000000000000000 ) ;
#167 = AXIS2_PLACEMENT_3D ( 'NONE', #31, #177, #206 ) ;
#168 = DIRECTION ( 'NONE',  ( -0.0000000000000000000, -0.0000000000000000000, -1.000000000000000000 ) ) ;
#169 = CYLINDRICAL_SURFACE ( 'NONE', #16, 0.007492500000000000028 ) ;
#170 = FACE_OUTER_BOUND ( 'NONE', #257, .T. ) ;
#171 = ADVANCED_BREP_SHAPE_REPRESENTATION ( 'Micro_BMS-015-2X', ( #291, #271 ), #50 ) ;
#172 = CARTESIAN_POINT ( 'NONE',  ( 0.0000000000000000000, 0.0000000000000000000, 1.500000000000000222 ) ) ;
#173 = EDGE_CURVE ( 'NONE', #186, #216, #134, .T. ) ;
#174 = AXIS2_PLACEMENT_3D ( 'NONE', #141, #139, #62 ) ;
#175 = CARTESIAN_POINT ( 'NONE',  ( 0.0000000000000000000, 0.0000000000000000000, 1.485000000000000764 ) ) ;
#176 = DIRECTION ( 'NONE',  ( 0.0000000000000000000, 0.0000000000000000000, 1.000000000000000000 ) ) ;
#177 = DIRECTION ( 'NONE',  ( -1.224646799147353454E-16, -0.0000000000000000000, -1.000000000000000000 ) ) ;
#178 = ORIENTED_EDGE ( 'NONE', *, *, #231, .T. ) ;
#179 = DIRECTION ( 'NONE',  ( 0.0000000000000000000, 0.0000000000000000000, 1.000000000000000000 ) ) ;
#180 =( GEOMETRIC_REPRESENTATION_CONTEXT ( 3 ) GLOBAL_UNCERTAINTY_ASSIGNED_CONTEXT ( ( #197 ) ) GLOBAL_UNIT_ASSIGNED_CONTEXT ( ( #211, #123, #24 ) ) REPRESENTATION_CONTEXT ( 'NONE', 'WORKASPACE' ) );
#181 = AXIS2_PLACEMENT_3D ( 'NONE', #151, #51, #300 ) ;
#182 = EDGE_LOOP ( 'NONE', ( #94, #305, #160, #82 ) ) ;
#183 = FACE_OUTER_BOUND ( 'NONE', #132, .T. ) ;
#184 = VERTEX_POINT ( 'NONE', #238 ) ;
#185 = CARTESIAN_POINT ( 'NONE',  ( 0.0000000000000000000, 0.0000000000000000000, 1.500000000000000222 ) ) ;
#186 = VERTEX_POINT ( 'NONE', #317 ) ;
#187 = ORIENTED_EDGE ( 'NONE', *, *, #125, .T. ) ;
#188 = CARTESIAN_POINT ( 'NONE',  ( 0.007492500000000004365, 0.0000000000000000000, 0.02199999999999999872 ) ) ;
#189 = DIRECTION ( 'NONE',  ( 1.000000000000000000, 0.0000000000000000000, 0.0000000000000000000 ) ) ;
#190 = EDGE_CURVE ( 'NONE', #127, #316, #194, .T. ) ;
#191 = APPLICATION_CONTEXT ( 'automotive_design' ) ;
#192 = PRODUCT_CONTEXT ( 'NONE', #191, 'mechanical' ) ;
#193 = CARTESIAN_POINT ( 'NONE',  ( 0.0000000000000000000, 0.0000000000000000000, 1.500000000000000222 ) ) ;
#194 = CIRCLE ( 'NONE', #83, 0.06250000000000000000 ) ;
#195 = CARTESIAN_POINT ( 'NONE',  ( -0.04750000000000064587, 0.0000000000000000000, 1.500000000000000222 ) ) ;
#196 = CIRCLE ( 'NONE', #92, 0.007492500000000000028 ) ;
#197 = UNCERTAINTY_MEASURE_WITH_UNIT (LENGTH_MEASURE( 1.000000000000000082E-05 ), #211, 'distance_accuracy_value', 'NONE');
#198 = CARTESIAN_POINT ( 'NONE',  ( -0.06250000000000000000, 0.0000000000000000000, 1.485000000000000764 ) ) ;
#199 = DIRECTION ( 'NONE',  ( 1.224646799147353454E-16, 0.0000000000000000000, 1.000000000000000000 ) ) ;
#200 = ORIENTED_EDGE ( 'NONE', *, *, #125, .F. ) ;
#201 = CYLINDRICAL_SURFACE ( 'NONE', #114, 0.06250000000000000000 ) ;
#202 = FACE_OUTER_BOUND ( 'NONE', #299, .T. ) ;
#203 = EDGE_LOOP ( 'NONE', ( #78, #242, #46, #32 ) ) ;
#204 = VECTOR ( 'NONE', #6, 39.37007874015748143 ) ;
#205 = DIRECTION ( 'NONE',  ( -1.000000000000000000, 0.0000000000000000000, 0.0000000000000000000 ) ) ;
#206 = DIRECTION ( 'NONE',  ( -1.000000000000000000, 0.0000000000000000000, 0.0000000000000000000 ) ) ;
#207 = CARTESIAN_POINT ( 'NONE',  ( 0.0000000000000000000, 0.0000000000000000000, 1.500000000000000222 ) ) ;
#208 = LENGTH_MEASURE_WITH_UNIT ( LENGTH_MEASURE( 0.02539999999999999897 ), #323 );
#209 = AXIS2_PLACEMENT_3D ( 'NONE', #116, #246, #223 ) ;
#210 = ORIENTED_EDGE ( 'NONE', *, *, #69, .T. ) ;
#211 =( CONVERSION_BASED_UNIT ( 'INCH', #208 ) LENGTH_UNIT ( ) NAMED_UNIT ( #306 ) );
#212 = APPLICATION_CONTEXT ( 'automotive_design' ) ;
#213 = EDGE_LOOP ( 'NONE', ( #245, #101, #232, #25 ) ) ;
#214 = DIRECTION ( 'NONE',  ( 1.000000000000000000, 0.0000000000000000000, 0.0000000000000000000 ) ) ;
#215 = CONICAL_SURFACE ( 'NONE', #256, 0.04750000000000064587, 0.7853981633974457255 ) ;
#216 = VERTEX_POINT ( 'NONE', #198 ) ;
#217 = DIMENSIONAL_EXPONENTS ( 1.000000000000000000, 0.0000000000000000000, 0.0000000000000000000, 0.0000000000000000000, 0.0000000000000000000, 0.0000000000000000000, 0.0000000000000000000 ) ;
#218 = DIRECTION ( 'NONE',  ( 1.000000000000000000, 0.0000000000000000000, 0.0000000000000000000 ) ) ;
#219 = DIRECTION ( 'NONE',  ( 1.000000000000000000, 0.0000000000000000000, 0.0000000000000000000 ) ) ;
#220 = FACE_OUTER_BOUND ( 'NONE', #61, .T. ) ;
#221 = ADVANCED_FACE ( 'NONE', ( #170 ), #243, .T. ) ;
#222 = AXIS2_PLACEMENT_3D ( 'NONE', #148, #267, #44 ) ;
#223 = DIRECTION ( 'NONE',  ( 1.000000000000000000, 0.0000000000000000000, 0.0000000000000000000 ) ) ;
#224 = LINE ( 'NONE', #273, #287 ) ;
#225 = CARTESIAN_POINT ( 'NONE',  ( -0.007492499999999998293, 4.285804554466055399E-18, 0.02199999999999999872 ) ) ;
#226 = LINE ( 'NONE', #195, #29 ) ;
#227 = EDGE_CURVE ( 'NONE', #254, #19, #142, .T. ) ;
#228 = CARTESIAN_POINT ( 'NONE',  ( -0.06249999999999995837, 0.0000000000000000000, 0.3339630346926194537 ) ) ;
#229 = DIRECTION ( 'NONE',  ( 0.0000000000000000000, 0.0000000000000000000, -1.000000000000000000 ) ) ;
#230 = DIRECTION ( 'NONE',  ( -0.1736481776669311639, 2.126576849575783008E-17, 0.9848077530122080203 ) ) ;
#231 = EDGE_CURVE ( 'NONE', #216, #186, #129, .T. ) ;
#232 = ORIENTED_EDGE ( 'NONE', *, *, #45, .T. ) ;
#233 = SURFACE_STYLE_USAGE ( .BOTH. , #102 ) ;
#234 = CIRCLE ( 'NONE', #167, 0.007492500000000001763 ) ;
#235 = ORIENTED_EDGE ( 'NONE', *, *, #138, .F. ) ;
#236 =( CONVERSION_BASED_UNIT ( 'INCH', #251 ) LENGTH_UNIT ( ) NAMED_UNIT ( #217 ) );
#237 = VECTOR ( 'NONE', #255, 39.37007874015748143 ) ;
#238 = CARTESIAN_POINT ( 'NONE',  ( -0.04750000000000064587, 0.0000000000000000000, 1.500000000000000222 ) ) ;
#239 = DIMENSIONAL_EXPONENTS ( 1.000000000000000000, 0.0000000000000000000, 0.0000000000000000000, 0.0000000000000000000, 0.0000000000000000000, 0.0000000000000000000, 0.0000000000000000000 ) ;
#240 = DIRECTION ( 'NONE',  ( -1.224646799147353454E-16, -0.0000000000000000000, -1.000000000000000000 ) ) ;
#241 = ADVANCED_FACE ( 'NONE', ( #183 ), #9, .T. ) ;
#242 = ORIENTED_EDGE ( 'NONE', *, *, #324, .T. ) ;
#243 = SPHERICAL_SURFACE ( 'NONE', #209, 0.007492500000000000028 ) ;
#244 = AXIS2_PLACEMENT_3D ( 'NONE', #286, #37, #67 ) ;
#245 = ORIENTED_EDGE ( 'NONE', *, *, #261, .F. ) ;
#246 = DIRECTION ( 'NONE',  ( 0.0000000000000000000, 1.000000000000000000, 0.0000000000000000000 ) ) ;
#247 = EDGE_LOOP ( 'NONE', ( #152, #42, #153, #157 ) ) ;
#248 = DIRECTION ( 'NONE',  ( 1.000000000000000000, 0.0000000000000000000, 0.0000000000000000000 ) ) ;
#249 = LINE ( 'NONE', #188, #204 ) ;
#250 = COLOUR_RGB ( '',0.7921568627450980005, 0.8196078431372548767, 0.9333333333333333481 ) ;
#251 = LENGTH_MEASURE_WITH_UNIT ( LENGTH_MEASURE( 0.02539999999999999897 ), #49 );
#252 = ORIENTED_EDGE ( 'NONE', *, *, #89, .F. ) ;
#253 = FACE_OUTER_BOUND ( 'NONE', #301, .T. ) ;
#254 = VERTEX_POINT ( 'NONE', #276 ) ;
#255 = DIRECTION ( 'NONE',  ( 0.7071067811865456854, 8.659560562354911904E-17, -0.7071067811865493491 ) ) ;
#256 = AXIS2_PLACEMENT_3D ( 'NONE', #193, #95, #205 ) ;
#257 = EDGE_LOOP ( 'NONE', ( #121, #57, #1 ) ) ;
#258 =( NAMED_UNIT ( * ) SI_UNIT ( $, .STERADIAN. ) SOLID_ANGLE_UNIT ( ) );
#259 = CONICAL_SURFACE ( 'NONE', #263, 0.007492500000000001763, 0.1745329251994338637 ) ;
#260 = APPLICATION_PROTOCOL_DEFINITION ( 'draft international standard', 'automotive_design', 1998, #212 ) ;
#261 = EDGE_CURVE ( 'NONE', #19, #316, #75, .T. ) ;
#262 = STYLED_ITEM ( 'NONE', ( #107 ), #171 ) ;
#263 = AXIS2_PLACEMENT_3D ( 'NONE', #314, #318, #219 ) ;
#264 =( GEOMETRIC_REPRESENTATION_CONTEXT ( 3 ) GLOBAL_UNCERTAINTY_ASSIGNED_CONTEXT ( ( #38 ) ) GLOBAL_UNIT_ASSIGNED_CONTEXT ( ( #34, #10, #4 ) ) REPRESENTATION_CONTEXT ( 'NONE', 'WORKASPACE' ) );
#265 = ADVANCED_FACE ( 'NONE', ( #97 ), #12, .T. ) ;
#266 = DIRECTION ( 'NONE',  ( -0.0000000000000000000, -0.0000000000000000000, -1.000000000000000000 ) ) ;
#267 = DIRECTION ( 'NONE',  ( -1.224646799147353454E-16, -0.0000000000000000000, -1.000000000000000000 ) ) ;
#268 = UNCERTAINTY_MEASURE_WITH_UNIT (LENGTH_MEASURE( 1.000000000000000082E-05 ), #236, 'distance_accuracy_value', 'NONE');
#269 = CYLINDRICAL_SURFACE ( 'NONE', #174, 0.06250000000000000000 ) ;
#270 = AXIS2_PLACEMENT_3D ( 'NONE', #39, #315, #154 ) ;
#271 = AXIS2_PLACEMENT_3D ( 'NONE', #137, #164, #11 ) ;
#272 = DIRECTION ( 'NONE',  ( 1.000000000000000000, 0.0000000000000000000, 0.0000000000000000000 ) ) ;
#273 = CARTESIAN_POINT ( 'NONE',  ( -0.06250000000000000000, 0.0000000000000000000, 1.500000000000000222 ) ) ;
#274 = PLANE ( 'NONE',  #70 ) ;
#275 = VECTOR ( 'NONE', #20, 39.37007874015748143 ) ;
#276 = CARTESIAN_POINT ( 'NONE',  ( 0.007492500000000004365, 0.0000000000000000000, 0.02199999999999999872 ) ) ;
#277 = ORIENTED_EDGE ( 'NONE', *, *, #281, .T. ) ;
#278 = DIRECTION ( 'NONE',  ( 0.0000000000000000000, 0.0000000000000000000, -1.000000000000000000 ) ) ;
#279 = ORIENTED_EDGE ( 'NONE', *, *, #173, .F. ) ;
#280 = ORIENTED_EDGE ( 'NONE', *, *, #60, .T. ) ;
#281 = EDGE_CURVE ( 'NONE', #19, #254, #234, .T. ) ;
#282 = VERTEX_POINT ( 'NONE', #2 ) ;
#283 = FILL_AREA_STYLE ('',( #58 ) ) ;
#284 = ADVANCED_FACE ( 'NONE', ( #253 ), #274, .T. ) ;
#285 = AXIS2_PLACEMENT_3D ( 'NONE', #172, #176, #218 ) ;
#286 = CARTESIAN_POINT ( 'NONE',  ( 9.175666142611546005E-19, 0.0000000000000000000, 0.007492500000000000028 ) ) ;
#287 = VECTOR ( 'NONE', #308, 39.37007874015748143 ) ;
#288 = AXIS2_PLACEMENT_3D ( 'NONE', #207, #278, #53 ) ;
#289 = CARTESIAN_POINT ( 'NONE',  ( 0.04750000000000064587, 6.735557395310482421E-18, 1.500000000000000222 ) ) ;
#290 = FACE_OUTER_BOUND ( 'NONE', #182, .T. ) ;
#291 = MANIFOLD_SOLID_BREP ( 'Fillet1', #298 ) ;
#292 = CARTESIAN_POINT ( 'NONE',  ( 0.06250000000000004163, 7.654042494670960626E-18, 0.3339630346926194537 ) ) ;
#293 = CYLINDRICAL_SURFACE ( 'NONE', #222, 0.007492500000000000028 ) ;
#294 = DIRECTION ( 'NONE',  ( -1.224646799147353454E-16, -0.0000000000000000000, -1.000000000000000000 ) ) ;
#295 = DIRECTION ( 'NONE',  ( 1.224646799147353207E-16, 1.000000000000000000, -0.0000000000000000000 ) ) ;
#296 = EDGE_CURVE ( 'NONE', #23, #282, #196, .T. ) ;
#297 = CARTESIAN_POINT ( 'NONE',  ( 0.0000000000000000000, 0.0000000000000000000, 1.485000000000000764 ) ) ;
#298 = CLOSED_SHELL ( 'NONE', ( #221, #21, #265, #112, #105, #161, #284, #241, #26, #63, #165 ) ) ;
#299 = EDGE_LOOP ( 'NONE', ( #277, #85, #131, #200 ) ) ;
#300 = DIRECTION ( 'NONE',  ( 1.000000000000000000, 0.0000000000000000000, 0.0000000000000000000 ) ) ;
#301 = EDGE_LOOP ( 'NONE', ( #66, #325 ) ) ;
#302 = EDGE_LOOP ( 'NONE', ( #252, #103, #187, #108 ) ) ;
#303 = SURFACE_STYLE_FILL_AREA ( #283 ) ;
#304 = PRODUCT_DEFINITION_CONTEXT ( 'detailed design', #212, 'design' ) ;
#305 = ORIENTED_EDGE ( 'NONE', *, *, #173, .T. ) ;
#306 = DIMENSIONAL_EXPONENTS ( 1.000000000000000000, 0.0000000000000000000, 0.0000000000000000000, 0.0000000000000000000, 0.0000000000000000000, 0.0000000000000000000, 0.0000000000000000000 ) ;
#307 = PRODUCT_DEFINITION ( 'UNKNOWN', '', #100, #304 ) ;
#308 = DIRECTION ( 'NONE',  ( -0.0000000000000000000, -0.0000000000000000000, -1.000000000000000000 ) ) ;
#309 = DIRECTION ( 'NONE',  ( -0.7071067811865456854, 0.0000000000000000000, -0.7071067811865493491 ) ) ;
#310 = CARTESIAN_POINT ( 'NONE',  ( 1.376349921391731997E-18, 0.0000000000000000000, 0.0000000000000000000 ) ) ;
#311 = DIRECTION ( 'NONE',  ( 0.0000000000000000000, 1.000000000000000000, 0.0000000000000000000 ) ) ;
#312 = CIRCLE ( 'NONE', #244, 0.007492500000000000028 ) ;
#313 = FACE_OUTER_BOUND ( 'NONE', #203, .T. ) ;
#314 = CARTESIAN_POINT ( 'NONE',  ( 2.694222958124177253E-18, 0.0000000000000000000, 0.02199999999999999872 ) ) ;
#315 = DIRECTION ( 'NONE',  ( -1.224646799147353454E-16, -0.0000000000000000000, -1.000000000000000000 ) ) ;
#316 = VERTEX_POINT ( 'NONE', #228 ) ;
#317 = CARTESIAN_POINT ( 'NONE',  ( 0.06250000000000000000, 7.654042494670956004E-18, 1.485000000000000764 ) ) ;
#318 = DIRECTION ( 'NONE',  ( 1.224646799147353454E-16, 0.0000000000000000000, 1.000000000000000000 ) ) ;
#319 = AXIS2_PLACEMENT_3D ( 'NONE', #113, #294, #272 ) ;
#320 = PRODUCT ( 'Micro_BMS-015-2X', 'Micro_BMS-015-2X', '', ( #192 ) ) ;
#321 = EDGE_CURVE ( 'NONE', #74, #184, #110, .T. ) ;
#322 = PRESENTATION_STYLE_ASSIGNMENT (( #233 ) ) ;
#323 =( LENGTH_UNIT ( ) NAMED_UNIT ( * ) SI_UNIT ( $, .METRE. ) );
#324 = EDGE_CURVE ( 'NONE', #74, #186, #147, .T. ) ;
#325 = ORIENTED_EDGE ( 'NONE', *, *, #321, .T. ) ;
ENDSEC;
END-ISO-10303-21;
