ISO-10303-21;
HEADER;
FILE_DESCRIPTION (( 'STEP AP214' ),
    '1' );
FILE_NAME ('Micro_RTCM-040-1X.STEP',
    '2021-09-03T18:20:24',
    ( '' ),
    ( '' ),
    'SwSTEP 2.0',
    'SolidWorks 2020',
    '' );
FILE_SCHEMA (( 'AUTOMOTIVE_DESIGN' ));
ENDSEC;

DATA;
#1 = CIRCLE ( 'NONE', #206, 0.07874000000000000443 ) ;
#2 = APPLICATION_PROTOCOL_DEFINITION ( 'draft international standard', 'automotive_design', 1998, #8 ) ;
#3 = FACE_OUTER_BOUND ( 'NONE', #168, .T. ) ;
#4 = AXIS2_PLACEMENT_3D ( 'NONE', #15, #65, #152 ) ;
#5 = CARTESIAN_POINT ( 'NONE',  ( 0.0000000000000000000, 0.0000000000000000000, 1.968503999999999809 ) ) ;
#6 = EDGE_CURVE ( 'NONE', #202, #170, #166, .T. ) ;
#7 = DIRECTION ( 'NONE',  ( 0.0000000000000000000, 0.0000000000000000000, 1.000000000000000000 ) ) ;
#8 = APPLICATION_CONTEXT ( 'automotive_design' ) ;
#9 = VERTEX_POINT ( 'NONE', #78 ) ;
#10 = AXIS2_PLACEMENT_3D ( 'NONE', #179, #23, #195 ) ;
#11 = DIRECTION ( 'NONE',  ( -0.0000000000000000000, -0.0000000000000000000, -1.000000000000000000 ) ) ;
#12 = ADVANCED_BREP_SHAPE_REPRESENTATION ( 'Micro_RTCM-040-1X', ( #104, #177 ), #138 ) ;
#13 = COLOUR_RGB ( '',0.7921568627450980005, 0.8196078431372548767, 0.9333333333333333481 ) ;
#14 = CARTESIAN_POINT ( 'NONE',  ( 0.0000000000000000000, 0.0000000000000000000, 1.968503999999999809 ) ) ;
#15 = CARTESIAN_POINT ( 'NONE',  ( 0.0000000000000000000, 0.0000000000000000000, 0.2791685965585736229 ) ) ;
#16 = FACE_OUTER_BOUND ( 'NONE', #27, .T. ) ;
#17 = ADVANCED_FACE ( 'NONE', ( #144 ), #51, .T. ) ;
#18 = CARTESIAN_POINT ( 'NONE',  ( -0.003936999999999995191, 4.821434448243123477E-19, 0.0000000000000000000 ) ) ;
#19 = CARTESIAN_POINT ( 'NONE',  ( 0.06374000000000018540, 8.724383797125754882E-18, 1.968503999999999809 ) ) ;
#20 = AXIS2_PLACEMENT_3D ( 'NONE', #112, #246, #228 ) ;
#21 = VECTOR ( 'NONE', #22, 39.37007874015748143 ) ;
#22 = DIRECTION ( 'NONE',  ( -0.0000000000000000000, -0.0000000000000000000, -1.000000000000000000 ) ) ;
#23 = DIRECTION ( 'NONE',  ( 0.0000000000000000000, 0.0000000000000000000, 1.000000000000000000 ) ) ;
#24 = ORIENTED_EDGE ( 'NONE', *, *, #42, .F. ) ;
#25 = ORIENTED_EDGE ( 'NONE', *, *, #42, .T. ) ;
#26 = ORIENTED_EDGE ( 'NONE', *, *, #147, .T. ) ;
#27 = EDGE_LOOP ( 'NONE', ( #164, #123, #151, #148 ) ) ;
#28 = ADVANCED_FACE ( 'NONE', ( #41 ), #212, .T. ) ;
#29 = COLOUR_RGB ( '',0.7921568627450980005, 0.8196078431372548767, 0.9333333333333333481 ) ;
#30 = CARTESIAN_POINT ( 'NONE',  ( 0.07874000000000000443, 9.642868896486258509E-18, 1.968503999999999809 ) ) ;
#31 =( GEOMETRIC_REPRESENTATION_CONTEXT ( 3 ) GLOBAL_UNCERTAINTY_ASSIGNED_CONTEXT ( ( #175 ) ) GLOBAL_UNIT_ASSIGNED_CONTEXT ( ( #131, #110, #67 ) ) REPRESENTATION_CONTEXT ( 'NONE', 'WORKASPACE' ) );
#32 = DIRECTION ( 'NONE',  ( 0.0000000000000000000, 0.0000000000000000000, -1.000000000000000000 ) ) ;
#33 = CARTESIAN_POINT ( 'NONE',  ( 0.0000000000000000000, 0.0000000000000000000, 1.968503999999999809 ) ) ;
#34 = PRODUCT_DEFINITION_FORMATION_WITH_SPECIFIED_SOURCE ( 'ANY', '', #169, .NOT_KNOWN. ) ;
#35 = AXIS2_PLACEMENT_3D ( 'NONE', #76, #98, #193 ) ;
#36 = DIMENSIONAL_EXPONENTS ( 1.000000000000000000, 0.0000000000000000000, 0.0000000000000000000, 0.0000000000000000000, 0.0000000000000000000, 0.0000000000000000000, 0.0000000000000000000 ) ;
#37 = CARTESIAN_POINT ( 'NONE',  ( -0.06374000000000018540, 0.0000000000000000000, 1.968503999999999809 ) ) ;
#38 = DIRECTION ( 'NONE',  ( 0.2588190451025217387, 0.0000000000000000000, 0.9659258262890679791 ) ) ;
#39 = DIRECTION ( 'NONE',  ( -1.000000000000000000, 0.0000000000000000000, 0.0000000000000000000 ) ) ;
#40 = AXIS2_PLACEMENT_3D ( 'NONE', #5, #204, #186 ) ;
#41 = FACE_OUTER_BOUND ( 'NONE', #245, .T. ) ;
#42 = EDGE_CURVE ( 'NONE', #200, #221, #121, .T. ) ;
#43 = ORIENTED_EDGE ( 'NONE', *, *, #203, .T. ) ;
#44 = LENGTH_MEASURE_WITH_UNIT ( LENGTH_MEASURE( 0.02539999999999999897 ), #157 );
#45 = EDGE_LOOP ( 'NONE', ( #60, #146, #127, #61 ) ) ;
#46 = SURFACE_SIDE_STYLE ('',( #153 ) ) ;
#47 = CARTESIAN_POINT ( 'NONE',  ( 0.0000000000000000000, 0.0000000000000000000, 1.968503999999999809 ) ) ;
#48 = LINE ( 'NONE', #30, #194 ) ;
#49 = CARTESIAN_POINT ( 'NONE',  ( 0.0000000000000000000, 0.0000000000000000000, 1.968503999999999809 ) ) ;
#50 = DIRECTION ( 'NONE',  ( -0.0000000000000000000, -0.0000000000000000000, -1.000000000000000000 ) ) ;
#51 = CONICAL_SURFACE ( 'NONE', #189, 0.003936999999999995191, 0.2617993877991504625 ) ;
#52 =( LENGTH_UNIT ( ) NAMED_UNIT ( * ) SI_UNIT ( $, .METRE. ) );
#53 = FILL_AREA_STYLE_COLOUR ( '', #29 ) ;
#54 = CARTESIAN_POINT ( 'NONE',  ( -0.06374000000000018540, 0.0000000000000000000, 1.968503999999999809 ) ) ;
#55 = CARTESIAN_POINT ( 'NONE',  ( 0.003936999999999995191, 0.0000000000000000000, 0.0000000000000000000 ) ) ;
#56 = DIRECTION ( 'NONE',  ( 0.0000000000000000000, 0.0000000000000000000, 1.000000000000000000 ) ) ;
#57 = ORIENTED_EDGE ( 'NONE', *, *, #95, .T. ) ;
#58 = AXIS2_PLACEMENT_3D ( 'NONE', #217, #235, #117 ) ;
#59 = CIRCLE ( 'NONE', #96, 0.07874000000000000443 ) ;
#60 = ORIENTED_EDGE ( 'NONE', *, *, #147, .F. ) ;
#61 = ORIENTED_EDGE ( 'NONE', *, *, #141, .F. ) ;
#62 = ORIENTED_EDGE ( 'NONE', *, *, #243, .F. ) ;
#63 = SHAPE_DEFINITION_REPRESENTATION ( #125, #12 ) ;
#64 = ORIENTED_EDGE ( 'NONE', *, *, #141, .T. ) ;
#65 = DIRECTION ( 'NONE',  ( -0.0000000000000000000, -0.0000000000000000000, -1.000000000000000000 ) ) ;
#66 = EDGE_CURVE ( 'NONE', #202, #9, #135, .T. ) ;
#67 =( NAMED_UNIT ( * ) SI_UNIT ( $, .STERADIAN. ) SOLID_ANGLE_UNIT ( ) );
#68 = VECTOR ( 'NONE', #93, 39.37007874015748854 ) ;
#69 = DIRECTION ( 'NONE',  ( -1.000000000000000000, 0.0000000000000000000, 0.0000000000000000000 ) ) ;
#70 = FACE_OUTER_BOUND ( 'NONE', #107, .T. ) ;
#71 = PLANE ( 'NONE',  #120 ) ;
#72 = UNCERTAINTY_MEASURE_WITH_UNIT (LENGTH_MEASURE( 1.000000000000000082E-05 ), #236, 'distance_accuracy_value', 'NONE');
#73 = STYLED_ITEM ( 'NONE', ( #249 ), #12 ) ;
#74 = CARTESIAN_POINT ( 'NONE',  ( 0.07874000000000000443, 9.642868896486258509E-18, 0.2791685965585736229 ) ) ;
#75 = CARTESIAN_POINT ( 'NONE',  ( -0.07874000000000000443, 0.0000000000000000000, 0.2791685965585736229 ) ) ;
#76 = CARTESIAN_POINT ( 'NONE',  ( 0.0000000000000000000, 0.0000000000000000000, 1.968503999999999809 ) ) ;
#77 = AXIS2_PLACEMENT_3D ( 'NONE', #49, #174, #230 ) ;
#78 = CARTESIAN_POINT ( 'NONE',  ( 0.07874000000000000443, 9.642868896486258509E-18, 1.953504000000000129 ) ) ;
#79 = DIRECTION ( 'NONE',  ( 1.000000000000000000, 0.0000000000000000000, 0.0000000000000000000 ) ) ;
#80 = EDGE_LOOP ( 'NONE', ( #240, #167, #224, #242 ) ) ;
#81 = ADVANCED_FACE ( 'NONE', ( #91 ), #188, .T. ) ;
#82 = MECHANICAL_DESIGN_GEOMETRIC_PRESENTATION_REPRESENTATION (  '', ( #73 ), #143 ) ;
#83 = VECTOR ( 'NONE', #231, 39.37007874015748854 ) ;
#84 = DIRECTION ( 'NONE',  ( 1.000000000000000000, 0.0000000000000000000, 0.0000000000000000000 ) ) ;
#85 = ORIENTED_EDGE ( 'NONE', *, *, #114, .F. ) ;
#86 = ADVANCED_FACE ( 'NONE', ( #226 ), #88, .T. ) ;
#87 = PRESENTATION_STYLE_ASSIGNMENT (( #132 ) ) ;
#88 = CYLINDRICAL_SURFACE ( 'NONE', #239, 0.07874000000000000443 ) ;
#89 = VECTOR ( 'NONE', #38, 39.37007874015748854 ) ;
#90 = CARTESIAN_POINT ( 'NONE',  ( -0.07874000000000000443, 0.0000000000000000000, 1.953504000000000129 ) ) ;
#91 = FACE_OUTER_BOUND ( 'NONE', #45, .T. ) ;
#92 = PRODUCT_RELATED_PRODUCT_CATEGORY ( 'part', '', ( #169 ) ) ;
#93 = DIRECTION ( 'NONE',  ( -0.7071067811865502373, 0.0000000000000000000, -0.7071067811865446862 ) ) ;
#94 = DIRECTION ( 'NONE',  ( 0.0000000000000000000, 0.0000000000000000000, 1.000000000000000000 ) ) ;
#95 = EDGE_CURVE ( 'NONE', #170, #202, #100, .T. ) ;
#96 = AXIS2_PLACEMENT_3D ( 'NONE', #173, #32, #225 ) ;
#97 = SURFACE_STYLE_USAGE ( .BOTH. , #176 ) ;
#98 = DIRECTION ( 'NONE',  ( 0.0000000000000000000, 0.0000000000000000000, -1.000000000000000000 ) ) ;
#99 = DIRECTION ( 'NONE',  ( -0.0000000000000000000, -0.0000000000000000000, -1.000000000000000000 ) ) ;
#100 = CIRCLE ( 'NONE', #142, 0.06374000000000018540 ) ;
#101 = CARTESIAN_POINT ( 'NONE',  ( 0.0000000000000000000, 0.0000000000000000000, 0.0000000000000000000 ) ) ;
#102 = VERTEX_POINT ( 'NONE', #90 ) ;
#103 = CARTESIAN_POINT ( 'NONE',  ( 0.0000000000000000000, 0.0000000000000000000, 0.0000000000000000000 ) ) ;
#104 = MANIFOLD_SOLID_BREP ( 'Cut-Revolve1', #113 ) ;
#105 = ORIENTED_EDGE ( 'NONE', *, *, #108, .T. ) ;
#106 = ORIENTED_EDGE ( 'NONE', *, *, #201, .T. ) ;
#107 = EDGE_LOOP ( 'NONE', ( #25, #105 ) ) ;
#108 = EDGE_CURVE ( 'NONE', #221, #200, #129, .T. ) ;
#109 = DIRECTION ( 'NONE',  ( 0.0000000000000000000, 0.0000000000000000000, 1.000000000000000000 ) ) ;
#110 =( NAMED_UNIT ( * ) PLANE_ANGLE_UNIT ( ) SI_UNIT ( $, .RADIAN. ) );
#111 = PRODUCT_DEFINITION_CONTEXT ( 'detailed design', #191, 'design' ) ;
#112 = CARTESIAN_POINT ( 'NONE',  ( 0.0000000000000000000, 0.0000000000000000000, 0.0000000000000000000 ) ) ;
#113 = CLOSED_SHELL ( 'NONE', ( #17, #116, #86, #81, #180, #232, #28, #165 ) ) ;
#114 = EDGE_CURVE ( 'NONE', #221, #183, #154, .T. ) ;
#115 = CARTESIAN_POINT ( 'NONE',  ( 0.0000000000000000000, 0.0000000000000000000, 0.0000000000000000000 ) ) ;
#116 = ADVANCED_FACE ( 'NONE', ( #16 ), #207, .T. ) ;
#117 = DIRECTION ( 'NONE',  ( 1.000000000000000000, 0.0000000000000000000, 0.0000000000000000000 ) ) ;
#118 = LINE ( 'NONE', #192, #21 ) ;
#119 =( NAMED_UNIT ( * ) PLANE_ANGLE_UNIT ( ) SI_UNIT ( $, .RADIAN. ) );
#120 = AXIS2_PLACEMENT_3D ( 'NONE', #155, #94, #178 ) ;
#121 = CIRCLE ( 'NONE', #145, 0.003936999999999995191 ) ;
#122 = CARTESIAN_POINT ( 'NONE',  ( 0.0000000000000000000, 0.0000000000000000000, 0.0000000000000000000 ) ) ;
#123 = ORIENTED_EDGE ( 'NONE', *, *, #66, .T. ) ;
#124 = ORIENTED_EDGE ( 'NONE', *, *, #134, .T. ) ;
#125 = PRODUCT_DEFINITION_SHAPE ( 'NONE', 'NONE',  #163 ) ;
#126 = ORIENTED_EDGE ( 'NONE', *, *, #203, .F. ) ;
#127 = ORIENTED_EDGE ( 'NONE', *, *, #243, .T. ) ;
#128 = FILL_AREA_STYLE_COLOUR ( '', #13 ) ;
#129 = CIRCLE ( 'NONE', #20, 0.003936999999999995191 ) ;
#130 = AXIS2_PLACEMENT_3D ( 'NONE', #122, #198, #84 ) ;
#131 =( CONVERSION_BASED_UNIT ( 'INCH', #205 ) LENGTH_UNIT ( ) NAMED_UNIT ( #210 ) );
#132 = SURFACE_STYLE_USAGE ( .BOTH. , #46 ) ;
#133 =( LENGTH_UNIT ( ) NAMED_UNIT ( * ) SI_UNIT ( $, .METRE. ) );
#134 = EDGE_CURVE ( 'NONE', #102, #9, #59, .T. ) ;
#135 = LINE ( 'NONE', #247, #83 ) ;
#136 =( NAMED_UNIT ( * ) SI_UNIT ( $, .STERADIAN. ) SOLID_ANGLE_UNIT ( ) );
#137 = PLANE ( 'NONE',  #10 ) ;
#138 =( GEOMETRIC_REPRESENTATION_CONTEXT ( 3 ) GLOBAL_UNCERTAINTY_ASSIGNED_CONTEXT ( ( #72 ) ) GLOBAL_UNIT_ASSIGNED_CONTEXT ( ( #236, #119, #136 ) ) REPRESENTATION_CONTEXT ( 'NONE', 'WORKASPACE' ) );
#139 = CARTESIAN_POINT ( 'NONE',  ( 0.003936999999999995191, 0.0000000000000000000, 0.0000000000000000000 ) ) ;
#140 = SURFACE_STYLE_FILL_AREA ( #218 ) ;
#141 = EDGE_CURVE ( 'NONE', #199, #183, #223, .T. ) ;
#142 = AXIS2_PLACEMENT_3D ( 'NONE', #47, #109, #211 ) ;
#143 =( GEOMETRIC_REPRESENTATION_CONTEXT ( 3 ) GLOBAL_UNCERTAINTY_ASSIGNED_CONTEXT ( ( #233 ) ) GLOBAL_UNIT_ASSIGNED_CONTEXT ( ( #219, #197, #196 ) ) REPRESENTATION_CONTEXT ( 'NONE', 'WORKASPACE' ) );
#144 = FACE_OUTER_BOUND ( 'NONE', #244, .T. ) ;
#145 = AXIS2_PLACEMENT_3D ( 'NONE', #115, #50, #190 ) ;
#146 = ORIENTED_EDGE ( 'NONE', *, *, #234, .T. ) ;
#147 = EDGE_CURVE ( 'NONE', #9, #199, #48, .T. ) ;
#148 = ORIENTED_EDGE ( 'NONE', *, *, #241, .F. ) ;
#149 = PRODUCT_CONTEXT ( 'NONE', #8, 'mechanical' ) ;
#150 = ORIENTED_EDGE ( 'NONE', *, *, #201, .F. ) ;
#151 = ORIENTED_EDGE ( 'NONE', *, *, #134, .F. ) ;
#152 = DIRECTION ( 'NONE',  ( -1.000000000000000000, 0.0000000000000000000, 0.0000000000000000000 ) ) ;
#153 = SURFACE_STYLE_FILL_AREA ( #209 ) ;
#154 = LINE ( 'NONE', #18, #187 ) ;
#155 = CARTESIAN_POINT ( 'NONE',  ( 0.0000000000000000000, 0.0000000000000000000, 0.0000000000000000000 ) ) ;
#156 = STYLED_ITEM ( 'NONE', ( #87 ), #104 ) ;
#157 =( LENGTH_UNIT ( ) NAMED_UNIT ( * ) SI_UNIT ( $, .METRE. ) );
#158 = MECHANICAL_DESIGN_GEOMETRIC_PRESENTATION_REPRESENTATION (  '', ( #156 ), #31 ) ;
#159 = CARTESIAN_POINT ( 'NONE',  ( 0.0000000000000000000, 0.0000000000000000000, 0.2791685965585736229 ) ) ;
#160 = FACE_OUTER_BOUND ( 'NONE', #80, .T. ) ;
#161 = CONICAL_SURFACE ( 'NONE', #35, 0.06374000000000018540, 0.7853981633974522758 ) ;
#162 = LINE ( 'NONE', #55, #89 ) ;
#163 = PRODUCT_DEFINITION ( 'UNKNOWN', '', #34, #111 ) ;
#164 = ORIENTED_EDGE ( 'NONE', *, *, #6, .F. ) ;
#165 = ADVANCED_FACE ( 'NONE', ( #70 ), #71, .F. ) ;
#166 = CIRCLE ( 'NONE', #40, 0.06374000000000018540 ) ;
#167 = ORIENTED_EDGE ( 'NONE', *, *, #95, .F. ) ;
#168 = EDGE_LOOP ( 'NONE', ( #57, #185 ) ) ;
#169 = PRODUCT ( 'Micro_RTCM-040-1X', 'Micro_RTCM-040-1X', '', ( #149 ) ) ;
#170 = VERTEX_POINT ( 'NONE', #54 ) ;
#171 = AXIS2_PLACEMENT_3D ( 'NONE', #14, #11, #213 ) ;
#172 = DIRECTION ( 'NONE',  ( -0.0000000000000000000, -0.0000000000000000000, -1.000000000000000000 ) ) ;
#173 = CARTESIAN_POINT ( 'NONE',  ( 0.0000000000000000000, 0.0000000000000000000, 1.953504000000000129 ) ) ;
#174 = DIRECTION ( 'NONE',  ( 0.0000000000000000000, 0.0000000000000000000, -1.000000000000000000 ) ) ;
#175 = UNCERTAINTY_MEASURE_WITH_UNIT (LENGTH_MEASURE( 1.000000000000000082E-05 ), #131, 'distance_accuracy_value', 'NONE');
#176 = SURFACE_SIDE_STYLE ('',( #140 ) ) ;
#177 = AXIS2_PLACEMENT_3D ( 'NONE', #101, #56, #79 ) ;
#178 = DIRECTION ( 'NONE',  ( 1.000000000000000000, 0.0000000000000000000, -0.0000000000000000000 ) ) ;
#179 = CARTESIAN_POINT ( 'NONE',  ( 0.0000000000000000000, 0.0000000000000000000, 1.968503999999999809 ) ) ;
#180 = ADVANCED_FACE ( 'NONE', ( #3 ), #137, .T. ) ;
#181 = CIRCLE ( 'NONE', #58, 0.07874000000000000443 ) ;
#182 = APPLICATION_PROTOCOL_DEFINITION ( 'draft international standard', 'automotive_design', 1998, #191 ) ;
#183 = VERTEX_POINT ( 'NONE', #75 ) ;
#184 = EDGE_LOOP ( 'NONE', ( #124, #26, #150, #62 ) ) ;
#185 = ORIENTED_EDGE ( 'NONE', *, *, #6, .T. ) ;
#186 = DIRECTION ( 'NONE',  ( 1.000000000000000000, 0.0000000000000000000, 0.0000000000000000000 ) ) ;
#187 = VECTOR ( 'NONE', #208, 39.37007874015748854 ) ;
#188 = CYLINDRICAL_SURFACE ( 'NONE', #171, 0.07874000000000000443 ) ;
#189 = AXIS2_PLACEMENT_3D ( 'NONE', #103, #7, #220 ) ;
#190 = DIRECTION ( 'NONE',  ( -1.000000000000000000, 0.0000000000000000000, 0.0000000000000000000 ) ) ;
#191 = APPLICATION_CONTEXT ( 'automotive_design' ) ;
#192 = CARTESIAN_POINT ( 'NONE',  ( -0.07874000000000000443, 0.0000000000000000000, 1.968503999999999809 ) ) ;
#193 = DIRECTION ( 'NONE',  ( -1.000000000000000000, 0.0000000000000000000, 0.0000000000000000000 ) ) ;
#194 = VECTOR ( 'NONE', #248, 39.37007874015748143 ) ;
#195 = DIRECTION ( 'NONE',  ( 1.000000000000000000, 0.0000000000000000000, -0.0000000000000000000 ) ) ;
#196 =( NAMED_UNIT ( * ) SI_UNIT ( $, .STERADIAN. ) SOLID_ANGLE_UNIT ( ) );
#197 =( NAMED_UNIT ( * ) PLANE_ANGLE_UNIT ( ) SI_UNIT ( $, .RADIAN. ) );
#198 = DIRECTION ( 'NONE',  ( 0.0000000000000000000, 0.0000000000000000000, 1.000000000000000000 ) ) ;
#199 = VERTEX_POINT ( 'NONE', #74 ) ;
#200 = VERTEX_POINT ( 'NONE', #139 ) ;
#201 = EDGE_CURVE ( 'NONE', #183, #199, #1, .T. ) ;
#202 = VERTEX_POINT ( 'NONE', #19 ) ;
#203 = EDGE_CURVE ( 'NONE', #200, #199, #162, .T. ) ;
#204 = DIRECTION ( 'NONE',  ( 0.0000000000000000000, 0.0000000000000000000, 1.000000000000000000 ) ) ;
#205 = LENGTH_MEASURE_WITH_UNIT ( LENGTH_MEASURE( 0.02539999999999999897 ), #133 );
#206 = AXIS2_PLACEMENT_3D ( 'NONE', #159, #99, #39 ) ;
#207 = CONICAL_SURFACE ( 'NONE', #77, 0.06374000000000018540, 0.7853981633974522758 ) ;
#208 = DIRECTION ( 'NONE',  ( -0.2588190451025217387, 3.169619151431776651E-17, 0.9659258262890679791 ) ) ;
#209 = FILL_AREA_STYLE ('',( #128 ) ) ;
#210 = DIMENSIONAL_EXPONENTS ( 1.000000000000000000, 0.0000000000000000000, 0.0000000000000000000, 0.0000000000000000000, 0.0000000000000000000, 0.0000000000000000000, 0.0000000000000000000 ) ;
#211 = DIRECTION ( 'NONE',  ( 1.000000000000000000, 0.0000000000000000000, 0.0000000000000000000 ) ) ;
#212 = CONICAL_SURFACE ( 'NONE', #130, 0.003936999999999995191, 0.2617993877991504625 ) ;
#213 = DIRECTION ( 'NONE',  ( -1.000000000000000000, 0.0000000000000000000, 0.0000000000000000000 ) ) ;
#214 = CARTESIAN_POINT ( 'NONE',  ( -0.003936999999999995191, 5.062506170655285717E-18, 0.0000000000000000000 ) ) ;
#215 = PRESENTATION_LAYER_ASSIGNMENT (  '', '', ( #73 ) ) ;
#216 = LINE ( 'NONE', #37, #68 ) ;
#217 = CARTESIAN_POINT ( 'NONE',  ( 0.0000000000000000000, 0.0000000000000000000, 1.953504000000000129 ) ) ;
#218 = FILL_AREA_STYLE ('',( #53 ) ) ;
#219 =( CONVERSION_BASED_UNIT ( 'INCH', #44 ) LENGTH_UNIT ( ) NAMED_UNIT ( #229 ) );
#220 = DIRECTION ( 'NONE',  ( 1.000000000000000000, 0.0000000000000000000, 0.0000000000000000000 ) ) ;
#221 = VERTEX_POINT ( 'NONE', #214 ) ;
#222 = ORIENTED_EDGE ( 'NONE', *, *, #108, .F. ) ;
#223 = CIRCLE ( 'NONE', #4, 0.07874000000000000443 ) ;
#224 = ORIENTED_EDGE ( 'NONE', *, *, #241, .T. ) ;
#225 = DIRECTION ( 'NONE',  ( 1.000000000000000000, 0.0000000000000000000, 0.0000000000000000000 ) ) ;
#226 = FACE_OUTER_BOUND ( 'NONE', #184, .T. ) ;
#227 = PRESENTATION_LAYER_ASSIGNMENT (  '', '', ( #156 ) ) ;
#228 = DIRECTION ( 'NONE',  ( -1.000000000000000000, 0.0000000000000000000, 0.0000000000000000000 ) ) ;
#229 = DIMENSIONAL_EXPONENTS ( 1.000000000000000000, 0.0000000000000000000, 0.0000000000000000000, 0.0000000000000000000, 0.0000000000000000000, 0.0000000000000000000, 0.0000000000000000000 ) ;
#230 = DIRECTION ( 'NONE',  ( -1.000000000000000000, 0.0000000000000000000, 0.0000000000000000000 ) ) ;
#231 = DIRECTION ( 'NONE',  ( 0.7071067811865502373, 8.659560562354966138E-17, -0.7071067811865446862 ) ) ;
#232 = ADVANCED_FACE ( 'NONE', ( #160 ), #161, .T. ) ;
#233 = UNCERTAINTY_MEASURE_WITH_UNIT (LENGTH_MEASURE( 1.000000000000000082E-05 ), #219, 'distance_accuracy_value', 'NONE');
#234 = EDGE_CURVE ( 'NONE', #9, #102, #181, .T. ) ;
#235 = DIRECTION ( 'NONE',  ( 0.0000000000000000000, 0.0000000000000000000, -1.000000000000000000 ) ) ;
#236 =( CONVERSION_BASED_UNIT ( 'INCH', #237 ) LENGTH_UNIT ( ) NAMED_UNIT ( #36 ) );
#237 = LENGTH_MEASURE_WITH_UNIT ( LENGTH_MEASURE( 0.02539999999999999897 ), #52 );
#238 = ORIENTED_EDGE ( 'NONE', *, *, #114, .T. ) ;
#239 = AXIS2_PLACEMENT_3D ( 'NONE', #33, #172, #69 ) ;
#240 = ORIENTED_EDGE ( 'NONE', *, *, #66, .F. ) ;
#241 = EDGE_CURVE ( 'NONE', #170, #102, #216, .T. ) ;
#242 = ORIENTED_EDGE ( 'NONE', *, *, #234, .F. ) ;
#243 = EDGE_CURVE ( 'NONE', #102, #183, #118, .T. ) ;
#244 = EDGE_LOOP ( 'NONE', ( #222, #238, #106, #126 ) ) ;
#245 = EDGE_LOOP ( 'NONE', ( #85, #24, #43, #64 ) ) ;
#246 = DIRECTION ( 'NONE',  ( -0.0000000000000000000, -0.0000000000000000000, -1.000000000000000000 ) ) ;
#247 = CARTESIAN_POINT ( 'NONE',  ( 0.06374000000000018540, 7.805898697765251255E-18, 1.968503999999999809 ) ) ;
#248 = DIRECTION ( 'NONE',  ( -0.0000000000000000000, -0.0000000000000000000, -1.000000000000000000 ) ) ;
#249 = PRESENTATION_STYLE_ASSIGNMENT (( #97 ) ) ;
ENDSEC;
END-ISO-10303-21;
