ISO-10303-21;
HEADER;
FILE_DESCRIPTION (( 'STEP AP214' ),
    '1' );
FILE_NAME ('01600.STEP',
    '2023-06-22T14:38:47',
    ( '' ),
    ( '' ),
    'SwSTEP 2.0',
    'SolidWorks 2023',
    '' );
FILE_SCHEMA (( 'AUTOMOTIVE_DESIGN' ));
ENDSEC;

DATA;
#1 =( GEOMETRIC_REPRESENTATION_CONTEXT ( 3 ) GLOBAL_UNCERTAINTY_ASSIGNED_CONTEXT ( ( #125 ) ) GLOBAL_UNIT_ASSIGNED_CONTEXT ( ( #81, #102, #83 ) ) REPRESENTATION_CONTEXT ( 'NONE', 'WORKASPACE' ) );
#2 = APPLICATION_CONTEXT ( 'automotive_design' ) ;
#3 = FACE_OUTER_BOUND ( 'NONE', #201, .T. ) ;
#4 = SURFACE_STYLE_FILL_AREA ( #32 ) ;
#5 = SURFACE_STYLE_FILL_AREA ( #221 ) ;
#6 = CARTESIAN_POINT ( 'NONE',  ( 0.000000000000000000, 2.500000000000000000, 0.000000000000000000 ) ) ;
#7 = CIRCLE ( 'NONE', #30, 0.3125000000000000000 ) ;
#8 = ORIENTED_EDGE ( 'NONE', *, *, #18, .T. ) ;
#9 =( NAMED_UNIT ( * ) PLANE_ANGLE_UNIT ( ) SI_UNIT ( $, .RADIAN. ) );
#10 = EDGE_CURVE ( 'NONE', #87, #277, #60, .T. ) ;
#11 = ORIENTED_EDGE ( 'NONE', *, *, #166, .F. ) ;
#12 = ORIENTED_EDGE ( 'NONE', *, *, #196, .T. ) ;
#13 = DIRECTION ( 'NONE',  ( -1.000000000000000000, -4.898587196589412459E-17, 0.000000000000000000 ) ) ;
#14 = AXIS2_PLACEMENT_3D ( 'NONE', #162, #212, #25 ) ;
#15 = MECHANICAL_DESIGN_GEOMETRIC_PRESENTATION_REPRESENTATION (  '', ( #52 ), #232 ) ;
#16 = SURFACE_SIDE_STYLE ('',( #136 ) ) ;
#17 = ORIENTED_EDGE ( 'NONE', *, *, #141, .T. ) ;
#18 = EDGE_CURVE ( 'NONE', #175, #110, #274, .T. ) ;
#19 = CARTESIAN_POINT ( 'NONE',  ( 0.3125000000000000000, 2.500000000000000000, 3.827021247335479543E-17 ) ) ;
#20 = DIRECTION ( 'NONE',  ( 4.898587196589412459E-17, -1.000000000000000000, 0.000000000000000000 ) ) ;
#21 = DIRECTION ( 'NONE',  ( 0.000000000000000000, 0.000000000000000000, -1.000000000000000000 ) ) ;
#22 = DIRECTION ( 'NONE',  ( -0.000000000000000000, -1.000000000000000000, -0.000000000000000000 ) ) ;
#23 = STYLED_ITEM ( 'NONE', ( #133 ), #163 ) ;
#24 = MECHANICAL_DESIGN_GEOMETRIC_PRESENTATION_REPRESENTATION (  '', ( #142 ), #1 ) ;
#25 = DIRECTION ( 'NONE',  ( 0.000000000000000000, 0.000000000000000000, -1.000000000000000000 ) ) ;
#26 =( NAMED_UNIT ( * ) PLANE_ANGLE_UNIT ( ) SI_UNIT ( $, .RADIAN. ) );
#27 = FILL_AREA_STYLE ('',( #53 ) ) ;
#28 = DIRECTION ( 'NONE',  ( 0.000000000000000000, 1.000000000000000000, 0.000000000000000000 ) ) ;
#29 = MECHANICAL_DESIGN_GEOMETRIC_PRESENTATION_REPRESENTATION (  '', ( #228 ), #73 ) ;
#30 = AXIS2_PLACEMENT_3D ( 'NONE', #291, #216, #105 ) ;
#31 = DIRECTION ( 'NONE',  ( 0.000000000000000000, 0.000000000000000000, -1.000000000000000000 ) ) ;
#32 = FILL_AREA_STYLE ('',( #264 ) ) ;
#33 = CARTESIAN_POINT ( 'NONE',  ( 0.000000000000000000, 0.000000000000000000, 0.000000000000000000 ) ) ;
#34 = PRODUCT ( '01600', '01600', '', ( #38 ) ) ;
#35 = DIRECTION ( 'NONE',  ( -4.898587196589412459E-17, 1.000000000000000000, 0.000000000000000000 ) ) ;
#36 = ORIENTED_EDGE ( 'NONE', *, *, #141, .F. ) ;
#37 = ORIENTED_EDGE ( 'NONE', *, *, #275, .T. ) ;
#38 = PRODUCT_CONTEXT ( 'NONE', #71, 'mechanical' ) ;
#39 = ORIENTED_EDGE ( 'NONE', *, *, #203, .T. ) ;
#40 =( LENGTH_UNIT ( ) NAMED_UNIT ( * ) SI_UNIT ( $, .METRE. ) );
#41 =( CONVERSION_BASED_UNIT ( 'INCH', #165 ) LENGTH_UNIT ( ) NAMED_UNIT ( #206 ) );
#42 = DIMENSIONAL_EXPONENTS ( 1.000000000000000000, 0.000000000000000000, 0.000000000000000000, 0.000000000000000000, 0.000000000000000000, 0.000000000000000000, 0.000000000000000000 ) ;
#43 =( LENGTH_UNIT ( ) NAMED_UNIT ( * ) SI_UNIT ( $, .METRE. ) );
#44 = CIRCLE ( 'NONE', #128, 0.3125000000000000000 ) ;
#45 = CYLINDRICAL_SURFACE ( 'NONE', #170, 0.3125000000000000000 ) ;
#46 = COLOUR_RGB ( '',1.000000000000000000, 0.000000000000000000, 0.000000000000000000 ) ;
#47 = ADVANCED_FACE ( 'NONE', ( #240 ), #263, .T. ) ;
#48 = EDGE_LOOP ( 'NONE', ( #39, #63, #11, #111 ) ) ;
#49 = DIRECTION ( 'NONE',  ( -1.000000000000000000, 0.000000000000000000, 0.000000000000000000 ) ) ;
#50 =( LENGTH_UNIT ( ) NAMED_UNIT ( * ) SI_UNIT ( $, .METRE. ) );
#51 =( NAMED_UNIT ( * ) PLANE_ANGLE_UNIT ( ) SI_UNIT ( $, .RADIAN. ) );
#52 = STYLED_ITEM ( 'NONE', ( #90 ), #300 ) ;
#53 = FILL_AREA_STYLE_COLOUR ( '', #183 ) ;
#54 = CARTESIAN_POINT ( 'NONE',  ( -1.224646799147353207E-16, 5.000000000000000000, 0.000000000000000000 ) ) ;
#55 = AXIS2_PLACEMENT_3D ( 'NONE', #75, #98, #262 ) ;
#56 =( CONVERSION_BASED_UNIT ( 'INCH', #280 ) LENGTH_UNIT ( ) NAMED_UNIT ( #79 ) );
#57 = DIRECTION ( 'NONE',  ( 0.000000000000000000, 0.000000000000000000, 1.000000000000000000 ) ) ;
#58 = SURFACE_SIDE_STYLE ('',( #289 ) ) ;
#59 = DIRECTION ( 'NONE',  ( 0.000000000000000000, -0.000000000000000000, 1.000000000000000000 ) ) ;
#60 = LINE ( 'NONE', #153, #270 ) ;
#61 = PLANE ( 'NONE',  #296 ) ;
#62 = CLOSED_SHELL ( 'NONE', ( #154, #219, #47, #190 ) ) ;
#63 = ORIENTED_EDGE ( 'NONE', *, *, #220, .T. ) ;
#64 = SURFACE_STYLE_USAGE ( .BOTH. , #238 ) ;
#65 = AXIS2_PLACEMENT_3D ( 'NONE', #223, #127, #218 ) ;
#66 = AXIS2_PLACEMENT_3D ( 'NONE', #33, #57, #113 ) ;
#67 =( CONVERSION_BASED_UNIT ( 'INCH', #179 ) LENGTH_UNIT ( ) NAMED_UNIT ( #78 ) );
#68 = DIMENSIONAL_EXPONENTS ( 1.000000000000000000, 0.000000000000000000, 0.000000000000000000, 0.000000000000000000, 0.000000000000000000, 0.000000000000000000, 0.000000000000000000 ) ;
#69 = UNCERTAINTY_MEASURE_WITH_UNIT (LENGTH_MEASURE( 1.000000000000000082E-05 ), #67, 'distance_accuracy_value', 'NONE');
#70 = CARTESIAN_POINT ( 'NONE',  ( 0.000000000000000000, 0.000000000000000000, 0.000000000000000000 ) ) ;
#71 = APPLICATION_CONTEXT ( 'automotive_design' ) ;
#72 = UNCERTAINTY_MEASURE_WITH_UNIT (LENGTH_MEASURE( 1.000000000000000082E-05 ), #177, 'distance_accuracy_value', 'NONE');
#73 =( GEOMETRIC_REPRESENTATION_CONTEXT ( 3 ) GLOBAL_UNCERTAINTY_ASSIGNED_CONTEXT ( ( #148 ) ) GLOBAL_UNIT_ASSIGNED_CONTEXT ( ( #283, #51, #160 ) ) REPRESENTATION_CONTEXT ( 'NONE', 'WORKASPACE' ) );
#74 = AXIS2_PLACEMENT_3D ( 'NONE', #70, #282, #301 ) ;
#75 = CARTESIAN_POINT ( 'NONE',  ( -1.224646799147353207E-16, 5.000000000000000000, 0.000000000000000000 ) ) ;
#76 = SURFACE_STYLE_FILL_AREA ( #97 ) ;
#77 = CARTESIAN_POINT ( 'NONE',  ( 0.000000000000000000, 0.000000000000000000, -0.3125000000000000000 ) ) ;
#78 = DIMENSIONAL_EXPONENTS ( 1.000000000000000000, 0.000000000000000000, 0.000000000000000000, 0.000000000000000000, 0.000000000000000000, 0.000000000000000000, 0.000000000000000000 ) ;
#79 = DIMENSIONAL_EXPONENTS ( 1.000000000000000000, 0.000000000000000000, 0.000000000000000000, 0.000000000000000000, 0.000000000000000000, 0.000000000000000000, 0.000000000000000000 ) ;
#80 = DIRECTION ( 'NONE',  ( -4.898587196589413075E-17, 1.000000000000000000, -0.000000000000000000 ) ) ;
#81 =( CONVERSION_BASED_UNIT ( 'INCH', #309 ) LENGTH_UNIT ( ) NAMED_UNIT ( #42 ) );
#82 = CIRCLE ( 'NONE', #65, 0.3125000000000001665 ) ;
#83 =( NAMED_UNIT ( * ) SI_UNIT ( $, .STERADIAN. ) SOLID_ANGLE_UNIT ( ) );
#84 = SHAPE_DEFINITION_REPRESENTATION ( #287, #114 ) ;
#85 = PRESENTATION_STYLE_ASSIGNMENT (( #151 ) ) ;
#86 = ORIENTED_EDGE ( 'NONE', *, *, #92, .F. ) ;
#87 = VERTEX_POINT ( 'NONE', #132 ) ;
#88 = ORIENTED_EDGE ( 'NONE', *, *, #261, .T. ) ;
#89 = EDGE_LOOP ( 'NONE', ( #205, #8, #37, #36 ) ) ;
#90 = PRESENTATION_STYLE_ASSIGNMENT (( #64 ) ) ;
#91 = PRESENTATION_STYLE_ASSIGNMENT (( #273 ) ) ;
#92 = EDGE_CURVE ( 'NONE', #292, #277, #82, .T. ) ;
#93 = FILL_AREA_STYLE_COLOUR ( '', #231 ) ;
#94 = CARTESIAN_POINT ( 'NONE',  ( 0.000000000000000000, 0.000000000000000000, 0.000000000000000000 ) ) ;
#95 = PRESENTATION_STYLE_ASSIGNMENT (( #235 ) ) ;
#96 = AXIS2_PLACEMENT_3D ( 'NONE', #54, #288, #123 ) ;
#97 = FILL_AREA_STYLE ('',( #211 ) ) ;
#98 = DIRECTION ( 'NONE',  ( -4.898587196589413075E-17, 1.000000000000000000, -0.000000000000000000 ) ) ;
#99 = UNCERTAINTY_MEASURE_WITH_UNIT (LENGTH_MEASURE( 1.000000000000000082E-05 ), #146, 'distance_accuracy_value', 'NONE');
#100 = CARTESIAN_POINT ( 'NONE',  ( 3.827021247335478926E-17, 2.500000000000000000, 0.3125000000000000000 ) ) ;
#101 =( LENGTH_UNIT ( ) NAMED_UNIT ( * ) SI_UNIT ( $, .METRE. ) );
#102 =( NAMED_UNIT ( * ) PLANE_ANGLE_UNIT ( ) SI_UNIT ( $, .RADIAN. ) );
#103 = VECTOR ( 'NONE', #22, 39.37007874015748143 ) ;
#104 =( GEOMETRIC_REPRESENTATION_CONTEXT ( 3 ) GLOBAL_UNCERTAINTY_ASSIGNED_CONTEXT ( ( #99 ) ) GLOBAL_UNIT_ASSIGNED_CONTEXT ( ( #146, #208, #204 ) ) REPRESENTATION_CONTEXT ( 'NONE', 'WORKASPACE' ) );
#105 = DIRECTION ( 'NONE',  ( -1.000000000000000000, 0.000000000000000000, 0.000000000000000000 ) ) ;
#106 = MANIFOLD_SOLID_BREP ( 'Revolve - Tool Body (Straight Shanked)', #62 ) ;
#107 = FILL_AREA_STYLE ('',( #131 ) ) ;
#108 = VECTOR ( 'NONE', #222, 39.37007874015748143 ) ;
#109 = EDGE_LOOP ( 'NONE', ( #156, #17 ) ) ;
#110 = VERTEX_POINT ( 'NONE', #233 ) ;
#111 = ORIENTED_EDGE ( 'NONE', *, *, #10, .F. ) ;
#112 = CLOSED_SHELL ( 'NONE', ( #126, #230, #163, #268 ) ) ;
#113 = DIRECTION ( 'NONE',  ( 1.000000000000000000, 0.000000000000000000, 0.000000000000000000 ) ) ;
#114 = ADVANCED_BREP_SHAPE_REPRESENTATION ( '01600', ( #300, #106, #66 ), #271 ) ;
#115 =( LENGTH_UNIT ( ) NAMED_UNIT ( * ) SI_UNIT ( $, .METRE. ) );
#116 = DIRECTION ( 'NONE',  ( -0.000000000000000000, -1.000000000000000000, -0.000000000000000000 ) ) ;
#117 = FACE_OUTER_BOUND ( 'NONE', #229, .T. ) ;
#118 = VERTEX_POINT ( 'NONE', #19 ) ;
#119 = CARTESIAN_POINT ( 'NONE',  ( 0.3125000000000000000, 5.000000000000000000, 3.827021247335479543E-17 ) ) ;
#120 = AXIS2_PLACEMENT_3D ( 'NONE', #94, #122, #209 ) ;
#121 = CARTESIAN_POINT ( 'NONE',  ( 3.827021247335478926E-17, 0.000000000000000000, 0.3125000000000000000 ) ) ;
#122 = DIRECTION ( 'NONE',  ( -0.000000000000000000, -1.000000000000000000, -0.000000000000000000 ) ) ;
#123 = DIRECTION ( 'NONE',  ( -1.000000000000000000, 0.000000000000000000, 0.000000000000000000 ) ) ;
#124 = SURFACE_STYLE_FILL_AREA ( #27 ) ;
#125 = UNCERTAINTY_MEASURE_WITH_UNIT (LENGTH_MEASURE( 1.000000000000000082E-05 ), #81, 'distance_accuracy_value', 'NONE');
#126 = ADVANCED_FACE ( 'NONE', ( #117 ), #187, .T. ) ;
#127 = DIRECTION ( 'NONE',  ( -4.898587196589413075E-17, 1.000000000000000000, -0.000000000000000000 ) ) ;
#128 = AXIS2_PLACEMENT_3D ( 'NONE', #6, #188, #31 ) ;
#129 = PRESENTATION_LAYER_ASSIGNMENT (  '', '', ( #176 ) ) ;
#130 = EDGE_CURVE ( 'NONE', #143, #199, #245, .T. ) ;
#131 = FILL_AREA_STYLE_COLOUR ( '', #157 ) ;
#132 = CARTESIAN_POINT ( 'NONE',  ( -0.3125000000000000000, 2.500000000000000000, 0.000000000000000000 ) ) ;
#133 = PRESENTATION_STYLE_ASSIGNMENT (( #241 ) ) ;
#134 = AXIS2_PLACEMENT_3D ( 'NONE', #207, #278, #49 ) ;
#135 = LINE ( 'NONE', #272, #108 ) ;
#136 = SURFACE_STYLE_FILL_AREA ( #191 ) ;
#137 = PRESENTATION_LAYER_ASSIGNMENT (  '', '', ( #142 ) ) ;
#138 = EDGE_LOOP ( 'NONE', ( #252, #88, #297, #86 ) ) ;
#139 = DIMENSIONAL_EXPONENTS ( 1.000000000000000000, 0.000000000000000000, 0.000000000000000000, 0.000000000000000000, 0.000000000000000000, 0.000000000000000000, 0.000000000000000000 ) ;
#140 = PRODUCT_DEFINITION_CONTEXT ( 'detailed design', #2, 'design' ) ;
#141 = EDGE_CURVE ( 'NONE', #199, #143, #213, .T. ) ;
#142 = STYLED_ITEM ( 'NONE', ( #85 ), #230 ) ;
#143 = VERTEX_POINT ( 'NONE', #77 ) ;
#144 = SURFACE_SIDE_STYLE ('',( #5 ) ) ;
#145 = CARTESIAN_POINT ( 'NONE',  ( 0.3125000000000000000, 5.000000000000000000, 0.000000000000000000 ) ) ;
#146 =( CONVERSION_BASED_UNIT ( 'INCH', #304 ) LENGTH_UNIT ( ) NAMED_UNIT ( #139 ) );
#147 = LINE ( 'NONE', #237, #103 ) ;
#148 = UNCERTAINTY_MEASURE_WITH_UNIT (LENGTH_MEASURE( 1.000000000000000082E-05 ), #283, 'distance_accuracy_value', 'NONE');
#149 = STYLED_ITEM ( 'NONE', ( #295 ), #106 ) ;
#150 = PRESENTATION_LAYER_ASSIGNMENT (  '', '', ( #149 ) ) ;
#151 = SURFACE_STYLE_USAGE ( .BOTH. , #58 ) ;
#152 = EDGE_LOOP ( 'NONE', ( #226, #255 ) ) ;
#153 = CARTESIAN_POINT ( 'NONE',  ( -0.3125000000000002220, 5.000000000000000000, 0.000000000000000000 ) ) ;
#154 = ADVANCED_FACE ( 'NONE', ( #214 ), #307, .T. ) ;
#155 = ORIENTED_EDGE ( 'NONE', *, *, #130, .F. ) ;
#156 = ORIENTED_EDGE ( 'NONE', *, *, #130, .T. ) ;
#157 = COLOUR_RGB ( '',1.000000000000000000, 0.000000000000000000, 0.000000000000000000 ) ;
#158 = SURFACE_STYLE_USAGE ( .BOTH. , #192 ) ;
#159 = CARTESIAN_POINT ( 'NONE',  ( 0.000000000000000000, 0.000000000000000000, -0.3125000000000000000 ) ) ;
#160 =( NAMED_UNIT ( * ) SI_UNIT ( $, .STERADIAN. ) SOLID_ANGLE_UNIT ( ) );
#161 = DIRECTION ( 'NONE',  ( 1.000000000000000000, 4.898587196589412459E-17, 0.000000000000000000 ) ) ;
#162 = CARTESIAN_POINT ( 'NONE',  ( 0.000000000000000000, 0.000000000000000000, 0.000000000000000000 ) ) ;
#163 = ADVANCED_FACE ( 'NONE', ( #164 ), #45, .T. ) ;
#164 = FACE_OUTER_BOUND ( 'NONE', #89, .T. ) ;
#165 = LENGTH_MEASURE_WITH_UNIT ( LENGTH_MEASURE( 0.02539999999999999897 ), #186 );
#166 = EDGE_CURVE ( 'NONE', #277, #292, #189, .T. ) ;
#167 = CIRCLE ( 'NONE', #257, 0.3125000000000000000 ) ;
#168 = LENGTH_MEASURE_WITH_UNIT ( LENGTH_MEASURE( 0.02539999999999999897 ), #101 );
#169 = CARTESIAN_POINT ( 'NONE',  ( 1.516480271171051896E-32, 2.500000000000000000, 0.000000000000000000 ) ) ;
#170 = AXIS2_PLACEMENT_3D ( 'NONE', #308, #116, #303 ) ;
#171 = FACE_OUTER_BOUND ( 'NONE', #109, .T. ) ;
#172 = ORIENTED_EDGE ( 'NONE', *, *, #261, .F. ) ;
#173 = AXIS2_PLACEMENT_3D ( 'NONE', #242, #28, #59 ) ;
#174 = FACE_OUTER_BOUND ( 'NONE', #250, .T. ) ;
#175 = VERTEX_POINT ( 'NONE', #100 ) ;
#176 = STYLED_ITEM ( 'NONE', ( #91 ), #268 ) ;
#177 =( CONVERSION_BASED_UNIT ( 'INCH', #281 ) LENGTH_UNIT ( ) NAMED_UNIT ( #234 ) );
#178 =( NAMED_UNIT ( * ) PLANE_ANGLE_UNIT ( ) SI_UNIT ( $, .RADIAN. ) );
#179 = LENGTH_MEASURE_WITH_UNIT ( LENGTH_MEASURE( 0.02539999999999999897 ), #43 );
#180 = PLANE ( 'NONE',  #193 ) ;
#181 = LINE ( 'NONE', #159, #306 ) ;
#182 =( LENGTH_UNIT ( ) NAMED_UNIT ( * ) SI_UNIT ( $, .METRE. ) );
#183 = COLOUR_RGB ( '',1.000000000000000000, 0.000000000000000000, 0.000000000000000000 ) ;
#184 = PRESENTATION_LAYER_ASSIGNMENT (  '', '', ( #52 ) ) ;
#185 =( NAMED_UNIT ( * ) SI_UNIT ( $, .STERADIAN. ) SOLID_ANGLE_UNIT ( ) );
#186 =( LENGTH_UNIT ( ) NAMED_UNIT ( * ) SI_UNIT ( $, .METRE. ) );
#187 = CYLINDRICAL_SURFACE ( 'NONE', #120, 0.3125000000000000000 ) ;
#188 = DIRECTION ( 'NONE',  ( -0.000000000000000000, -1.000000000000000000, -0.000000000000000000 ) ) ;
#189 = CIRCLE ( 'NONE', #134, 0.3125000000000001665 ) ;
#190 = ADVANCED_FACE ( 'NONE', ( #298 ), #180, .F. ) ;
#191 = FILL_AREA_STYLE ('',( #286 ) ) ;
#192 = SURFACE_SIDE_STYLE ('',( #4 ) ) ;
#193 = AXIS2_PLACEMENT_3D ( 'NONE', #145, #20, #161 ) ;
#194 = MECHANICAL_DESIGN_GEOMETRIC_PRESENTATION_REPRESENTATION (  '', ( #149 ), #260 ) ;
#195 = PRODUCT_DEFINITION_FORMATION_WITH_SPECIFIED_SOURCE ( 'ANY', '', #34, .NOT_KNOWN. ) ;
#196 = EDGE_CURVE ( 'NONE', #175, #199, #147, .T. ) ;
#197 = ORIENTED_EDGE ( 'NONE', *, *, #203, .F. ) ;
#198 = APPLICATION_PROTOCOL_DEFINITION ( 'draft international standard', 'automotive_design', 1998, #71 ) ;
#199 = VERTEX_POINT ( 'NONE', #121 ) ;
#200 = APPLICATION_PROTOCOL_DEFINITION ( 'draft international standard', 'automotive_design', 1998, #2 ) ;
#201 = EDGE_LOOP ( 'NONE', ( #197, #172 ) ) ;
#202 = UNCERTAINTY_MEASURE_WITH_UNIT (LENGTH_MEASURE( 1.000000000000000082E-05 ), #56, 'distance_accuracy_value', 'NONE');
#203 = EDGE_CURVE ( 'NONE', #87, #118, #167, .T. ) ;
#204 =( NAMED_UNIT ( * ) SI_UNIT ( $, .STERADIAN. ) SOLID_ANGLE_UNIT ( ) );
#205 = ORIENTED_EDGE ( 'NONE', *, *, #196, .F. ) ;
#206 = DIMENSIONAL_EXPONENTS ( 1.000000000000000000, 0.000000000000000000, 0.000000000000000000, 0.000000000000000000, 0.000000000000000000, 0.000000000000000000, 0.000000000000000000 ) ;
#207 = CARTESIAN_POINT ( 'NONE',  ( -1.224646799147353207E-16, 5.000000000000000000, 0.000000000000000000 ) ) ;
#208 =( NAMED_UNIT ( * ) PLANE_ANGLE_UNIT ( ) SI_UNIT ( $, .RADIAN. ) );
#209 = DIRECTION ( 'NONE',  ( 0.000000000000000000, 0.000000000000000000, -1.000000000000000000 ) ) ;
#210 = ORIENTED_EDGE ( 'NONE', *, *, #275, .F. ) ;
#211 = FILL_AREA_STYLE_COLOUR ( '', #266 ) ;
#212 = DIRECTION ( 'NONE',  ( -0.000000000000000000, -1.000000000000000000, -0.000000000000000000 ) ) ;
#213 = CIRCLE ( 'NONE', #14, 0.3125000000000000000 ) ;
#214 = FACE_OUTER_BOUND ( 'NONE', #48, .T. ) ;
#215 = SURFACE_SIDE_STYLE ('',( #124 ) ) ;
#216 = DIRECTION ( 'NONE',  ( -4.898587196589413075E-17, 1.000000000000000000, -0.000000000000000000 ) ) ;
#217 = DIRECTION ( 'NONE',  ( -1.000000000000000000, 0.000000000000000000, 0.000000000000000000 ) ) ;
#218 = DIRECTION ( 'NONE',  ( -1.000000000000000000, 0.000000000000000000, 0.000000000000000000 ) ) ;
#219 = ADVANCED_FACE ( 'NONE', ( #3 ), #61, .F. ) ;
#220 = EDGE_CURVE ( 'NONE', #118, #292, #135, .T. ) ;
#221 = FILL_AREA_STYLE ('',( #93 ) ) ;
#222 = DIRECTION ( 'NONE',  ( -4.898587196589412459E-17, 1.000000000000000000, -0.000000000000000000 ) ) ;
#223 = CARTESIAN_POINT ( 'NONE',  ( -1.224646799147353207E-16, 5.000000000000000000, 0.000000000000000000 ) ) ;
#224 = PRODUCT_DEFINITION ( 'UNKNOWN', '', #195, #140 ) ;
#225 = PRESENTATION_LAYER_ASSIGNMENT (  '', '', ( #228 ) ) ;
#226 = ORIENTED_EDGE ( 'NONE', *, *, #166, .T. ) ;
#227 = ORIENTED_EDGE ( 'NONE', *, *, #248, .T. ) ;
#228 = STYLED_ITEM ( 'NONE', ( #95 ), #126 ) ;
#229 = EDGE_LOOP ( 'NONE', ( #227, #12, #155, #210 ) ) ;
#230 = ADVANCED_FACE ( 'NONE', ( #174 ), #267, .T. ) ;
#231 = COLOUR_RGB ( '',1.000000000000000000, 0.000000000000000000, 0.000000000000000000 ) ;
#232 =( GEOMETRIC_REPRESENTATION_CONTEXT ( 3 ) GLOBAL_UNCERTAINTY_ASSIGNED_CONTEXT ( ( #254 ) ) GLOBAL_UNIT_ASSIGNED_CONTEXT ( ( #41, #259, #185 ) ) REPRESENTATION_CONTEXT ( 'NONE', 'WORKASPACE' ) );
#233 = CARTESIAN_POINT ( 'NONE',  ( 0.000000000000000000, 2.500000000000000000, -0.3125000000000000000 ) ) ;
#234 = DIMENSIONAL_EXPONENTS ( 1.000000000000000000, 0.000000000000000000, 0.000000000000000000, 0.000000000000000000, 0.000000000000000000, 0.000000000000000000, 0.000000000000000000 ) ;
#235 = SURFACE_STYLE_USAGE ( .BOTH. , #144 ) ;
#236 = CARTESIAN_POINT ( 'NONE',  ( -0.3125000000000002776, 5.000000000000000000, 0.000000000000000000 ) ) ;
#237 = CARTESIAN_POINT ( 'NONE',  ( 3.827021247335478926E-17, 0.000000000000000000, 0.3125000000000000000 ) ) ;
#238 = SURFACE_SIDE_STYLE ('',( #76 ) ) ;
#239 = CARTESIAN_POINT ( 'NONE',  ( 0.000000000000000000, 0.000000000000000000, 0.000000000000000000 ) ) ;
#240 = FACE_OUTER_BOUND ( 'NONE', #138, .T. ) ;
#241 = SURFACE_STYLE_USAGE ( .BOTH. , #215 ) ;
#242 = CARTESIAN_POINT ( 'NONE',  ( 0.000000000000000000, 2.500000000000000000, 0.000000000000000000 ) ) ;
#243 = AXIS2_PLACEMENT_3D ( 'NONE', #239, #302, #284 ) ;
#244 = ORIENTED_EDGE ( 'NONE', *, *, #248, .F. ) ;
#245 = CIRCLE ( 'NONE', #243, 0.3125000000000000000 ) ;
#246 = CARTESIAN_POINT ( 'NONE',  ( 0.000000000000000000, 2.500000000000000000, 0.000000000000000000 ) ) ;
#247 = CARTESIAN_POINT ( 'NONE',  ( 3.749399456654644447E-34, 2.500000000000000000, 0.000000000000000000 ) ) ;
#248 = EDGE_CURVE ( 'NONE', #110, #175, #44, .T. ) ;
#249 = DIRECTION ( 'NONE',  ( -4.898587196589412459E-17, 1.000000000000000000, -0.000000000000000000 ) ) ;
#250 = EDGE_LOOP ( 'NONE', ( #244, #294 ) ) ;
#251 =( NAMED_UNIT ( * ) SI_UNIT ( $, .STERADIAN. ) SOLID_ANGLE_UNIT ( ) );
#252 = ORIENTED_EDGE ( 'NONE', *, *, #220, .F. ) ;
#253 = COLOUR_RGB ( '',0.7921568627450980005, 0.8196078431372548767, 0.9333333333333333481 ) ;
#254 = UNCERTAINTY_MEASURE_WITH_UNIT (LENGTH_MEASURE( 1.000000000000000082E-05 ), #41, 'distance_accuracy_value', 'NONE');
#255 = ORIENTED_EDGE ( 'NONE', *, *, #92, .T. ) ;
#256 =( NAMED_UNIT ( * ) SI_UNIT ( $, .STERADIAN. ) SOLID_ANGLE_UNIT ( ) );
#257 = AXIS2_PLACEMENT_3D ( 'NONE', #169, #80, #217 ) ;
#258 = DIRECTION ( 'NONE',  ( -0.000000000000000000, -1.000000000000000000, -0.000000000000000000 ) ) ;
#259 =( NAMED_UNIT ( * ) PLANE_ANGLE_UNIT ( ) SI_UNIT ( $, .RADIAN. ) );
#260 =( GEOMETRIC_REPRESENTATION_CONTEXT ( 3 ) GLOBAL_UNCERTAINTY_ASSIGNED_CONTEXT ( ( #69 ) ) GLOBAL_UNIT_ASSIGNED_CONTEXT ( ( #67, #178, #276 ) ) REPRESENTATION_CONTEXT ( 'NONE', 'WORKASPACE' ) );
#261 = EDGE_CURVE ( 'NONE', #118, #87, #7, .T. ) ;
#262 = DIRECTION ( 'NONE',  ( -1.000000000000000000, 0.000000000000000000, 0.000000000000000000 ) ) ;
#263 = CYLINDRICAL_SURFACE ( 'NONE', #96, 0.3125000000000000555 ) ;
#264 = FILL_AREA_STYLE_COLOUR ( '', #253 ) ;
#265 =( GEOMETRIC_REPRESENTATION_CONTEXT ( 3 ) GLOBAL_UNCERTAINTY_ASSIGNED_CONTEXT ( ( #72 ) ) GLOBAL_UNIT_ASSIGNED_CONTEXT ( ( #177, #26, #256 ) ) REPRESENTATION_CONTEXT ( 'NONE', 'WORKASPACE' ) );
#266 = COLOUR_RGB ( '',0.7921568627450980005, 0.8196078431372548767, 0.9333333333333333481 ) ;
#267 = PLANE ( 'NONE',  #173 ) ;
#268 = ADVANCED_FACE ( 'NONE', ( #171 ), #279, .T. ) ;
#269 = PRODUCT_RELATED_PRODUCT_CATEGORY ( 'part', '', ( #34 ) ) ;
#270 = VECTOR ( 'NONE', #249, 39.37007874015748143 ) ;
#271 =( GEOMETRIC_REPRESENTATION_CONTEXT ( 3 ) GLOBAL_UNCERTAINTY_ASSIGNED_CONTEXT ( ( #202 ) ) GLOBAL_UNIT_ASSIGNED_CONTEXT ( ( #56, #9, #251 ) ) REPRESENTATION_CONTEXT ( 'NONE', 'WORKASPACE' ) );
#272 = CARTESIAN_POINT ( 'NONE',  ( 0.3124999999999999445, 5.000000000000000000, 3.827021247335479543E-17 ) ) ;
#273 = SURFACE_STYLE_USAGE ( .BOTH. , #16 ) ;
#274 = CIRCLE ( 'NONE', #293, 0.3125000000000000000 ) ;
#275 = EDGE_CURVE ( 'NONE', #110, #143, #181, .T. ) ;
#276 =( NAMED_UNIT ( * ) SI_UNIT ( $, .STERADIAN. ) SOLID_ANGLE_UNIT ( ) );
#277 = VERTEX_POINT ( 'NONE', #236 ) ;
#278 = DIRECTION ( 'NONE',  ( -4.898587196589413075E-17, 1.000000000000000000, -0.000000000000000000 ) ) ;
#279 = PLANE ( 'NONE',  #74 ) ;
#280 = LENGTH_MEASURE_WITH_UNIT ( LENGTH_MEASURE( 0.02539999999999999897 ), #182 );
#281 = LENGTH_MEASURE_WITH_UNIT ( LENGTH_MEASURE( 0.02539999999999999897 ), #50 );
#282 = DIRECTION ( 'NONE',  ( 0.000000000000000000, -1.000000000000000000, -0.000000000000000000 ) ) ;
#283 =( CONVERSION_BASED_UNIT ( 'INCH', #168 ) LENGTH_UNIT ( ) NAMED_UNIT ( #68 ) );
#284 = DIRECTION ( 'NONE',  ( 0.000000000000000000, 0.000000000000000000, -1.000000000000000000 ) ) ;
#285 = PRESENTATION_LAYER_ASSIGNMENT (  '', '', ( #23 ) ) ;
#286 = FILL_AREA_STYLE_COLOUR ( '', #46 ) ;
#287 = PRODUCT_DEFINITION_SHAPE ( 'NONE', 'NONE',  #224 ) ;
#288 = DIRECTION ( 'NONE',  ( -4.898587196589413075E-17, 1.000000000000000000, -0.000000000000000000 ) ) ;
#289 = SURFACE_STYLE_FILL_AREA ( #107 ) ;
#290 = MECHANICAL_DESIGN_GEOMETRIC_PRESENTATION_REPRESENTATION (  '', ( #176 ), #104 ) ;
#291 = CARTESIAN_POINT ( 'NONE',  ( 1.516480271171051896E-32, 2.500000000000000000, 0.000000000000000000 ) ) ;
#292 = VERTEX_POINT ( 'NONE', #119 ) ;
#293 = AXIS2_PLACEMENT_3D ( 'NONE', #246, #299, #21 ) ;
#294 = ORIENTED_EDGE ( 'NONE', *, *, #18, .F. ) ;
#295 = PRESENTATION_STYLE_ASSIGNMENT (( #158 ) ) ;
#296 = AXIS2_PLACEMENT_3D ( 'NONE', #247, #35, #13 ) ;
#297 = ORIENTED_EDGE ( 'NONE', *, *, #10, .T. ) ;
#298 = FACE_OUTER_BOUND ( 'NONE', #152, .T. ) ;
#299 = DIRECTION ( 'NONE',  ( -0.000000000000000000, -1.000000000000000000, -0.000000000000000000 ) ) ;
#300 = MANIFOLD_SOLID_BREP ( 'Revolve - Cutting Edge', #112 ) ;
#301 = DIRECTION ( 'NONE',  ( 0.000000000000000000, 0.000000000000000000, -1.000000000000000000 ) ) ;
#302 = DIRECTION ( 'NONE',  ( -0.000000000000000000, -1.000000000000000000, -0.000000000000000000 ) ) ;
#303 = DIRECTION ( 'NONE',  ( 0.000000000000000000, 0.000000000000000000, -1.000000000000000000 ) ) ;
#304 = LENGTH_MEASURE_WITH_UNIT ( LENGTH_MEASURE( 0.02539999999999999897 ), #115 );
#305 = MECHANICAL_DESIGN_GEOMETRIC_PRESENTATION_REPRESENTATION (  '', ( #23 ), #265 ) ;
#306 = VECTOR ( 'NONE', #258, 39.37007874015748143 ) ;
#307 = CYLINDRICAL_SURFACE ( 'NONE', #55, 0.3125000000000000555 ) ;
#308 = CARTESIAN_POINT ( 'NONE',  ( 0.000000000000000000, 0.000000000000000000, 0.000000000000000000 ) ) ;
#309 = LENGTH_MEASURE_WITH_UNIT ( LENGTH_MEASURE( 0.02539999999999999897 ), #40 );
ENDSEC;
END-ISO-10303-21;
