ISO-10303-21;
HEADER;
FILE_DESCRIPTION (( 'STEP AP214' ),
    '1' );
FILE_NAME ('03752.STEP',
    '2023-06-22T15:43:04',
    ( '' ),
    ( '' ),
    'SwSTEP 2.0',
    'SolidWorks 2023',
    '' );
FILE_SCHEMA (( 'AUTOMOTIVE_DESIGN' ));
ENDSEC;

DATA;
#1 = SURFACE_STYLE_USAGE ( .BOTH. , #121 ) ;
#2 = SURFACE_SIDE_STYLE ('',( #151 ) ) ;
#3 = COLOUR_RGB ( '',0.7921568627450980005, 0.8196078431372548767, 0.9333333333333333481 ) ;
#4 = STYLED_ITEM ( 'NONE', ( #194 ), #76 ) ;
#5 = EDGE_LOOP ( 'NONE', ( #299, #119 ) ) ;
#6 = PRODUCT_DEFINITION_CONTEXT ( 'detailed design', #11, 'design' ) ;
#7 = CARTESIAN_POINT ( 'NONE',  ( 1.836970198721030427E-16, 5.000000000000000000, 0.000000000000000000 ) ) ;
#8 = EDGE_CURVE ( 'NONE', #232, #211, #129, .T. ) ;
#9 = FILL_AREA_STYLE_COLOUR ( '', #274 ) ;
#10 = SHAPE_DEFINITION_REPRESENTATION ( #297, #280 ) ;
#11 = APPLICATION_CONTEXT ( 'automotive_design' ) ;
#12 = DIRECTION ( 'NONE',  ( 0.000000000000000000, 0.000000000000000000, -1.000000000000000000 ) ) ;
#13 = PRODUCT ( '03752', '03752', '', ( #227 ) ) ;
#14 = LENGTH_MEASURE_WITH_UNIT ( LENGTH_MEASURE( 0.02539999999999999897 ), #187 );
#15 = PRODUCT_RELATED_PRODUCT_CATEGORY ( 'part', '', ( #13 ) ) ;
#16 = SURFACE_SIDE_STYLE ('',( #38 ) ) ;
#17 = FACE_OUTER_BOUND ( 'NONE', #48, .T. ) ;
#18 = ADVANCED_FACE ( 'NONE', ( #82 ), #245, .T. ) ;
#19 =( NAMED_UNIT ( * ) SI_UNIT ( $, .STERADIAN. ) SOLID_ANGLE_UNIT ( ) );
#20 = CARTESIAN_POINT ( 'NONE',  ( 0.5000000000000000000, 5.000000000000000000, 0.000000000000000000 ) ) ;
#21 = AXIS2_PLACEMENT_3D ( 'NONE', #293, #88, #160 ) ;
#22 = FILL_AREA_STYLE ('',( #258 ) ) ;
#23 = ORIENTED_EDGE ( 'NONE', *, *, #162, .F. ) ;
#24 = ORIENTED_EDGE ( 'NONE', *, *, #205, .F. ) ;
#25 = FILL_AREA_STYLE ('',( #222 ) ) ;
#26 = ORIENTED_EDGE ( 'NONE', *, *, #209, .T. ) ;
#27 = DIRECTION ( 'NONE',  ( -1.000000000000000000, 0.000000000000000000, 0.000000000000000000 ) ) ;
#28 = STYLED_ITEM ( 'NONE', ( #92 ), #234 ) ;
#29 = VECTOR ( 'NONE', #196, 39.37007874015748143 ) ;
#30 = FACE_OUTER_BOUND ( 'NONE', #259, .T. ) ;
#31 = FACE_OUTER_BOUND ( 'NONE', #241, .T. ) ;
#32 = UNCERTAINTY_MEASURE_WITH_UNIT (LENGTH_MEASURE( 1.000000000000000082E-05 ), #179, 'distance_accuracy_value', 'NONE');
#33 = DIRECTION ( 'NONE',  ( 6.123233995736768501E-17, 1.000000000000000000, -0.000000000000000000 ) ) ;
#34 = AXIS2_PLACEMENT_3D ( 'NONE', #252, #89, #270 ) ;
#35 = PRESENTATION_STYLE_ASSIGNMENT (( #1 ) ) ;
#36 = DIMENSIONAL_EXPONENTS ( 1.000000000000000000, 0.000000000000000000, 0.000000000000000000, 0.000000000000000000, 0.000000000000000000, 0.000000000000000000, 0.000000000000000000 ) ;
#37 = FILL_AREA_STYLE ('',( #9 ) ) ;
#38 = SURFACE_STYLE_FILL_AREA ( #37 ) ;
#39 = CARTESIAN_POINT ( 'NONE',  ( 0.5000000000000001110, 2.000000000000000000, 6.123233995736766036E-17 ) ) ;
#40 = PRESENTATION_LAYER_ASSIGNMENT (  '', '', ( #4 ) ) ;
#41 = ORIENTED_EDGE ( 'NONE', *, *, #183, .T. ) ;
#42 = MECHANICAL_DESIGN_GEOMETRIC_PRESENTATION_REPRESENTATION (  '', ( #4 ), #96 ) ;
#43 = CARTESIAN_POINT ( 'NONE',  ( -3.032960542342103792E-32, 2.000000000000000000, 0.000000000000000000 ) ) ;
#44 = ORIENTED_EDGE ( 'NONE', *, *, #254, .T. ) ;
#45 = ADVANCED_FACE ( 'NONE', ( #31 ), #285, .F. ) ;
#46 = ORIENTED_EDGE ( 'NONE', *, *, #254, .F. ) ;
#47 = SURFACE_STYLE_USAGE ( .BOTH. , #171 ) ;
#48 = EDGE_LOOP ( 'NONE', ( #256, #23 ) ) ;
#49 = CARTESIAN_POINT ( 'NONE',  ( -3.032960542342103792E-32, 2.000000000000000000, 0.000000000000000000 ) ) ;
#50 = ADVANCED_FACE ( 'NONE', ( #221 ), #173, .T. ) ;
#51 = CARTESIAN_POINT ( 'NONE',  ( 1.836970198721030427E-16, 5.000000000000000000, 0.000000000000000000 ) ) ;
#52 = CIRCLE ( 'NONE', #272, 0.4999999999999997780 ) ;
#53 =( LENGTH_UNIT ( ) NAMED_UNIT ( * ) SI_UNIT ( $, .METRE. ) );
#54 =( CONVERSION_BASED_UNIT ( 'INCH', #248 ) LENGTH_UNIT ( ) NAMED_UNIT ( #60 ) );
#55 = AXIS2_PLACEMENT_3D ( 'NONE', #43, #212, #74 ) ;
#56 = SURFACE_SIDE_STYLE ('',( #262 ) ) ;
#57 = DIRECTION ( 'NONE',  ( 6.123233995736768501E-17, 1.000000000000000000, -0.000000000000000000 ) ) ;
#58 = MECHANICAL_DESIGN_GEOMETRIC_PRESENTATION_REPRESENTATION (  '', ( #71 ), #237 ) ;
#59 = APPLICATION_PROTOCOL_DEFINITION ( 'draft international standard', 'automotive_design', 1998, #11 ) ;
#60 = DIMENSIONAL_EXPONENTS ( 1.000000000000000000, 0.000000000000000000, 0.000000000000000000, 0.000000000000000000, 0.000000000000000000, 0.000000000000000000, 0.000000000000000000 ) ;
#61 = DIRECTION ( 'NONE',  ( 0.000000000000000000, 0.000000000000000000, -1.000000000000000000 ) ) ;
#62 = STYLED_ITEM ( 'NONE', ( #35 ), #284 ) ;
#63 = DIRECTION ( 'NONE',  ( 0.000000000000000000, 0.000000000000000000, -1.000000000000000000 ) ) ;
#64 = CARTESIAN_POINT ( 'NONE',  ( 0.000000000000000000, 0.000000000000000000, 0.000000000000000000 ) ) ;
#65 = EDGE_CURVE ( 'NONE', #278, #214, #101, .T. ) ;
#66 = VERTEX_POINT ( 'NONE', #225 ) ;
#67 = SURFACE_SIDE_STYLE ('',( #215 ) ) ;
#68 = VERTEX_POINT ( 'NONE', #287 ) ;
#69 =( NAMED_UNIT ( * ) SI_UNIT ( $, .STERADIAN. ) SOLID_ANGLE_UNIT ( ) );
#70 = ORIENTED_EDGE ( 'NONE', *, *, #139, .F. ) ;
#71 = STYLED_ITEM ( 'NONE', ( #154 ), #79 ) ;
#72 = SURFACE_STYLE_FILL_AREA ( #279 ) ;
#73 = PRODUCT_DEFINITION ( 'UNKNOWN', '', #197, #6 ) ;
#74 = DIRECTION ( 'NONE',  ( -1.000000000000000000, 0.000000000000000000, 0.000000000000000000 ) ) ;
#75 = ORIENTED_EDGE ( 'NONE', *, *, #209, .F. ) ;
#76 = MANIFOLD_SOLID_BREP ( 'Revolve - Cutting Edge', #193 ) ;
#77 = CARTESIAN_POINT ( 'NONE',  ( 0.000000000000000000, 0.000000000000000000, 0.000000000000000000 ) ) ;
#78 = DIRECTION ( 'NONE',  ( -1.000000000000000000, 6.123233995736768501E-17, 0.000000000000000000 ) ) ;
#79 = ADVANCED_FACE ( 'NONE', ( #30 ), #175, .T. ) ;
#80 = AXIS2_PLACEMENT_3D ( 'NONE', #77, #152, #220 ) ;
#81 = CARTESIAN_POINT ( 'NONE',  ( 6.123233995736766036E-17, 0.000000000000000000, 0.5000000000000000000 ) ) ;
#82 = FACE_OUTER_BOUND ( 'NONE', #167, .T. ) ;
#83 = MANIFOLD_SOLID_BREP ( 'Revolve - Tool Body (Straight Shanked)', #309 ) ;
#84 = LENGTH_MEASURE_WITH_UNIT ( LENGTH_MEASURE( 0.02539999999999999897 ), #157 );
#85 = DIMENSIONAL_EXPONENTS ( 1.000000000000000000, 0.000000000000000000, 0.000000000000000000, 0.000000000000000000, 0.000000000000000000, 0.000000000000000000, 0.000000000000000000 ) ;
#86 = DIRECTION ( 'NONE',  ( -0.000000000000000000, -1.000000000000000000, -0.000000000000000000 ) ) ;
#87 = VECTOR ( 'NONE', #33, 39.37007874015748143 ) ;
#88 = DIRECTION ( 'NONE',  ( 0.000000000000000000, 0.000000000000000000, 1.000000000000000000 ) ) ;
#89 = DIRECTION ( 'NONE',  ( 6.123233995736768501E-17, 1.000000000000000000, -0.000000000000000000 ) ) ;
#90 = PRESENTATION_LAYER_ASSIGNMENT (  '', '', ( #62 ) ) ;
#91 = PRESENTATION_STYLE_ASSIGNMENT (( #131 ) ) ;
#92 = PRESENTATION_STYLE_ASSIGNMENT (( #47 ) ) ;
#93 = ORIENTED_EDGE ( 'NONE', *, *, #127, .F. ) ;
#94 = ORIENTED_EDGE ( 'NONE', *, *, #8, .T. ) ;
#95 = DIRECTION ( 'NONE',  ( -1.000000000000000000, 0.000000000000000000, 0.000000000000000000 ) ) ;
#96 =( GEOMETRIC_REPRESENTATION_CONTEXT ( 3 ) GLOBAL_UNCERTAINTY_ASSIGNED_CONTEXT ( ( #247 ) ) GLOBAL_UNIT_ASSIGNED_CONTEXT ( ( #54, #291, #243 ) ) REPRESENTATION_CONTEXT ( 'NONE', 'WORKASPACE' ) );
#97 = EDGE_LOOP ( 'NONE', ( #44, #216 ) ) ;
#98 = SURFACE_STYLE_USAGE ( .BOTH. , #2 ) ;
#99 = CYLINDRICAL_SURFACE ( 'NONE', #218, 0.5000000000000000000 ) ;
#100 =( CONVERSION_BASED_UNIT ( 'INCH', #223 ) LENGTH_UNIT ( ) NAMED_UNIT ( #36 ) );
#101 = LINE ( 'NONE', #123, #87 ) ;
#102 = COLOUR_RGB ( '',1.000000000000000000, 0.000000000000000000, 0.000000000000000000 ) ;
#103 = DIRECTION ( 'NONE',  ( 6.123233995736768501E-17, 1.000000000000000000, -0.000000000000000000 ) ) ;
#104 = AXIS2_PLACEMENT_3D ( 'NONE', #108, #86, #135 ) ;
#105 = AXIS2_PLACEMENT_3D ( 'NONE', #7, #260, #199 ) ;
#106 = UNCERTAINTY_MEASURE_WITH_UNIT (LENGTH_MEASURE( 1.000000000000000082E-05 ), #182, 'distance_accuracy_value', 'NONE');
#107 = CARTESIAN_POINT ( 'NONE',  ( 0.5000000000000001110, 5.000000000000000000, 6.123233995736764803E-17 ) ) ;
#108 = CARTESIAN_POINT ( 'NONE',  ( 0.000000000000000000, 0.000000000000000000, 0.000000000000000000 ) ) ;
#109 = DIRECTION ( 'NONE',  ( 0.000000000000000000, 0.000000000000000000, -1.000000000000000000 ) ) ;
#110 = CARTESIAN_POINT ( 'NONE',  ( 0.000000000000000000, 0.000000000000000000, -0.5000000000000000000 ) ) ;
#111 = CIRCLE ( 'NONE', #55, 0.5000000000000000000 ) ;
#112 = CARTESIAN_POINT ( 'NONE',  ( -0.4999999999999996114, 5.000000000000000000, 0.000000000000000000 ) ) ;
#113 = CARTESIAN_POINT ( 'NONE',  ( 6.123233995736766036E-17, 2.000000000000000000, 0.5000000000000000000 ) ) ;
#114 = FACE_OUTER_BOUND ( 'NONE', #5, .T. ) ;
#115 = CARTESIAN_POINT ( 'NONE',  ( 0.000000000000000000, 2.000000000000000000, 0.000000000000000000 ) ) ;
#116 =( CONVERSION_BASED_UNIT ( 'INCH', #190 ) LENGTH_UNIT ( ) NAMED_UNIT ( #134 ) );
#117 = VERTEX_POINT ( 'NONE', #113 ) ;
#118 =( GEOMETRIC_REPRESENTATION_CONTEXT ( 3 ) GLOBAL_UNCERTAINTY_ASSIGNED_CONTEXT ( ( #106 ) ) GLOBAL_UNIT_ASSIGNED_CONTEXT ( ( #182, #226, #133 ) ) REPRESENTATION_CONTEXT ( 'NONE', 'WORKASPACE' ) );
#119 = ORIENTED_EDGE ( 'NONE', *, *, #286, .T. ) ;
#120 = ORIENTED_EDGE ( 'NONE', *, *, #300, .F. ) ;
#121 = SURFACE_SIDE_STYLE ('',( #250 ) ) ;
#122 = PRESENTATION_LAYER_ASSIGNMENT (  '', '', ( #137 ) ) ;
#123 = CARTESIAN_POINT ( 'NONE',  ( -0.4999999999999996669, 5.000000000000000000, 0.000000000000000000 ) ) ;
#124 = CIRCLE ( 'NONE', #34, 0.4999999999999997780 ) ;
#125 = UNCERTAINTY_MEASURE_WITH_UNIT (LENGTH_MEASURE( 1.000000000000000082E-05 ), #100, 'distance_accuracy_value', 'NONE');
#126 = AXIS2_PLACEMENT_3D ( 'NONE', #20, #147, #246 ) ;
#127 = EDGE_CURVE ( 'NONE', #211, #214, #124, .T. ) ;
#128 = FILL_AREA_STYLE ('',( #178 ) ) ;
#129 = LINE ( 'NONE', #107, #29 ) ;
#130 =( NAMED_UNIT ( * ) SI_UNIT ( $, .STERADIAN. ) SOLID_ANGLE_UNIT ( ) );
#131 = SURFACE_STYLE_USAGE ( .BOTH. , #16 ) ;
#132 = MECHANICAL_DESIGN_GEOMETRIC_PRESENTATION_REPRESENTATION (  '', ( #137 ), #219 ) ;
#133 =( NAMED_UNIT ( * ) SI_UNIT ( $, .STERADIAN. ) SOLID_ANGLE_UNIT ( ) );
#134 = DIMENSIONAL_EXPONENTS ( 1.000000000000000000, 0.000000000000000000, 0.000000000000000000, 0.000000000000000000, 0.000000000000000000, 0.000000000000000000, 0.000000000000000000 ) ;
#135 = DIRECTION ( 'NONE',  ( 0.000000000000000000, 0.000000000000000000, -1.000000000000000000 ) ) ;
#136 = AXIS2_PLACEMENT_3D ( 'NONE', #49, #150, #27 ) ;
#137 = STYLED_ITEM ( 'NONE', ( #138 ), #231 ) ;
#138 = PRESENTATION_STYLE_ASSIGNMENT (( #170 ) ) ;
#139 = EDGE_CURVE ( 'NONE', #66, #68, #296, .T. ) ;
#140 = DIRECTION ( 'NONE',  ( 0.000000000000000000, 1.000000000000000000, 0.000000000000000000 ) ) ;
#141 = ORIENTED_EDGE ( 'NONE', *, *, #300, .T. ) ;
#142 = PLANE ( 'NONE',  #253 ) ;
#143 = EDGE_LOOP ( 'NONE', ( #41, #26, #24, #70 ) ) ;
#144 = CIRCLE ( 'NONE', #136, 0.5000000000000000000 ) ;
#145 = LENGTH_MEASURE_WITH_UNIT ( LENGTH_MEASURE( 0.02539999999999999897 ), #230 );
#146 = AXIS2_PLACEMENT_3D ( 'NONE', #165, #180, #63 ) ;
#147 = DIRECTION ( 'NONE',  ( -6.123233995736768501E-17, -1.000000000000000000, 0.000000000000000000 ) ) ;
#148 = ORIENTED_EDGE ( 'NONE', *, *, #224, .F. ) ;
#149 = COLOUR_RGB ( '',1.000000000000000000, 0.000000000000000000, 0.000000000000000000 ) ;
#150 = DIRECTION ( 'NONE',  ( 6.123233995736768501E-17, 1.000000000000000000, -0.000000000000000000 ) ) ;
#151 = SURFACE_STYLE_FILL_AREA ( #155 ) ;
#152 = DIRECTION ( 'NONE',  ( -0.000000000000000000, -1.000000000000000000, -0.000000000000000000 ) ) ;
#153 = CIRCLE ( 'NONE', #229, 0.5000000000000000000 ) ;
#154 = PRESENTATION_STYLE_ASSIGNMENT (( #156 ) ) ;
#155 = FILL_AREA_STYLE ('',( #283 ) ) ;
#156 = SURFACE_STYLE_USAGE ( .BOTH. , #56 ) ;
#157 =( LENGTH_UNIT ( ) NAMED_UNIT ( * ) SI_UNIT ( $, .METRE. ) );
#158 = UNCERTAINTY_MEASURE_WITH_UNIT (LENGTH_MEASURE( 1.000000000000000082E-05 ), #238, 'distance_accuracy_value', 'NONE');
#159 = CARTESIAN_POINT ( 'NONE',  ( 6.123233995736766036E-17, 0.000000000000000000, 0.5000000000000000000 ) ) ;
#160 = DIRECTION ( 'NONE',  ( 1.000000000000000000, 0.000000000000000000, 0.000000000000000000 ) ) ;
#161 = CIRCLE ( 'NONE', #80, 0.5000000000000000000 ) ;
#162 = EDGE_CURVE ( 'NONE', #117, #66, #177, .T. ) ;
#163 = CIRCLE ( 'NONE', #146, 0.5000000000000000000 ) ;
#164 = DIRECTION ( 'NONE',  ( -0.000000000000000000, -1.000000000000000000, -0.000000000000000000 ) ) ;
#165 = CARTESIAN_POINT ( 'NONE',  ( 0.000000000000000000, 2.000000000000000000, 0.000000000000000000 ) ) ;
#166 = PLANE ( 'NONE',  #235 ) ;
#167 = EDGE_LOOP ( 'NONE', ( #188, #141, #276, #93 ) ) ;
#168 = COLOUR_RGB ( '',1.000000000000000000, 0.000000000000000000, 0.000000000000000000 ) ;
#169 = FACE_OUTER_BOUND ( 'NONE', #97, .T. ) ;
#170 = SURFACE_STYLE_USAGE ( .BOTH. , #67 ) ;
#171 = SURFACE_SIDE_STYLE ('',( #72 ) ) ;
#172 = DIRECTION ( 'NONE',  ( 0.000000000000000000, -1.000000000000000000, -0.000000000000000000 ) ) ;
#173 = CYLINDRICAL_SURFACE ( 'NONE', #239, 0.4999999999999998335 ) ;
#174 = CARTESIAN_POINT ( 'NONE',  ( 0.000000000000000000, 0.000000000000000000, 0.000000000000000000 ) ) ;
#175 = CYLINDRICAL_SURFACE ( 'NONE', #104, 0.5000000000000000000 ) ;
#176 = DIRECTION ( 'NONE',  ( -1.000000000000000000, 0.000000000000000000, 0.000000000000000000 ) ) ;
#177 = CIRCLE ( 'NONE', #290, 0.5000000000000000000 ) ;
#178 = FILL_AREA_STYLE_COLOUR ( '', #149 ) ;
#179 =( CONVERSION_BASED_UNIT ( 'INCH', #84 ) LENGTH_UNIT ( ) NAMED_UNIT ( #295 ) );
#180 = DIRECTION ( 'NONE',  ( -0.000000000000000000, -1.000000000000000000, -0.000000000000000000 ) ) ;
#181 =( NAMED_UNIT ( * ) SI_UNIT ( $, .STERADIAN. ) SOLID_ANGLE_UNIT ( ) );
#182 =( CONVERSION_BASED_UNIT ( 'INCH', #14 ) LENGTH_UNIT ( ) NAMED_UNIT ( #251 ) );
#183 = EDGE_CURVE ( 'NONE', #66, #117, #163, .T. ) ;
#184 = DIRECTION ( 'NONE',  ( -0.000000000000000000, -1.000000000000000000, -0.000000000000000000 ) ) ;
#185 = MECHANICAL_DESIGN_GEOMETRIC_PRESENTATION_REPRESENTATION (  '', ( #263 ), #118 ) ;
#186 = DIMENSIONAL_EXPONENTS ( 1.000000000000000000, 0.000000000000000000, 0.000000000000000000, 0.000000000000000000, 0.000000000000000000, 0.000000000000000000, 0.000000000000000000 ) ;
#187 =( LENGTH_UNIT ( ) NAMED_UNIT ( * ) SI_UNIT ( $, .METRE. ) );
#188 = ORIENTED_EDGE ( 'NONE', *, *, #8, .F. ) ;
#189 = CARTESIAN_POINT ( 'NONE',  ( 1.836970198721030427E-16, 5.000000000000000000, 0.000000000000000000 ) ) ;
#190 = LENGTH_MEASURE_WITH_UNIT ( LENGTH_MEASURE( 0.02539999999999999897 ), #210 );
#191 = ORIENTED_EDGE ( 'NONE', *, *, #224, .T. ) ;
#192 = FILL_AREA_STYLE_COLOUR ( '', #168 ) ;
#193 = CLOSED_SHELL ( 'NONE', ( #284, #234, #79, #231 ) ) ;
#194 = PRESENTATION_STYLE_ASSIGNMENT (( #98 ) ) ;
#195 =( LENGTH_UNIT ( ) NAMED_UNIT ( * ) SI_UNIT ( $, .METRE. ) );
#196 = DIRECTION ( 'NONE',  ( 6.123233995736768501E-17, 1.000000000000000000, -0.000000000000000000 ) ) ;
#197 = PRODUCT_DEFINITION_FORMATION_WITH_SPECIFIED_SOURCE ( 'ANY', '', #13, .NOT_KNOWN. ) ;
#198 =( LENGTH_UNIT ( ) NAMED_UNIT ( * ) SI_UNIT ( $, .METRE. ) );
#199 = DIRECTION ( 'NONE',  ( -1.000000000000000000, 0.000000000000000000, 0.000000000000000000 ) ) ;
#200 = PRESENTATION_LAYER_ASSIGNMENT (  '', '', ( #28 ) ) ;
#201 = APPLICATION_PROTOCOL_DEFINITION ( 'draft international standard', 'automotive_design', 1998, #292 ) ;
#202 =( GEOMETRIC_REPRESENTATION_CONTEXT ( 3 ) GLOBAL_UNCERTAINTY_ASSIGNED_CONTEXT ( ( #125 ) ) GLOBAL_UNIT_ASSIGNED_CONTEXT ( ( #100, #261, #130 ) ) REPRESENTATION_CONTEXT ( 'NONE', 'WORKASPACE' ) );
#203 = LINE ( 'NONE', #159, #308 ) ;
#204 = VECTOR ( 'NONE', #184, 39.37007874015748143 ) ;
#205 = EDGE_CURVE ( 'NONE', #68, #302, #153, .T. ) ;
#206 =( NAMED_UNIT ( * ) PLANE_ANGLE_UNIT ( ) SI_UNIT ( $, .RADIAN. ) );
#207 =( GEOMETRIC_REPRESENTATION_CONTEXT ( 3 ) GLOBAL_UNCERTAINTY_ASSIGNED_CONTEXT ( ( #266 ) ) GLOBAL_UNIT_ASSIGNED_CONTEXT ( ( #242, #306, #181 ) ) REPRESENTATION_CONTEXT ( 'NONE', 'WORKASPACE' ) );
#208 =( NAMED_UNIT ( * ) SI_UNIT ( $, .STERADIAN. ) SOLID_ANGLE_UNIT ( ) );
#209 = EDGE_CURVE ( 'NONE', #117, #302, #203, .T. ) ;
#210 =( LENGTH_UNIT ( ) NAMED_UNIT ( * ) SI_UNIT ( $, .METRE. ) );
#211 = VERTEX_POINT ( 'NONE', #294 ) ;
#212 = DIRECTION ( 'NONE',  ( 6.123233995736768501E-17, 1.000000000000000000, -0.000000000000000000 ) ) ;
#213 = MECHANICAL_DESIGN_GEOMETRIC_PRESENTATION_REPRESENTATION (  '', ( #62 ), #207 ) ;
#214 = VERTEX_POINT ( 'NONE', #112 ) ;
#215 = SURFACE_STYLE_FILL_AREA ( #22 ) ;
#216 = ORIENTED_EDGE ( 'NONE', *, *, #127, .T. ) ;
#217 = LENGTH_MEASURE_WITH_UNIT ( LENGTH_MEASURE( 0.02539999999999999897 ), #53 );
#218 = AXIS2_PLACEMENT_3D ( 'NONE', #174, #282, #109 ) ;
#219 =( GEOMETRIC_REPRESENTATION_CONTEXT ( 3 ) GLOBAL_UNCERTAINTY_ASSIGNED_CONTEXT ( ( #268 ) ) GLOBAL_UNIT_ASSIGNED_CONTEXT ( ( #116, #304, #69 ) ) REPRESENTATION_CONTEXT ( 'NONE', 'WORKASPACE' ) );
#220 = DIRECTION ( 'NONE',  ( 0.000000000000000000, 0.000000000000000000, -1.000000000000000000 ) ) ;
#221 = FACE_OUTER_BOUND ( 'NONE', #236, .T. ) ;
#222 = FILL_AREA_STYLE_COLOUR ( '', #102 ) ;
#223 = LENGTH_MEASURE_WITH_UNIT ( LENGTH_MEASURE( 0.02539999999999999897 ), #195 );
#224 = EDGE_CURVE ( 'NONE', #278, #232, #111, .T. ) ;
#225 = CARTESIAN_POINT ( 'NONE',  ( 0.000000000000000000, 2.000000000000000000, -0.5000000000000000000 ) ) ;
#226 =( NAMED_UNIT ( * ) PLANE_ANGLE_UNIT ( ) SI_UNIT ( $, .RADIAN. ) );
#227 = PRODUCT_CONTEXT ( 'NONE', #292, 'mechanical' ) ;
#228 =( NAMED_UNIT ( * ) PLANE_ANGLE_UNIT ( ) SI_UNIT ( $, .RADIAN. ) );
#229 = AXIS2_PLACEMENT_3D ( 'NONE', #64, #269, #12 ) ;
#230 =( LENGTH_UNIT ( ) NAMED_UNIT ( * ) SI_UNIT ( $, .METRE. ) );
#231 = ADVANCED_FACE ( 'NONE', ( #114 ), #142, .T. ) ;
#232 = VERTEX_POINT ( 'NONE', #39 ) ;
#233 = PLANE ( 'NONE',  #126 ) ;
#234 = ADVANCED_FACE ( 'NONE', ( #17 ), #166, .T. ) ;
#235 = AXIS2_PLACEMENT_3D ( 'NONE', #115, #140, #298 ) ;
#236 = EDGE_LOOP ( 'NONE', ( #191, #94, #46, #305 ) ) ;
#237 =( GEOMETRIC_REPRESENTATION_CONTEXT ( 3 ) GLOBAL_UNCERTAINTY_ASSIGNED_CONTEXT ( ( #32 ) ) GLOBAL_UNIT_ASSIGNED_CONTEXT ( ( #179, #206, #208 ) ) REPRESENTATION_CONTEXT ( 'NONE', 'WORKASPACE' ) );
#238 =( CONVERSION_BASED_UNIT ( 'INCH', #145 ) LENGTH_UNIT ( ) NAMED_UNIT ( #85 ) );
#239 = AXIS2_PLACEMENT_3D ( 'NONE', #51, #57, #176 ) ;
#240 = CARTESIAN_POINT ( 'NONE',  ( -0.5000000000000000000, 2.000000000000000000, 0.000000000000000000 ) ) ;
#241 = EDGE_LOOP ( 'NONE', ( #148, #120 ) ) ;
#242 =( CONVERSION_BASED_UNIT ( 'INCH', #217 ) LENGTH_UNIT ( ) NAMED_UNIT ( #186 ) );
#243 =( NAMED_UNIT ( * ) SI_UNIT ( $, .STERADIAN. ) SOLID_ANGLE_UNIT ( ) );
#244 = MECHANICAL_DESIGN_GEOMETRIC_PRESENTATION_REPRESENTATION (  '', ( #28 ), #288 ) ;
#245 = CYLINDRICAL_SURFACE ( 'NONE', #105, 0.4999999999999998335 ) ;
#246 = DIRECTION ( 'NONE',  ( 1.000000000000000000, -6.123233995736768501E-17, 0.000000000000000000 ) ) ;
#247 = UNCERTAINTY_MEASURE_WITH_UNIT (LENGTH_MEASURE( 1.000000000000000082E-05 ), #54, 'distance_accuracy_value', 'NONE');
#248 = LENGTH_MEASURE_WITH_UNIT ( LENGTH_MEASURE( 0.02539999999999999897 ), #198 );
#249 = PRESENTATION_LAYER_ASSIGNMENT (  '', '', ( #71 ) ) ;
#250 = SURFACE_STYLE_FILL_AREA ( #25 ) ;
#251 = DIMENSIONAL_EXPONENTS ( 1.000000000000000000, 0.000000000000000000, 0.000000000000000000, 0.000000000000000000, 0.000000000000000000, 0.000000000000000000, 0.000000000000000000 ) ;
#252 = CARTESIAN_POINT ( 'NONE',  ( 1.836970198721030427E-16, 5.000000000000000000, 0.000000000000000000 ) ) ;
#253 = AXIS2_PLACEMENT_3D ( 'NONE', #301, #172, #255 ) ;
#254 = EDGE_CURVE ( 'NONE', #214, #211, #52, .T. ) ;
#255 = DIRECTION ( 'NONE',  ( 0.000000000000000000, 0.000000000000000000, -1.000000000000000000 ) ) ;
#256 = ORIENTED_EDGE ( 'NONE', *, *, #183, .F. ) ;
#257 = ORIENTED_EDGE ( 'NONE', *, *, #286, .F. ) ;
#258 = FILL_AREA_STYLE_COLOUR ( '', #267 ) ;
#259 = EDGE_LOOP ( 'NONE', ( #75, #307, #281, #257 ) ) ;
#260 = DIRECTION ( 'NONE',  ( 6.123233995736768501E-17, 1.000000000000000000, -0.000000000000000000 ) ) ;
#261 =( NAMED_UNIT ( * ) PLANE_ANGLE_UNIT ( ) SI_UNIT ( $, .RADIAN. ) );
#262 = SURFACE_STYLE_FILL_AREA ( #128 ) ;
#263 = STYLED_ITEM ( 'NONE', ( #91 ), #83 ) ;
#264 = CARTESIAN_POINT ( 'NONE',  ( 9.373498641636616891E-34, 2.000000000000000000, 0.000000000000000000 ) ) ;
#265 = ADVANCED_FACE ( 'NONE', ( #169 ), #233, .F. ) ;
#266 = UNCERTAINTY_MEASURE_WITH_UNIT (LENGTH_MEASURE( 1.000000000000000082E-05 ), #242, 'distance_accuracy_value', 'NONE');
#267 = COLOUR_RGB ( '',1.000000000000000000, 0.000000000000000000, 0.000000000000000000 ) ;
#268 = UNCERTAINTY_MEASURE_WITH_UNIT (LENGTH_MEASURE( 1.000000000000000082E-05 ), #116, 'distance_accuracy_value', 'NONE');
#269 = DIRECTION ( 'NONE',  ( -0.000000000000000000, -1.000000000000000000, -0.000000000000000000 ) ) ;
#270 = DIRECTION ( 'NONE',  ( -1.000000000000000000, 0.000000000000000000, 0.000000000000000000 ) ) ;
#271 = FACE_OUTER_BOUND ( 'NONE', #143, .T. ) ;
#272 = AXIS2_PLACEMENT_3D ( 'NONE', #189, #277, #95 ) ;
#273 = DIRECTION ( 'NONE',  ( -0.000000000000000000, -1.000000000000000000, -0.000000000000000000 ) ) ;
#274 = COLOUR_RGB ( '',0.7921568627450980005, 0.8196078431372548767, 0.9333333333333333481 ) ;
#275 = CARTESIAN_POINT ( 'NONE',  ( 0.000000000000000000, 2.000000000000000000, 0.000000000000000000 ) ) ;
#276 = ORIENTED_EDGE ( 'NONE', *, *, #65, .T. ) ;
#277 = DIRECTION ( 'NONE',  ( 6.123233995736768501E-17, 1.000000000000000000, -0.000000000000000000 ) ) ;
#278 = VERTEX_POINT ( 'NONE', #240 ) ;
#279 = FILL_AREA_STYLE ('',( #192 ) ) ;
#280 = ADVANCED_BREP_SHAPE_REPRESENTATION ( '03752', ( #76, #83, #21 ), #202 ) ;
#281 = ORIENTED_EDGE ( 'NONE', *, *, #139, .T. ) ;
#282 = DIRECTION ( 'NONE',  ( -0.000000000000000000, -1.000000000000000000, -0.000000000000000000 ) ) ;
#283 = FILL_AREA_STYLE_COLOUR ( '', #3 ) ;
#284 = ADVANCED_FACE ( 'NONE', ( #271 ), #99, .T. ) ;
#285 = PLANE ( 'NONE',  #289 ) ;
#286 = EDGE_CURVE ( 'NONE', #302, #68, #161, .T. ) ;
#287 = CARTESIAN_POINT ( 'NONE',  ( 0.000000000000000000, 0.000000000000000000, -0.5000000000000000000 ) ) ;
#288 =( GEOMETRIC_REPRESENTATION_CONTEXT ( 3 ) GLOBAL_UNCERTAINTY_ASSIGNED_CONTEXT ( ( #158 ) ) GLOBAL_UNIT_ASSIGNED_CONTEXT ( ( #238, #228, #19 ) ) REPRESENTATION_CONTEXT ( 'NONE', 'WORKASPACE' ) );
#289 = AXIS2_PLACEMENT_3D ( 'NONE', #264, #103, #78 ) ;
#290 = AXIS2_PLACEMENT_3D ( 'NONE', #275, #273, #61 ) ;
#291 =( NAMED_UNIT ( * ) PLANE_ANGLE_UNIT ( ) SI_UNIT ( $, .RADIAN. ) );
#292 = APPLICATION_CONTEXT ( 'automotive_design' ) ;
#293 = CARTESIAN_POINT ( 'NONE',  ( 0.000000000000000000, 0.000000000000000000, 0.000000000000000000 ) ) ;
#294 = CARTESIAN_POINT ( 'NONE',  ( 0.5000000000000001110, 5.000000000000000000, 6.123233995736766036E-17 ) ) ;
#295 = DIMENSIONAL_EXPONENTS ( 1.000000000000000000, 0.000000000000000000, 0.000000000000000000, 0.000000000000000000, 0.000000000000000000, 0.000000000000000000, 0.000000000000000000 ) ;
#296 = LINE ( 'NONE', #110, #204 ) ;
#297 = PRODUCT_DEFINITION_SHAPE ( 'NONE', 'NONE',  #73 ) ;
#298 = DIRECTION ( 'NONE',  ( 0.000000000000000000, -0.000000000000000000, 1.000000000000000000 ) ) ;
#299 = ORIENTED_EDGE ( 'NONE', *, *, #205, .T. ) ;
#300 = EDGE_CURVE ( 'NONE', #232, #278, #144, .T. ) ;
#301 = CARTESIAN_POINT ( 'NONE',  ( 0.000000000000000000, 0.000000000000000000, 0.000000000000000000 ) ) ;
#302 = VERTEX_POINT ( 'NONE', #81 ) ;
#303 = PRESENTATION_LAYER_ASSIGNMENT (  '', '', ( #263 ) ) ;
#304 =( NAMED_UNIT ( * ) PLANE_ANGLE_UNIT ( ) SI_UNIT ( $, .RADIAN. ) );
#305 = ORIENTED_EDGE ( 'NONE', *, *, #65, .F. ) ;
#306 =( NAMED_UNIT ( * ) PLANE_ANGLE_UNIT ( ) SI_UNIT ( $, .RADIAN. ) );
#307 = ORIENTED_EDGE ( 'NONE', *, *, #162, .T. ) ;
#308 = VECTOR ( 'NONE', #164, 39.37007874015748143 ) ;
#309 = CLOSED_SHELL ( 'NONE', ( #50, #45, #18, #265 ) ) ;
ENDSEC;
END-ISO-10303-21;
