ISO-10303-21;
HEADER;
FILE_DESCRIPTION (( 'STEP AP214' ),
    '1' );
FILE_NAME ('83880.STEP',
    '2023-07-12T13:07:59',
    ( '' ),
    ( '' ),
    'SwSTEP 2.0',
    'SolidWorks 2023',
    '' );
FILE_SCHEMA (( 'AUTOMOTIVE_DESIGN' ));
ENDSEC;

DATA;
#1 = VECTOR ( 'NONE', #9, 39.37007874015748143 ) ;
#2 = CARTESIAN_POINT ( 'NONE',  ( 6.123233995736763571E-17, 1.500000000000000222, 0.000000000000000000 ) ) ;
#3 = SURFACE_STYLE_USAGE ( .BOTH. , #74 ) ;
#4 = DIMENSIONAL_EXPONENTS ( 1.000000000000000000, 0.000000000000000000, 0.000000000000000000, 0.000000000000000000, 0.000000000000000000, 0.000000000000000000, 0.000000000000000000 ) ;
#5 = MANIFOLD_SOLID_BREP ( 'Revolve - Tool Body (Tipped Off)', #247 ) ;
#6 = PRESENTATION_LAYER_ASSIGNMENT (  '', '', ( #142 ) ) ;
#7 = EDGE_LOOP ( 'NONE', ( #220, #99 ) ) ;
#8 = DIRECTION ( 'NONE',  ( -1.000000000000000000, -1.229735514630598979E-16, 0.000000000000000000 ) ) ;
#9 = DIRECTION ( 'NONE',  ( 0.5000000000000009992, 0.8660254037844380415, 6.123233995736778362E-17 ) ) ;
#10 = ORIENTED_EDGE ( 'NONE', *, *, #190, .F. ) ;
#11 = FILL_AREA_STYLE_COLOUR ( '', #106 ) ;
#12 = ORIENTED_EDGE ( 'NONE', *, *, #174, .T. ) ;
#13 = DIRECTION ( 'NONE',  ( 1.000000000000000000, 2.520118959667878287E-17, 0.000000000000000000 ) ) ;
#14 = ORIENTED_EDGE ( 'NONE', *, *, #157, .T. ) ;
#15 =( NAMED_UNIT ( * ) PLANE_ANGLE_UNIT ( ) SI_UNIT ( $, .RADIAN. ) );
#16 = EDGE_LOOP ( 'NONE', ( #253, #192, #35, #207 ) ) ;
#17 = STYLED_ITEM ( 'NONE', ( #83 ), #24 ) ;
#18 = ADVANCED_BREP_SHAPE_REPRESENTATION ( '83880', ( #223, #5, #21 ), #233 ) ;
#19 = CARTESIAN_POINT ( 'NONE',  ( -0.06249999999999978489, 1.500000000000000222, 0.000000000000000000 ) ) ;
#20 = CARTESIAN_POINT ( 'NONE',  ( 6.123233995736763571E-17, 1.500000000000000222, 0.000000000000000000 ) ) ;
#21 = AXIS2_PLACEMENT_3D ( 'NONE', #239, #278, #135 ) ;
#22 = DIRECTION ( 'NONE',  ( -1.229735514630598979E-16, 1.000000000000000000, -0.000000000000000000 ) ) ;
#23 = DIMENSIONAL_EXPONENTS ( 1.000000000000000000, 0.000000000000000000, 0.000000000000000000, 0.000000000000000000, 0.000000000000000000, 0.000000000000000000, 0.000000000000000000 ) ;
#24 = ADVANCED_FACE ( 'NONE', ( #282 ), #293, .T. ) ;
#25 = CARTESIAN_POINT ( 'NONE',  ( 1.270199914175501879E-35, -5.040237919335756613E-19, 0.000000000000000000 ) ) ;
#26 =( GEOMETRIC_REPRESENTATION_CONTEXT ( 3 ) GLOBAL_UNCERTAINTY_ASSIGNED_CONTEXT ( ( #37 ) ) GLOBAL_UNIT_ASSIGNED_CONTEXT ( ( #224, #200, #39 ) ) REPRESENTATION_CONTEXT ( 'NONE', 'WORKASPACE' ) );
#27 =( GEOMETRIC_REPRESENTATION_CONTEXT ( 3 ) GLOBAL_UNCERTAINTY_ASSIGNED_CONTEXT ( ( #235 ) ) GLOBAL_UNIT_ASSIGNED_CONTEXT ( ( #227, #177, #159 ) ) REPRESENTATION_CONTEXT ( 'NONE', 'WORKASPACE' ) );
#28 = DIRECTION ( 'NONE',  ( -1.000000000000000000, -2.520118959667878287E-17, 0.000000000000000000 ) ) ;
#29 =( LENGTH_UNIT ( ) NAMED_UNIT ( * ) SI_UNIT ( $, .METRE. ) );
#30 = ORIENTED_EDGE ( 'NONE', *, *, #130, .F. ) ;
#31 = MECHANICAL_DESIGN_GEOMETRIC_PRESENTATION_REPRESENTATION (  '', ( #137 ), #53 ) ;
#32 = SURFACE_STYLE_FILL_AREA ( #221 ) ;
#33 = ORIENTED_EDGE ( 'NONE', *, *, #174, .F. ) ;
#34 = FACE_OUTER_BOUND ( 'NONE', #302, .T. ) ;
#35 = ORIENTED_EDGE ( 'NONE', *, *, #197, .T. ) ;
#36 = UNCERTAINTY_MEASURE_WITH_UNIT (LENGTH_MEASURE( 1.000000000000000082E-05 ), #61, 'distance_accuracy_value', 'NONE');
#37 = UNCERTAINTY_MEASURE_WITH_UNIT (LENGTH_MEASURE( 1.000000000000000082E-05 ), #224, 'distance_accuracy_value', 'NONE');
#38 = FILL_AREA_STYLE ('',( #234 ) ) ;
#39 =( NAMED_UNIT ( * ) SI_UNIT ( $, .STERADIAN. ) SOLID_ANGLE_UNIT ( ) );
#40 = ORIENTED_EDGE ( 'NONE', *, *, #110, .T. ) ;
#41 = SURFACE_SIDE_STYLE ('',( #236 ) ) ;
#42 = CIRCLE ( 'NONE', #219, 0.06249999999999975714 ) ;
#43 = MECHANICAL_DESIGN_GEOMETRIC_PRESENTATION_REPRESENTATION (  '', ( #126 ), #27 ) ;
#44 = PRODUCT_DEFINITION_CONTEXT ( 'detailed design', #217, 'design' ) ;
#45 = DIRECTION ( 'NONE',  ( -1.000000000000000000, -2.520118959667878287E-17, 0.000000000000000000 ) ) ;
#46 = DIRECTION ( 'NONE',  ( 1.000000000000000000, 2.520118959667878287E-17, 0.000000000000000000 ) ) ;
#47 = DIMENSIONAL_EXPONENTS ( 1.000000000000000000, 0.000000000000000000, 0.000000000000000000, 0.000000000000000000, 0.000000000000000000, 0.000000000000000000, 0.000000000000000000 ) ;
#48 = DIRECTION ( 'NONE',  ( -1.000000000000000000, 0.000000000000000000, 0.000000000000000000 ) ) ;
#49 = STYLED_ITEM ( 'NONE', ( #308 ), #103 ) ;
#50 = LINE ( 'NONE', #265, #267 ) ;
#51 = CYLINDRICAL_SURFACE ( 'NONE', #90, 0.06249999999999984734 ) ;
#52 =( CONVERSION_BASED_UNIT ( 'INCH', #54 ) LENGTH_UNIT ( ) NAMED_UNIT ( #149 ) );
#53 =( GEOMETRIC_REPRESENTATION_CONTEXT ( 3 ) GLOBAL_UNCERTAINTY_ASSIGNED_CONTEXT ( ( #36 ) ) GLOBAL_UNIT_ASSIGNED_CONTEXT ( ( #61, #15, #301 ) ) REPRESENTATION_CONTEXT ( 'NONE', 'WORKASPACE' ) );
#54 = LENGTH_MEASURE_WITH_UNIT ( LENGTH_MEASURE( 0.02539999999999999897 ), #29 );
#55 = DIRECTION ( 'NONE',  ( -1.229735514630598979E-16, 1.000000000000000000, -0.000000000000000000 ) ) ;
#56 = PRESENTATION_STYLE_ASSIGNMENT (( #304 ) ) ;
#57 = PRESENTATION_STYLE_ASSIGNMENT (( #98 ) ) ;
#58 = DIRECTION ( 'NONE',  ( 2.520118959667878287E-17, -1.000000000000000000, -0.000000000000000000 ) ) ;
#59 = CIRCLE ( 'NONE', #86, 0.02000000000000000042 ) ;
#60 = SURFACE_STYLE_FILL_AREA ( #158 ) ;
#61 =( CONVERSION_BASED_UNIT ( 'INCH', #299 ) LENGTH_UNIT ( ) NAMED_UNIT ( #4 ) );
#62 = LENGTH_MEASURE_WITH_UNIT ( LENGTH_MEASURE( 0.02539999999999999897 ), #246 );
#63 =( NAMED_UNIT ( * ) PLANE_ANGLE_UNIT ( ) SI_UNIT ( $, .RADIAN. ) );
#64 = ORIENTED_EDGE ( 'NONE', *, *, #178, .T. ) ;
#65 = SURFACE_STYLE_USAGE ( .BOTH. , #243 ) ;
#66 = CARTESIAN_POINT ( 'NONE',  ( -0.06249999999999986816, 1.500000000000000222, 0.000000000000000000 ) ) ;
#67 = CARTESIAN_POINT ( 'NONE',  ( -1.855113983686509741E-18, 0.07361215932167709808, 0.000000000000000000 ) ) ;
#68 = ADVANCED_FACE ( 'NONE', ( #264 ), #168, .T. ) ;
#69 =( NAMED_UNIT ( * ) SI_UNIT ( $, .STERADIAN. ) SOLID_ANGLE_UNIT ( ) );
#70 = EDGE_LOOP ( 'NONE', ( #12, #104 ) ) ;
#71 =( CONVERSION_BASED_UNIT ( 'INCH', #295 ) LENGTH_UNIT ( ) NAMED_UNIT ( #47 ) );
#72 = DIRECTION ( 'NONE',  ( -1.229735514630598979E-16, 1.000000000000000000, -0.000000000000000000 ) ) ;
#73 = DIMENSIONAL_EXPONENTS ( 1.000000000000000000, 0.000000000000000000, 0.000000000000000000, 0.000000000000000000, 0.000000000000000000, 0.000000000000000000, 0.000000000000000000 ) ;
#74 = SURFACE_SIDE_STYLE ('',( #32 ) ) ;
#75 = SURFACE_SIDE_STYLE ('',( #270 ) ) ;
#76 = VERTEX_POINT ( 'NONE', #284 ) ;
#77 = DIRECTION ( 'NONE',  ( 1.000000000000000000, 0.000000000000000000, 0.000000000000000000 ) ) ;
#78 =( CONVERSION_BASED_UNIT ( 'INCH', #203 ) LENGTH_UNIT ( ) NAMED_UNIT ( #121 ) );
#79 = CARTESIAN_POINT ( 'NONE',  ( 0.06249999999999990286, 1.500000000000000222, 7.654042494670939056E-18 ) ) ;
#80 = ORIENTED_EDGE ( 'NONE', *, *, #271, .T. ) ;
#81 = ADVANCED_FACE ( 'NONE', ( #309 ), #171, .F. ) ;
#82 = AXIS2_PLACEMENT_3D ( 'NONE', #2, #273, #91 ) ;
#83 = PRESENTATION_STYLE_ASSIGNMENT (( #132 ) ) ;
#84 =( NAMED_UNIT ( * ) SI_UNIT ( $, .STERADIAN. ) SOLID_ANGLE_UNIT ( ) );
#85 = DIRECTION ( 'NONE',  ( 2.520118959667878287E-17, -1.000000000000000000, -0.000000000000000000 ) ) ;
#86 = AXIS2_PLACEMENT_3D ( 'NONE', #305, #85, #283 ) ;
#87 = DIRECTION ( 'NONE',  ( -1.000000000000000000, 0.000000000000000000, 0.000000000000000000 ) ) ;
#88 = DIRECTION ( 'NONE',  ( -2.520118959667878287E-17, 1.000000000000000000, 0.000000000000000000 ) ) ;
#89 = CARTESIAN_POINT ( 'NONE',  ( 6.123233995736763571E-17, 1.500000000000000222, 0.000000000000000000 ) ) ;
#90 = AXIS2_PLACEMENT_3D ( 'NONE', #218, #172, #48 ) ;
#91 = DIRECTION ( 'NONE',  ( -1.000000000000000000, 0.000000000000000000, 0.000000000000000000 ) ) ;
#92 = PRODUCT ( '83880', '83880', '', ( #169 ) ) ;
#93 = DIRECTION ( 'NONE',  ( 1.000000000000000000, 0.000000000000000000, 0.000000000000000000 ) ) ;
#94 = FILL_AREA_STYLE ('',( #176 ) ) ;
#95 = COLOUR_RGB ( '',1.000000000000000000, 0.000000000000000000, 0.000000000000000000 ) ;
#96 = CARTESIAN_POINT ( 'NONE',  ( -1.855113983686509741E-18, 0.07361215932167709808, 0.000000000000000000 ) ) ;
#97 = LENGTH_MEASURE_WITH_UNIT ( LENGTH_MEASURE( 0.02539999999999999897 ), #268 );
#98 = SURFACE_STYLE_USAGE ( .BOTH. , #75 ) ;
#99 = ORIENTED_EDGE ( 'NONE', *, *, #178, .F. ) ;
#100 = AXIS2_PLACEMENT_3D ( 'NONE', #263, #88, #45 ) ;
#101 = UNCERTAINTY_MEASURE_WITH_UNIT (LENGTH_MEASURE( 1.000000000000000082E-05 ), #52, 'distance_accuracy_value', 'NONE');
#102 = LINE ( 'NONE', #79, #148 ) ;
#103 = ADVANCED_FACE ( 'NONE', ( #259 ), #109, .T. ) ;
#104 = ORIENTED_EDGE ( 'NONE', *, *, #153, .T. ) ;
#105 = VECTOR ( 'NONE', #212, 39.37007874015748143 ) ;
#106 = COLOUR_RGB ( '',1.000000000000000000, 0.000000000000000000, 0.000000000000000000 ) ;
#107 = FILL_AREA_STYLE_COLOUR ( '', #167 ) ;
#108 =( CONVERSION_BASED_UNIT ( 'INCH', #62 ) LENGTH_UNIT ( ) NAMED_UNIT ( #245 ) );
#109 = PLANE ( 'NONE',  #100 ) ;
#110 = EDGE_CURVE ( 'NONE', #150, #237, #160, .T. ) ;
#111 = DIRECTION ( 'NONE',  ( -1.229735514630598979E-16, 1.000000000000000000, -0.000000000000000000 ) ) ;
#112 = CIRCLE ( 'NONE', #225, 0.06249999999999993061 ) ;
#113 = DIRECTION ( 'NONE',  ( 1.000000000000000000, 1.229735514630598979E-16, 0.000000000000000000 ) ) ;
#114 = EDGE_LOOP ( 'NONE', ( #228, #64, #155, #255 ) ) ;
#115 = APPLICATION_CONTEXT ( 'automotive_design' ) ;
#116 = DIRECTION ( 'NONE',  ( -2.520118959667878287E-17, 1.000000000000000000, 0.000000000000000000 ) ) ;
#117 = MECHANICAL_DESIGN_GEOMETRIC_PRESENTATION_REPRESENTATION (  '', ( #251 ), #307 ) ;
#118 = AXIS2_PLACEMENT_3D ( 'NONE', #231, #300, #8 ) ;
#119 =( NAMED_UNIT ( * ) PLANE_ANGLE_UNIT ( ) SI_UNIT ( $, .RADIAN. ) );
#120 = CARTESIAN_POINT ( 'NONE',  ( 2.366403184893062483E-16, 0.07361215932167698706, 0.000000000000000000 ) ) ;
#121 = DIMENSIONAL_EXPONENTS ( 1.000000000000000000, 0.000000000000000000, 0.000000000000000000, 0.000000000000000000, 0.000000000000000000, 0.000000000000000000, 0.000000000000000000 ) ;
#122 = EDGE_CURVE ( 'NONE', #162, #175, #188, .T. ) ;
#123 = ORIENTED_EDGE ( 'NONE', *, *, #130, .T. ) ;
#124 =( LENGTH_UNIT ( ) NAMED_UNIT ( * ) SI_UNIT ( $, .METRE. ) );
#125 = MECHANICAL_DESIGN_GEOMETRIC_PRESENTATION_REPRESENTATION (  '', ( #142 ), #26 ) ;
#126 = STYLED_ITEM ( 'NONE', ( #57 ), #241 ) ;
#127 = FILL_AREA_STYLE_COLOUR ( '', #196 ) ;
#128 = LENGTH_MEASURE_WITH_UNIT ( LENGTH_MEASURE( 0.02539999999999999897 ), #124 );
#129 = ORIENTED_EDGE ( 'NONE', *, *, #281, .T. ) ;
#130 = EDGE_CURVE ( 'NONE', #237, #150, #59, .T. ) ;
#131 = CONICAL_SURFACE ( 'NONE', #279, 0.02000000000000000042, 0.5235987755983000369 ) ;
#132 = SURFACE_STYLE_USAGE ( .BOTH. , #41 ) ;
#133 = VERTEX_POINT ( 'NONE', #306 ) ;
#134 = ORIENTED_EDGE ( 'NONE', *, *, #197, .F. ) ;
#135 = DIRECTION ( 'NONE',  ( 1.000000000000000000, 0.000000000000000000, 0.000000000000000000 ) ) ;
#136 = AXIS2_PLACEMENT_3D ( 'NONE', #164, #143, #166 ) ;
#137 = STYLED_ITEM ( 'NONE', ( #56 ), #5 ) ;
#138 =( NAMED_UNIT ( * ) PLANE_ANGLE_UNIT ( ) SI_UNIT ( $, .RADIAN. ) );
#139 = APPLICATION_PROTOCOL_DEFINITION ( 'draft international standard', 'automotive_design', 1998, #217 ) ;
#140 = CARTESIAN_POINT ( 'NONE',  ( -0.02000000000000000042, -1.008047583867151323E-18, 0.000000000000000000 ) ) ;
#141 = CARTESIAN_POINT ( 'NONE',  ( 0.02000000000000000042, 0.000000000000000000, 2.449293598294706769E-18 ) ) ;
#142 = STYLED_ITEM ( 'NONE', ( #198 ), #223 ) ;
#143 = DIRECTION ( 'NONE',  ( -2.520118959667878287E-17, 1.000000000000000000, 0.000000000000000000 ) ) ;
#144 = FILL_AREA_STYLE ('',( #191 ) ) ;
#145 = PRODUCT_RELATED_PRODUCT_CATEGORY ( 'part', '', ( #92 ) ) ;
#146 = SURFACE_STYLE_USAGE ( .BOTH. , #290 ) ;
#147 = MECHANICAL_DESIGN_GEOMETRIC_PRESENTATION_REPRESENTATION (  '', ( #17 ), #232 ) ;
#148 = VECTOR ( 'NONE', #55, 39.37007874015748143 ) ;
#149 = DIMENSIONAL_EXPONENTS ( 1.000000000000000000, 0.000000000000000000, 0.000000000000000000, 0.000000000000000000, 0.000000000000000000, 0.000000000000000000, 0.000000000000000000 ) ;
#150 = VERTEX_POINT ( 'NONE', #140 ) ;
#151 = PLANE ( 'NONE',  #303 ) ;
#152 = DIRECTION ( 'NONE',  ( 2.520118959667878287E-17, -1.000000000000000000, -0.000000000000000000 ) ) ;
#153 = EDGE_CURVE ( 'NONE', #76, #175, #112, .T. ) ;
#154 = CARTESIAN_POINT ( 'NONE',  ( 2.366403184893062483E-16, 0.07361215932167698706, 0.000000000000000000 ) ) ;
#155 = ORIENTED_EDGE ( 'NONE', *, *, #122, .T. ) ;
#156 = CARTESIAN_POINT ( 'NONE',  ( 6.350999570877509394E-36, -2.520118959667878306E-19, 0.000000000000000000 ) ) ;
#157 = EDGE_CURVE ( 'NONE', #237, #274, #285, .T. ) ;
#158 = FILL_AREA_STYLE ('',( #107 ) ) ;
#159 =( NAMED_UNIT ( * ) SI_UNIT ( $, .STERADIAN. ) SOLID_ANGLE_UNIT ( ) );
#160 = CIRCLE ( 'NONE', #189, 0.02000000000000000042 ) ;
#161 = UNCERTAINTY_MEASURE_WITH_UNIT (LENGTH_MEASURE( 1.000000000000000082E-05 ), #108, 'distance_accuracy_value', 'NONE');
#162 = VERTEX_POINT ( 'NONE', #291 ) ;
#163 = APPLICATION_PROTOCOL_DEFINITION ( 'draft international standard', 'automotive_design', 1998, #115 ) ;
#164 = CARTESIAN_POINT ( 'NONE',  ( 1.270199914175501879E-35, -5.040237919335756613E-19, 0.000000000000000000 ) ) ;
#165 = AXIS2_PLACEMENT_3D ( 'NONE', #195, #215, #113 ) ;
#166 = DIRECTION ( 'NONE',  ( -1.000000000000000000, -2.520118959667878287E-17, 0.000000000000000000 ) ) ;
#167 = COLOUR_RGB ( '',0.7921568627450980005, 0.8196078431372548767, 0.9333333333333333481 ) ;
#168 = CYLINDRICAL_SURFACE ( 'NONE', #288, 0.06249999999999984734 ) ;
#169 = PRODUCT_CONTEXT ( 'NONE', #115, 'mechanical' ) ;
#170 = EDGE_LOOP ( 'NONE', ( #185, #129, #33, #294 ) ) ;
#171 = PLANE ( 'NONE',  #165 ) ;
#172 = DIRECTION ( 'NONE',  ( -1.229735514630598979E-16, 1.000000000000000000, -0.000000000000000000 ) ) ;
#173 = PRESENTATION_STYLE_ASSIGNMENT (( #146 ) ) ;
#174 = EDGE_CURVE ( 'NONE', #175, #76, #244, .T. ) ;
#175 = VERTEX_POINT ( 'NONE', #66 ) ;
#176 = FILL_AREA_STYLE_COLOUR ( '', #95 ) ;
#177 =( NAMED_UNIT ( * ) PLANE_ANGLE_UNIT ( ) SI_UNIT ( $, .RADIAN. ) );
#178 = EDGE_CURVE ( 'NONE', #133, #162, #42, .T. ) ;
#179 = SURFACE_STYLE_FILL_AREA ( #94 ) ;
#180 = CARTESIAN_POINT ( 'NONE',  ( 0.06250000000000001388, 0.07361215932167709808, 7.654042494670959086E-18 ) ) ;
#181 = PRESENTATION_LAYER_ASSIGNMENT (  '', '', ( #49 ) ) ;
#182 = CIRCLE ( 'NONE', #258, 0.06250000000000000000 ) ;
#183 = ADVANCED_FACE ( 'NONE', ( #201 ), #51, .T. ) ;
#184 = PLANE ( 'NONE',  #118 ) ;
#185 = ORIENTED_EDGE ( 'NONE', *, *, #298, .T. ) ;
#186 = UNCERTAINTY_MEASURE_WITH_UNIT (LENGTH_MEASURE( 1.000000000000000082E-05 ), #71, 'distance_accuracy_value', 'NONE');
#187 = PRESENTATION_LAYER_ASSIGNMENT (  '', '', ( #126 ) ) ;
#188 = LINE ( 'NONE', #19, #105 ) ;
#189 = AXIS2_PLACEMENT_3D ( 'NONE', #289, #210, #46 ) ;
#190 = EDGE_CURVE ( 'NONE', #286, #274, #199, .T. ) ;
#191 = FILL_AREA_STYLE_COLOUR ( '', #226 ) ;
#192 = ORIENTED_EDGE ( 'NONE', *, *, #110, .F. ) ;
#193 = PRODUCT_DEFINITION_SHAPE ( 'NONE', 'NONE',  #266 ) ;
#194 = CLOSED_SHELL ( 'NONE', ( #211, #103, #24, #241 ) ) ;
#195 = CARTESIAN_POINT ( 'NONE',  ( 0.06249999999999999306, 1.500000000000000222, 0.000000000000000000 ) ) ;
#196 = COLOUR_RGB ( '',0.7921568627450980005, 0.8196078431372548767, 0.9333333333333333481 ) ;
#197 = EDGE_CURVE ( 'NONE', #150, #286, #50, .T. ) ;
#198 = PRESENTATION_STYLE_ASSIGNMENT (( #3 ) ) ;
#199 = CIRCLE ( 'NONE', #213, 0.06250000000000000000 ) ;
#200 =( NAMED_UNIT ( * ) PLANE_ANGLE_UNIT ( ) SI_UNIT ( $, .RADIAN. ) );
#201 = FACE_OUTER_BOUND ( 'NONE', #114, .T. ) ;
#202 = FACE_OUTER_BOUND ( 'NONE', #7, .T. ) ;
#203 = LENGTH_MEASURE_WITH_UNIT ( LENGTH_MEASURE( 0.02539999999999999897 ), #230 );
#204 = PRESENTATION_LAYER_ASSIGNMENT (  '', '', ( #17 ) ) ;
#205 = PRODUCT_DEFINITION_FORMATION_WITH_SPECIFIED_SOURCE ( 'ANY', '', #92, .NOT_KNOWN. ) ;
#206 = DIRECTION ( 'NONE',  ( -1.229735514630598979E-16, 1.000000000000000000, -0.000000000000000000 ) ) ;
#207 = ORIENTED_EDGE ( 'NONE', *, *, #190, .T. ) ;
#208 = COLOUR_RGB ( '',1.000000000000000000, 0.000000000000000000, 0.000000000000000000 ) ;
#209 = SURFACE_SIDE_STYLE ('',( #60 ) ) ;
#210 = DIRECTION ( 'NONE',  ( 2.520118959667878287E-17, -1.000000000000000000, -0.000000000000000000 ) ) ;
#211 = ADVANCED_FACE ( 'NONE', ( #272 ), #131, .T. ) ;
#212 = DIRECTION ( 'NONE',  ( -1.229735514630598979E-16, 1.000000000000000000, -0.000000000000000000 ) ) ;
#213 = AXIS2_PLACEMENT_3D ( 'NONE', #67, #152, #93 ) ;
#214 = AXIS2_PLACEMENT_3D ( 'NONE', #154, #206, #252 ) ;
#215 = DIRECTION ( 'NONE',  ( 1.229735514630598979E-16, -1.000000000000000000, 0.000000000000000000 ) ) ;
#216 =( NAMED_UNIT ( * ) SI_UNIT ( $, .STERADIAN. ) SOLID_ANGLE_UNIT ( ) );
#217 = APPLICATION_CONTEXT ( 'automotive_design' ) ;
#218 = CARTESIAN_POINT ( 'NONE',  ( 6.123233995736763571E-17, 1.500000000000000222, 0.000000000000000000 ) ) ;
#219 = AXIS2_PLACEMENT_3D ( 'NONE', #120, #72, #292 ) ;
#220 = ORIENTED_EDGE ( 'NONE', *, *, #298, .F. ) ;
#221 = FILL_AREA_STYLE ('',( #127 ) ) ;
#222 = CARTESIAN_POINT ( 'NONE',  ( -0.06250000000000001388, 0.07361215932167709808, 0.000000000000000000 ) ) ;
#223 = MANIFOLD_SOLID_BREP ( 'Revolve - Cutting Edge', #194 ) ;
#224 =( CONVERSION_BASED_UNIT ( 'INCH', #97 ) LENGTH_UNIT ( ) NAMED_UNIT ( #73 ) );
#225 = AXIS2_PLACEMENT_3D ( 'NONE', #20, #111, #87 ) ;
#226 = COLOUR_RGB ( '',1.000000000000000000, 0.000000000000000000, 0.000000000000000000 ) ;
#227 =( CONVERSION_BASED_UNIT ( 'INCH', #128 ) LENGTH_UNIT ( ) NAMED_UNIT ( #23 ) );
#228 = ORIENTED_EDGE ( 'NONE', *, *, #281, .F. ) ;
#229 = UNCERTAINTY_MEASURE_WITH_UNIT (LENGTH_MEASURE( 1.000000000000000082E-05 ), #78, 'distance_accuracy_value', 'NONE');
#230 =( LENGTH_UNIT ( ) NAMED_UNIT ( * ) SI_UNIT ( $, .METRE. ) );
#231 = CARTESIAN_POINT ( 'NONE',  ( 2.366403184893062976E-16, 0.07361215932167709808, 0.000000000000000000 ) ) ;
#232 =( GEOMETRIC_REPRESENTATION_CONTEXT ( 3 ) GLOBAL_UNCERTAINTY_ASSIGNED_CONTEXT ( ( #229 ) ) GLOBAL_UNIT_ASSIGNED_CONTEXT ( ( #78, #63, #216 ) ) REPRESENTATION_CONTEXT ( 'NONE', 'WORKASPACE' ) );
#233 =( GEOMETRIC_REPRESENTATION_CONTEXT ( 3 ) GLOBAL_UNCERTAINTY_ASSIGNED_CONTEXT ( ( #186 ) ) GLOBAL_UNIT_ASSIGNED_CONTEXT ( ( #71, #296, #84 ) ) REPRESENTATION_CONTEXT ( 'NONE', 'WORKASPACE' ) );
#234 = FILL_AREA_STYLE_COLOUR ( '', #208 ) ;
#235 = UNCERTAINTY_MEASURE_WITH_UNIT (LENGTH_MEASURE( 1.000000000000000082E-05 ), #227, 'distance_accuracy_value', 'NONE');
#236 = SURFACE_STYLE_FILL_AREA ( #38 ) ;
#237 = VERTEX_POINT ( 'NONE', #277 ) ;
#238 = MECHANICAL_DESIGN_GEOMETRIC_PRESENTATION_REPRESENTATION (  '', ( #49 ), #248 ) ;
#239 = CARTESIAN_POINT ( 'NONE',  ( 0.000000000000000000, 0.000000000000000000, 0.000000000000000000 ) ) ;
#240 = PRESENTATION_LAYER_ASSIGNMENT (  '', '', ( #137 ) ) ;
#241 = ADVANCED_FACE ( 'NONE', ( #34 ), #151, .T. ) ;
#242 = DIRECTION ( 'NONE',  ( -1.000000000000000000, 0.000000000000000000, 0.000000000000000000 ) ) ;
#243 = SURFACE_SIDE_STYLE ('',( #287 ) ) ;
#244 = CIRCLE ( 'NONE', #82, 0.06249999999999993061 ) ;
#245 = DIMENSIONAL_EXPONENTS ( 1.000000000000000000, 0.000000000000000000, 0.000000000000000000, 0.000000000000000000, 0.000000000000000000, 0.000000000000000000, 0.000000000000000000 ) ;
#246 =( LENGTH_UNIT ( ) NAMED_UNIT ( * ) SI_UNIT ( $, .METRE. ) );
#247 = CLOSED_SHELL ( 'NONE', ( #68, #250, #183, #81 ) ) ;
#248 =( GEOMETRIC_REPRESENTATION_CONTEXT ( 3 ) GLOBAL_UNCERTAINTY_ASSIGNED_CONTEXT ( ( #161 ) ) GLOBAL_UNIT_ASSIGNED_CONTEXT ( ( #108, #138, #260 ) ) REPRESENTATION_CONTEXT ( 'NONE', 'WORKASPACE' ) );
#249 = FILL_AREA_STYLE ('',( #11 ) ) ;
#250 = ADVANCED_FACE ( 'NONE', ( #202 ), #184, .F. ) ;
#251 = STYLED_ITEM ( 'NONE', ( #173 ), #211 ) ;
#252 = DIRECTION ( 'NONE',  ( -1.000000000000000000, -1.365923996832137033E-16, 0.000000000000000000 ) ) ;
#253 = ORIENTED_EDGE ( 'NONE', *, *, #157, .F. ) ;
#254 =( LENGTH_UNIT ( ) NAMED_UNIT ( * ) SI_UNIT ( $, .METRE. ) );
#255 = ORIENTED_EDGE ( 'NONE', *, *, #153, .F. ) ;
#256 = EDGE_LOOP ( 'NONE', ( #30, #14, #80, #134 ) ) ;
#257 = PRESENTATION_LAYER_ASSIGNMENT (  '', '', ( #251 ) ) ;
#258 = AXIS2_PLACEMENT_3D ( 'NONE', #96, #275, #77 ) ;
#259 = FACE_OUTER_BOUND ( 'NONE', #269, .T. ) ;
#260 =( NAMED_UNIT ( * ) SI_UNIT ( $, .STERADIAN. ) SOLID_ANGLE_UNIT ( ) );
#261 = ORIENTED_EDGE ( 'NONE', *, *, #271, .F. ) ;
#262 = CIRCLE ( 'NONE', #214, 0.06249999999999975714 ) ;
#263 = CARTESIAN_POINT ( 'NONE',  ( -1.855113983686509741E-18, 0.07361215932167709808, 0.000000000000000000 ) ) ;
#264 = FACE_OUTER_BOUND ( 'NONE', #170, .T. ) ;
#265 = CARTESIAN_POINT ( 'NONE',  ( -0.02000000000000000042, -1.008047583867151323E-18, 0.000000000000000000 ) ) ;
#266 = PRODUCT_DEFINITION ( 'UNKNOWN', '', #205, #44 ) ;
#267 = VECTOR ( 'NONE', #297, 39.37007874015748143 ) ;
#268 =( LENGTH_UNIT ( ) NAMED_UNIT ( * ) SI_UNIT ( $, .METRE. ) );
#269 = EDGE_LOOP ( 'NONE', ( #10, #261 ) ) ;
#270 = SURFACE_STYLE_FILL_AREA ( #249 ) ;
#271 = EDGE_CURVE ( 'NONE', #274, #286, #182, .T. ) ;
#272 = FACE_OUTER_BOUND ( 'NONE', #256, .T. ) ;
#273 = DIRECTION ( 'NONE',  ( -1.229735514630598979E-16, 1.000000000000000000, -0.000000000000000000 ) ) ;
#274 = VERTEX_POINT ( 'NONE', #180 ) ;
#275 = DIRECTION ( 'NONE',  ( 2.520118959667878287E-17, -1.000000000000000000, -0.000000000000000000 ) ) ;
#276 =( LENGTH_UNIT ( ) NAMED_UNIT ( * ) SI_UNIT ( $, .METRE. ) );
#277 = CARTESIAN_POINT ( 'NONE',  ( 0.02000000000000000042, 0.000000000000000000, 5.051668046482832349E-18 ) ) ;
#278 = DIRECTION ( 'NONE',  ( 0.000000000000000000, 0.000000000000000000, 1.000000000000000000 ) ) ;
#279 = AXIS2_PLACEMENT_3D ( 'NONE', #25, #116, #28 ) ;
#280 = SHAPE_DEFINITION_REPRESENTATION ( #193, #18 ) ;
#281 = EDGE_CURVE ( 'NONE', #133, #76, #102, .T. ) ;
#282 = FACE_OUTER_BOUND ( 'NONE', #16, .T. ) ;
#283 = DIRECTION ( 'NONE',  ( 1.000000000000000000, 2.520118959667878287E-17, 0.000000000000000000 ) ) ;
#284 = CARTESIAN_POINT ( 'NONE',  ( 0.06249999999999999306, 1.500000000000000222, 7.654042494670943678E-18 ) ) ;
#285 = LINE ( 'NONE', #141, #1 ) ;
#286 = VERTEX_POINT ( 'NONE', #222 ) ;
#287 = SURFACE_STYLE_FILL_AREA ( #144 ) ;
#288 = AXIS2_PLACEMENT_3D ( 'NONE', #89, #22, #242 ) ;
#289 = CARTESIAN_POINT ( 'NONE',  ( 1.270199914175501879E-35, -5.040237919335756613E-19, 0.000000000000000000 ) ) ;
#290 = SURFACE_SIDE_STYLE ('',( #179 ) ) ;
#291 = CARTESIAN_POINT ( 'NONE',  ( -0.06249999999999952122, 0.07361215932167698706, 0.000000000000000000 ) ) ;
#292 = DIRECTION ( 'NONE',  ( -1.000000000000000000, -1.365923996832137033E-16, 0.000000000000000000 ) ) ;
#293 = CONICAL_SURFACE ( 'NONE', #136, 0.02000000000000000042, 0.5235987755983000369 ) ;
#294 = ORIENTED_EDGE ( 'NONE', *, *, #122, .F. ) ;
#295 = LENGTH_MEASURE_WITH_UNIT ( LENGTH_MEASURE( 0.02539999999999999897 ), #254 );
#296 =( NAMED_UNIT ( * ) PLANE_ANGLE_UNIT ( ) SI_UNIT ( $, .RADIAN. ) );
#297 = DIRECTION ( 'NONE',  ( -0.5000000000000009992, 0.8660254037844380415, 0.000000000000000000 ) ) ;
#298 = EDGE_CURVE ( 'NONE', #162, #133, #262, .T. ) ;
#299 = LENGTH_MEASURE_WITH_UNIT ( LENGTH_MEASURE( 0.02539999999999999897 ), #276 );
#300 = DIRECTION ( 'NONE',  ( -1.229735514630598979E-16, 1.000000000000000000, 0.000000000000000000 ) ) ;
#301 =( NAMED_UNIT ( * ) SI_UNIT ( $, .STERADIAN. ) SOLID_ANGLE_UNIT ( ) );
#302 = EDGE_LOOP ( 'NONE', ( #40, #123 ) ) ;
#303 = AXIS2_PLACEMENT_3D ( 'NONE', #156, #58, #13 ) ;
#304 = SURFACE_STYLE_USAGE ( .BOTH. , #209 ) ;
#305 = CARTESIAN_POINT ( 'NONE',  ( 1.270199914175501879E-35, -5.040237919335756613E-19, 0.000000000000000000 ) ) ;
#306 = CARTESIAN_POINT ( 'NONE',  ( 0.06250000000000001388, 0.07361215932167700093, 7.654042494670945219E-18 ) ) ;
#307 =( GEOMETRIC_REPRESENTATION_CONTEXT ( 3 ) GLOBAL_UNCERTAINTY_ASSIGNED_CONTEXT ( ( #101 ) ) GLOBAL_UNIT_ASSIGNED_CONTEXT ( ( #52, #119, #69 ) ) REPRESENTATION_CONTEXT ( 'NONE', 'WORKASPACE' ) );
#308 = PRESENTATION_STYLE_ASSIGNMENT (( #65 ) ) ;
#309 = FACE_OUTER_BOUND ( 'NONE', #70, .T. ) ;
ENDSEC;
END-ISO-10303-21;
