ISO-10303-21;
HEADER;
FILE_DESCRIPTION (( 'STEP AP214' ),
    '1' );
FILE_NAME ('Micro_BMSM-007-2.STEP',
    '2021-09-03T15:32:32',
    ( '' ),
    ( '' ),
    'SwSTEP 2.0',
    'SolidWorks 2020',
    '' );
FILE_SCHEMA (( 'AUTOMOTIVE_DESIGN' ));
ENDSEC;

DATA;
#1 = CARTESIAN_POINT ( 'NONE',  ( 0.04405499999999973326, 6.313666573004162521E-18, 1.496062999999999921 ) ) ;
#2 = DIMENSIONAL_EXPONENTS ( 1.000000000000000000, 0.0000000000000000000, 0.0000000000000000000, 0.0000000000000000000, 0.0000000000000000000, 0.0000000000000000000, 0.0000000000000000000 ) ;
#3 = UNCERTAINTY_MEASURE_WITH_UNIT (LENGTH_MEASURE( 1.000000000000000082E-05 ), #323, 'distance_accuracy_value', 'NONE');
#4 = CARTESIAN_POINT ( 'NONE',  ( 1.685814554828210248E-18, 0.0000000000000000000, 0.01376572050000000012 ) ) ;
#5 = ADVANCED_BREP_SHAPE_REPRESENTATION ( 'Micro_BMSM-007-2', ( #145, #73 ), #280 ) ;
#6 = ORIENTED_EDGE ( 'NONE', *, *, #93, .T. ) ;
#7 = PRESENTATION_LAYER_ASSIGNMENT (  '', '', ( #181 ) ) ;
#8 = EDGE_CURVE ( 'NONE', #178, #294, #212, .T. ) ;
#9 = VECTOR ( 'NONE', #313, 39.37007874015747433 ) ;
#10 = DIRECTION ( 'NONE',  ( -0.0000000000000000000, -0.0000000000000000000, -1.000000000000000000 ) ) ;
#11 = DIRECTION ( 'NONE',  ( 1.000000000000000000, 0.0000000000000000000, 0.0000000000000000000 ) ) ;
#12 = DIRECTION ( 'NONE',  ( 1.000000000000000000, 0.0000000000000000000, -0.0000000000000000000 ) ) ;
#13 =( NAMED_UNIT ( * ) SI_UNIT ( $, .STERADIAN. ) SOLID_ANGLE_UNIT ( ) );
#14 = CARTESIAN_POINT ( 'NONE',  ( 1.685814554828210248E-18, 0.0000000000000000000, 0.01376572050000000012 ) ) ;
#15 = DIRECTION ( 'NONE',  ( 0.0000000000000000000, 0.0000000000000000000, -1.000000000000000000 ) ) ;
#16 = EDGE_LOOP ( 'NONE', ( #278, #43, #299, #217 ) ) ;
#17 = ADVANCED_FACE ( 'NONE', ( #112 ), #271, .T. ) ;
#18 = DIRECTION ( 'NONE',  ( 1.224646799147353207E-16, 0.0000000000000000000, 1.000000000000000000 ) ) ;
#19 = CONICAL_SURFACE ( 'NONE', #187, 0.04405499999999973326, 0.7853981633974491672 ) ;
#20 = VERTEX_POINT ( 'NONE', #254 ) ;
#21 = CARTESIAN_POINT ( 'NONE',  ( 0.04405499999999973326, 5.395181473643630390E-18, 1.496062999999999921 ) ) ;
#22 = CARTESIAN_POINT ( 'NONE',  ( 0.0000000000000000000, 0.0000000000000000000, 1.496062999999999921 ) ) ;
#23 = DIMENSIONAL_EXPONENTS ( 1.000000000000000000, 0.0000000000000000000, 0.0000000000000000000, 0.0000000000000000000, 0.0000000000000000000, 0.0000000000000000000, 0.0000000000000000000 ) ;
#24 = DIRECTION ( 'NONE',  ( -1.000000000000000000, 0.0000000000000000000, 1.224646799147353207E-16 ) ) ;
#25 = CARTESIAN_POINT ( 'NONE',  ( 5.303577893067442180E-18, 0.0000000000000000000, 0.04330699999999999827 ) ) ;
#26 = ORIENTED_EDGE ( 'NONE', *, *, #269, .F. ) ;
#27 = ORIENTED_EDGE ( 'NONE', *, *, #71, .F. ) ;
#28 = EDGE_CURVE ( 'NONE', #294, #167, #110, .T. ) ;
#29 = EDGE_LOOP ( 'NONE', ( #230, #6, #26 ) ) ;
#30 = DIRECTION ( 'NONE',  ( 1.000000000000000000, 0.0000000000000000000, 0.0000000000000000000 ) ) ;
#31 = EDGE_CURVE ( 'NONE', #167, #65, #35, .T. ) ;
#32 = DIRECTION ( 'NONE',  ( 0.0000000000000000000, 0.0000000000000000000, -1.000000000000000000 ) ) ;
#33 = DIRECTION ( 'NONE',  ( 1.000000000000000000, 0.0000000000000000000, 0.0000000000000000000 ) ) ;
#34 = ORIENTED_EDGE ( 'NONE', *, *, #53, .F. ) ;
#35 = CIRCLE ( 'NONE', #52, 0.01376572049999999839 ) ;
#36 = FILL_AREA_STYLE ('',( #160 ) ) ;
#37 = ADVANCED_FACE ( 'NONE', ( #141 ), #128, .T. ) ;
#38 = SURFACE_SIDE_STYLE ('',( #289 ) ) ;
#39 = CARTESIAN_POINT ( 'NONE',  ( 0.0000000000000000000, 0.0000000000000000000, 1.496062999999999921 ) ) ;
#40 = VERTEX_POINT ( 'NONE', #1 ) ;
#41 = DIRECTION ( 'NONE',  ( 1.224646799147353207E-16, 0.0000000000000000000, 1.000000000000000000 ) ) ;
#42 = CIRCLE ( 'NONE', #256, 0.05905500000000000332 ) ;
#43 = ORIENTED_EDGE ( 'NONE', *, *, #78, .F. ) ;
#44 = CARTESIAN_POINT ( 'NONE',  ( 2.528721832242315468E-18, 0.0000000000000000000, 0.0000000000000000000 ) ) ;
#45 = FACE_OUTER_BOUND ( 'NONE', #320, .T. ) ;
#46 = FACE_OUTER_BOUND ( 'NONE', #162, .T. ) ;
#47 = ORIENTED_EDGE ( 'NONE', *, *, #28, .F. ) ;
#48 = EDGE_LOOP ( 'NONE', ( #131, #100, #34, #27 ) ) ;
#49 = EDGE_LOOP ( 'NONE', ( #228, #67, #208, #116 ) ) ;
#50 = ADVANCED_FACE ( 'NONE', ( #45 ), #227, .T. ) ;
#51 = DIRECTION ( 'NONE',  ( -1.000000000000000000, 0.0000000000000000000, 1.550413757892444394E-16 ) ) ;
#52 = AXIS2_PLACEMENT_3D ( 'NONE', #92, #87, #51 ) ;
#53 = EDGE_CURVE ( 'NONE', #235, #186, #199, .T. ) ;
#54 = EDGE_LOOP ( 'NONE', ( #276, #184, #248, #69 ) ) ;
#55 = DIRECTION ( 'NONE',  ( 1.000000000000000000, 0.0000000000000000000, 0.0000000000000000000 ) ) ;
#56 = STYLED_ITEM ( 'NONE', ( #316 ), #145 ) ;
#57 = DIRECTION ( 'NONE',  ( 0.0000000000000000000, 1.000000000000000000, 0.0000000000000000000 ) ) ;
#58 = CARTESIAN_POINT ( 'NONE',  ( -0.01376572049999999665, 1.685814554828210248E-18, 0.04330699999999999827 ) ) ;
#59 = CARTESIAN_POINT ( 'NONE',  ( -0.04405499999999973326, 0.0000000000000000000, 1.496062999999999921 ) ) ;
#60 = LENGTH_MEASURE_WITH_UNIT ( LENGTH_MEASURE( 0.02539999999999999897 ), #85 );
#61 = FACE_OUTER_BOUND ( 'NONE', #29, .T. ) ;
#62 = CIRCLE ( 'NONE', #109, 0.01376572050000000012 ) ;
#63 = ORIENTED_EDGE ( 'NONE', *, *, #205, .F. ) ;
#64 = CARTESIAN_POINT ( 'NONE',  ( -0.01376572049999999839, 0.0000000000000000000, 1.685814554828210055E-18 ) ) ;
#65 = VERTEX_POINT ( 'NONE', #153 ) ;
#66 = AXIS2_PLACEMENT_3D ( 'NONE', #88, #126, #239 ) ;
#67 = ORIENTED_EDGE ( 'NONE', *, *, #247, .T. ) ;
#68 = ADVANCED_FACE ( 'NONE', ( #311 ), #74, .T. ) ;
#69 = ORIENTED_EDGE ( 'NONE', *, *, #136, .F. ) ;
#70 =( NAMED_UNIT ( * ) SI_UNIT ( $, .STERADIAN. ) SOLID_ANGLE_UNIT ( ) );
#71 = EDGE_CURVE ( 'NONE', #255, #235, #237, .T. ) ;
#72 = VECTOR ( 'NONE', #103, 39.37007874015748143 ) ;
#73 = AXIS2_PLACEMENT_3D ( 'NONE', #140, #113, #30 ) ;
#74 = CONICAL_SURFACE ( 'NONE', #224, 0.01376572050000000012, 0.1745329251994338915 ) ;
#75 = CARTESIAN_POINT ( 'NONE',  ( 3.675841875322282932E-17, 0.0000000000000000000, 0.3001552674519336605 ) ) ;
#76 = DIRECTION ( 'NONE',  ( -1.224646799147353207E-16, -0.0000000000000000000, -1.000000000000000000 ) ) ;
#77 = DIRECTION ( 'NONE',  ( 0.0000000000000000000, -1.000000000000000000, 0.0000000000000000000 ) ) ;
#78 = EDGE_CURVE ( 'NONE', #20, #40, #163, .T. ) ;
#79 = DIRECTION ( 'NONE',  ( 1.000000000000000000, 0.0000000000000000000, 0.0000000000000000000 ) ) ;
#80 = CONICAL_SURFACE ( 'NONE', #301, 0.01376572050000000012, 0.1745329251994338915 ) ;
#81 = DIRECTION ( 'NONE',  ( -1.000000000000000000, 0.0000000000000000000, 0.0000000000000000000 ) ) ;
#82 = ORIENTED_EDGE ( 'NONE', *, *, #8, .F. ) ;
#83 = ORIENTED_EDGE ( 'NONE', *, *, #129, .T. ) ;
#84 = PRODUCT_DEFINITION ( 'UNKNOWN', '', #204, #151 ) ;
#85 =( LENGTH_UNIT ( ) NAMED_UNIT ( * ) SI_UNIT ( $, .METRE. ) );
#86 = AXIS2_PLACEMENT_3D ( 'NONE', #133, #272, #226 ) ;
#87 = DIRECTION ( 'NONE',  ( 1.224646799147353207E-16, 0.0000000000000000000, 1.000000000000000000 ) ) ;
#88 = CARTESIAN_POINT ( 'NONE',  ( 3.675841875322282932E-17, 0.0000000000000000000, 0.3001552674519336605 ) ) ;
#89 = APPLICATION_CONTEXT ( 'automotive_design' ) ;
#90 = ORIENTED_EDGE ( 'NONE', *, *, #28, .T. ) ;
#91 = AXIS2_PLACEMENT_3D ( 'NONE', #312, #77, #285 ) ;
#92 = CARTESIAN_POINT ( 'NONE',  ( 1.685814554828210248E-18, 0.0000000000000000000, 0.01376572050000000012 ) ) ;
#93 = EDGE_CURVE ( 'NONE', #290, #167, #318, .T. ) ;
#94 = AXIS2_PLACEMENT_3D ( 'NONE', #101, #322, #240 ) ;
#95 = CARTESIAN_POINT ( 'NONE',  ( -0.01376572049999999665, 0.0000000000000000000, 0.01376572050000000186 ) ) ;
#96 = ADVANCED_FACE ( 'NONE', ( #315 ), #19, .T. ) ;
#97 = DIRECTION ( 'NONE',  ( 0.0000000000000000000, 0.0000000000000000000, 1.000000000000000000 ) ) ;
#98 = AXIS2_PLACEMENT_3D ( 'NONE', #222, #57, #210 ) ;
#99 = DIRECTION ( 'NONE',  ( -1.000000000000000000, 0.0000000000000000000, 0.0000000000000000000 ) ) ;
#100 = ORIENTED_EDGE ( 'NONE', *, *, #196, .T. ) ;
#101 = CARTESIAN_POINT ( 'NONE',  ( 0.0000000000000000000, 0.0000000000000000000, 1.496062999999999921 ) ) ;
#102 = DIRECTION ( 'NONE',  ( -0.0000000000000000000, -0.0000000000000000000, -1.000000000000000000 ) ) ;
#103 = DIRECTION ( 'NONE',  ( -0.7071067811865482389, 0.0000000000000000000, -0.7071067811865469066 ) ) ;
#104 = SURFACE_STYLE_USAGE ( .BOTH. , #38 ) ;
#105 = EDGE_CURVE ( 'NONE', #290, #65, #274, .T. ) ;
#106 = CARTESIAN_POINT ( 'NONE',  ( 0.05905500000000000332, 7.232151672364695422E-18, 1.481062999999999574 ) ) ;
#107 = FACE_OUTER_BOUND ( 'NONE', #138, .T. ) ;
#108 = ORIENTED_EDGE ( 'NONE', *, *, #175, .T. ) ;
#109 = AXIS2_PLACEMENT_3D ( 'NONE', #200, #306, #99 ) ;
#110 = LINE ( 'NONE', #64, #143 ) ;
#111 = FACE_OUTER_BOUND ( 'NONE', #48, .T. ) ;
#112 = FACE_OUTER_BOUND ( 'NONE', #303, .T. ) ;
#113 = DIRECTION ( 'NONE',  ( 0.0000000000000000000, 0.0000000000000000000, 1.000000000000000000 ) ) ;
#114 = DIRECTION ( 'NONE',  ( -1.000000000000000000, 0.0000000000000000000, 1.224646799147353207E-16 ) ) ;
#115 = COLOUR_RGB ( '',0.7921568627450980005, 0.8196078431372548767, 0.9333333333333333481 ) ;
#116 = ORIENTED_EDGE ( 'NONE', *, *, #214, .F. ) ;
#117 = PRODUCT_CONTEXT ( 'NONE', #249, 'mechanical' ) ;
#118 = ADVANCED_FACE ( 'NONE', ( #111 ), #266, .T. ) ;
#119 = AXIS2_PLACEMENT_3D ( 'NONE', #39, #241, #11 ) ;
#120 =( GEOMETRIC_REPRESENTATION_CONTEXT ( 3 ) GLOBAL_UNCERTAINTY_ASSIGNED_CONTEXT ( ( #144 ) ) GLOBAL_UNIT_ASSIGNED_CONTEXT ( ( #142, #169, #70 ) ) REPRESENTATION_CONTEXT ( 'NONE', 'WORKASPACE' ) );
#121 = ADVANCED_FACE ( 'NONE', ( #213 ), #263, .T. ) ;
#122 =( GEOMETRIC_REPRESENTATION_CONTEXT ( 3 ) GLOBAL_UNCERTAINTY_ASSIGNED_CONTEXT ( ( #197 ) ) GLOBAL_UNIT_ASSIGNED_CONTEXT ( ( #292, #189, #225 ) ) REPRESENTATION_CONTEXT ( 'NONE', 'WORKASPACE' ) );
#123 = CARTESIAN_POINT ( 'NONE',  ( 0.0000000000000000000, 0.0000000000000000000, 1.481062999999999574 ) ) ;
#124 = DIRECTION ( 'NONE',  ( 1.224646799147353207E-16, 0.0000000000000000000, 1.000000000000000000 ) ) ;
#125 =( LENGTH_UNIT ( ) NAMED_UNIT ( * ) SI_UNIT ( $, .METRE. ) );
#126 = DIRECTION ( 'NONE',  ( -1.224646799147353207E-16, -0.0000000000000000000, -1.000000000000000000 ) ) ;
#127 = VERTEX_POINT ( 'NONE', #106 ) ;
#128 = CONICAL_SURFACE ( 'NONE', #86, 0.04405499999999973326, 0.7853981633974491672 ) ;
#129 = EDGE_CURVE ( 'NONE', #178, #186, #243, .T. ) ;
#130 = CARTESIAN_POINT ( 'NONE',  ( -0.05905499999999996863, 0.0000000000000000000, 0.3001552674519336605 ) ) ;
#131 = ORIENTED_EDGE ( 'NONE', *, *, #291, .T. ) ;
#132 = CARTESIAN_POINT ( 'NONE',  ( 0.0000000000000000000, 0.0000000000000000000, 1.481062999999999574 ) ) ;
#133 = CARTESIAN_POINT ( 'NONE',  ( 0.0000000000000000000, 0.0000000000000000000, 1.496062999999999921 ) ) ;
#134 = CARTESIAN_POINT ( 'NONE',  ( 0.0000000000000000000, 0.0000000000000000000, 0.0000000000000000000 ) ) ;
#135 = ORIENTED_EDGE ( 'NONE', *, *, #53, .T. ) ;
#136 = EDGE_CURVE ( 'NONE', #20, #255, #321, .T. ) ;
#137 = AXIS2_PLACEMENT_3D ( 'NONE', #123, #15, #55 ) ;
#138 = EDGE_LOOP ( 'NONE', ( #283, #82, #83, #170 ) ) ;
#139 = ORIENTED_EDGE ( 'NONE', *, *, #269, .T. ) ;
#140 = CARTESIAN_POINT ( 'NONE',  ( 0.0000000000000000000, 0.0000000000000000000, 0.0000000000000000000 ) ) ;
#141 = FACE_OUTER_BOUND ( 'NONE', #16, .T. ) ;
#142 =( CONVERSION_BASED_UNIT ( 'INCH', #277 ) LENGTH_UNIT ( ) NAMED_UNIT ( #2 ) );
#143 = VECTOR ( 'NONE', #325, 39.37007874015748143 ) ;
#144 = UNCERTAINTY_MEASURE_WITH_UNIT (LENGTH_MEASURE( 1.000000000000000082E-05 ), #142, 'distance_accuracy_value', 'NONE');
#145 = MANIFOLD_SOLID_BREP ( 'Fillet1', #314 ) ;
#146 = LINE ( 'NONE', #147, #154 ) ;
#147 = CARTESIAN_POINT ( 'NONE',  ( 0.01376572049999999839, 1.685814554828210055E-18, -1.685814554828210055E-18 ) ) ;
#148 = CARTESIAN_POINT ( 'NONE',  ( -0.05905500000000000332, 0.0000000000000000000, 1.496062999999999921 ) ) ;
#149 = ADVANCED_FACE ( 'NONE', ( #46 ), #221, .T. ) ;
#150 = ORIENTED_EDGE ( 'NONE', *, *, #78, .T. ) ;
#151 = PRODUCT_DEFINITION_CONTEXT ( 'detailed design', #89, 'design' ) ;
#152 = CARTESIAN_POINT ( 'NONE',  ( -0.05905500000000000332, 0.0000000000000000000, 1.481062999999999574 ) ) ;
#153 = CARTESIAN_POINT ( 'NONE',  ( 0.01376572050000000012, 1.685814554828210055E-18, 0.01376572049999999839 ) ) ;
#154 = VECTOR ( 'NONE', #202, 39.37007874015748143 ) ;
#155 = DIRECTION ( 'NONE',  ( -1.000000000000000000, 0.0000000000000000000, 0.0000000000000000000 ) ) ;
#156 = DIRECTION ( 'NONE',  ( 0.7071067811865482389, 8.659560562354941486E-17, -0.7071067811865469066 ) ) ;
#157 = CARTESIAN_POINT ( 'NONE',  ( 0.01376572050000000533, 0.0000000000000000000, 0.04330699999999999827 ) ) ;
#158 = APPLICATION_PROTOCOL_DEFINITION ( 'draft international standard', 'automotive_design', 1998, #249 ) ;
#159 = EDGE_LOOP ( 'NONE', ( #150, #188 ) ) ;
#160 = FILL_AREA_STYLE_COLOUR ( '', #115 ) ;
#161 = LINE ( 'NONE', #21, #229 ) ;
#162 = EDGE_LOOP ( 'NONE', ( #108, #166, #139, #47 ) ) ;
#163 = CIRCLE ( 'NONE', #119, 0.04405499999999973326 ) ;
#164 = SPHERICAL_SURFACE ( 'NONE', #98, 0.01376572050000000012 ) ;
#165 = ORIENTED_EDGE ( 'NONE', *, *, #105, .T. ) ;
#166 = ORIENTED_EDGE ( 'NONE', *, *, #205, .T. ) ;
#167 = VERTEX_POINT ( 'NONE', #95 ) ;
#168 = AXIS2_PLACEMENT_3D ( 'NONE', #4, #304, #244 ) ;
#169 =( NAMED_UNIT ( * ) PLANE_ANGLE_UNIT ( ) SI_UNIT ( $, .RADIAN. ) );
#170 = ORIENTED_EDGE ( 'NONE', *, *, #214, .T. ) ;
#171 = ORIENTED_EDGE ( 'NONE', *, *, #129, .F. ) ;
#172 = VECTOR ( 'NONE', #10, 39.37007874015748143 ) ;
#173 = COLOUR_RGB ( '',0.7921568627450980005, 0.8196078431372548767, 0.9333333333333333481 ) ;
#174 = CARTESIAN_POINT ( 'NONE',  ( 0.05905500000000004496, 7.232151672364700045E-18, 0.3001552674519336605 ) ) ;
#175 = EDGE_CURVE ( 'NONE', #294, #178, #62, .T. ) ;
#176 = CARTESIAN_POINT ( 'NONE',  ( 0.01376572050000000533, 0.0000000000000000000, 0.04330699999999999827 ) ) ;
#177 = PRODUCT_DEFINITION_SHAPE ( 'NONE', 'NONE',  #84 ) ;
#178 = VERTEX_POINT ( 'NONE', #176 ) ;
#179 = DIRECTION ( 'NONE',  ( 1.000000000000000000, 0.0000000000000000000, 0.0000000000000000000 ) ) ;
#180 = AXIS2_PLACEMENT_3D ( 'NONE', #270, #41, #324 ) ;
#181 = STYLED_ITEM ( 'NONE', ( #245 ), #5 ) ;
#182 = FILL_AREA_STYLE ('',( #264 ) ) ;
#183 = ORIENTED_EDGE ( 'NONE', *, *, #8, .T. ) ;
#184 = ORIENTED_EDGE ( 'NONE', *, *, #232, .T. ) ;
#185 = LENGTH_MEASURE_WITH_UNIT ( LENGTH_MEASURE( 0.02539999999999999897 ), #125 );
#186 = VERTEX_POINT ( 'NONE', #174 ) ;
#187 = AXIS2_PLACEMENT_3D ( 'NONE', #309, #32, #81 ) ;
#188 = ORIENTED_EDGE ( 'NONE', *, *, #198, .T. ) ;
#189 =( NAMED_UNIT ( * ) PLANE_ANGLE_UNIT ( ) SI_UNIT ( $, .RADIAN. ) );
#190 = DIRECTION ( 'NONE',  ( -1.224646799147353207E-16, -0.0000000000000000000, -1.000000000000000000 ) ) ;
#191 = DIMENSIONAL_EXPONENTS ( 1.000000000000000000, 0.0000000000000000000, 0.0000000000000000000, 0.0000000000000000000, 0.0000000000000000000, 0.0000000000000000000, 0.0000000000000000000 ) ;
#192 = ORIENTED_EDGE ( 'NONE', *, *, #93, .F. ) ;
#193 = AXIS2_PLACEMENT_3D ( 'NONE', #300, #223, #114 ) ;
#194 = SHAPE_DEFINITION_REPRESENTATION ( #177, #5 ) ;
#195 = ORIENTED_EDGE ( 'NONE', *, *, #175, .F. ) ;
#196 = EDGE_CURVE ( 'NONE', #127, #186, #281, .T. ) ;
#197 = UNCERTAINTY_MEASURE_WITH_UNIT (LENGTH_MEASURE( 1.000000000000000082E-05 ), #292, 'distance_accuracy_value', 'NONE');
#198 = EDGE_CURVE ( 'NONE', #40, #20, #305, .T. ) ;
#199 = CIRCLE ( 'NONE', #66, 0.05905500000000000332 ) ;
#200 = CARTESIAN_POINT ( 'NONE',  ( 5.303577893067442180E-18, 0.0000000000000000000, 0.04330699999999999827 ) ) ;
#201 = PRODUCT ( 'Micro_BMSM-007-2', 'Micro_BMSM-007-2', '', ( #117 ) ) ;
#202 = DIRECTION ( 'NONE',  ( -1.224646799147353207E-16, -0.0000000000000000000, -1.000000000000000000 ) ) ;
#203 = AXIS2_PLACEMENT_3D ( 'NONE', #206, #97, #33 ) ;
#204 = PRODUCT_DEFINITION_FORMATION_WITH_SPECIFIED_SOURCE ( 'ANY', '', #201, .NOT_KNOWN. ) ;
#205 = EDGE_CURVE ( 'NONE', #178, #65, #146, .T. ) ;
#206 = CARTESIAN_POINT ( 'NONE',  ( 0.0000000000000000000, 0.0000000000000000000, 1.496062999999999921 ) ) ;
#207 = DIRECTION ( 'NONE',  ( 1.000000000000000000, 0.0000000000000000000, 0.0000000000000000000 ) ) ;
#208 = ORIENTED_EDGE ( 'NONE', *, *, #71, .T. ) ;
#209 = CARTESIAN_POINT ( 'NONE',  ( 0.0000000000000000000, 0.0000000000000000000, 1.496062999999999921 ) ) ;
#210 = DIRECTION ( 'NONE',  ( 1.000000000000000000, 0.0000000000000000000, 0.0000000000000000000 ) ) ;
#211 = DIRECTION ( 'NONE',  ( 1.224646799147353207E-16, 1.000000000000000000, -0.0000000000000000000 ) ) ;
#212 = CIRCLE ( 'NONE', #265, 0.01376572050000000012 ) ;
#213 = FACE_OUTER_BOUND ( 'NONE', #159, .T. ) ;
#214 = EDGE_CURVE ( 'NONE', #186, #235, #42, .T. ) ;
#215 = ORIENTED_EDGE ( 'NONE', *, *, #298, .T. ) ;
#216 = AXIS2_PLACEMENT_3D ( 'NONE', #22, #268, #155 ) ;
#217 = ORIENTED_EDGE ( 'NONE', *, *, #247, .F. ) ;
#218 = DIRECTION ( 'NONE',  ( 0.1736481776669313859, 0.0000000000000000000, 0.9848077530122077983 ) ) ;
#219 = FACE_OUTER_BOUND ( 'NONE', #49, .T. ) ;
#220 = PRODUCT_RELATED_PRODUCT_CATEGORY ( 'part', '', ( #201 ) ) ;
#221 = CYLINDRICAL_SURFACE ( 'NONE', #257, 0.01376572049999999839 ) ;
#222 = CARTESIAN_POINT ( 'NONE',  ( 1.685814554828210248E-18, 0.0000000000000000000, 0.01376572050000000012 ) ) ;
#223 = DIRECTION ( 'NONE',  ( -1.224646799147353207E-16, -0.0000000000000000000, -1.000000000000000000 ) ) ;
#224 = AXIS2_PLACEMENT_3D ( 'NONE', #234, #124, #207 ) ;
#225 =( NAMED_UNIT ( * ) SI_UNIT ( $, .STERADIAN. ) SOLID_ANGLE_UNIT ( ) );
#226 = DIRECTION ( 'NONE',  ( -1.000000000000000000, 0.0000000000000000000, 0.0000000000000000000 ) ) ;
#227 = SPHERICAL_SURFACE ( 'NONE', #168, 0.01376572050000000012 ) ;
#228 = ORIENTED_EDGE ( 'NONE', *, *, #196, .F. ) ;
#229 = VECTOR ( 'NONE', #156, 39.37007874015748143 ) ;
#230 = ORIENTED_EDGE ( 'NONE', *, *, #105, .F. ) ;
#231 =( LENGTH_UNIT ( ) NAMED_UNIT ( * ) SI_UNIT ( $, .METRE. ) );
#232 = EDGE_CURVE ( 'NONE', #40, #127, #161, .T. ) ;
#233 = VECTOR ( 'NONE', #102, 39.37007874015748143 ) ;
#234 = CARTESIAN_POINT ( 'NONE',  ( 5.303577893067442180E-18, 0.0000000000000000000, 0.04330699999999999827 ) ) ;
#235 = VERTEX_POINT ( 'NONE', #130 ) ;
#236 =( NAMED_UNIT ( * ) PLANE_ANGLE_UNIT ( ) SI_UNIT ( $, .RADIAN. ) );
#237 = LINE ( 'NONE', #148, #233 ) ;
#238 = ADVANCED_FACE ( 'NONE', ( #219 ), #284, .T. ) ;
#239 = DIRECTION ( 'NONE',  ( 1.000000000000000000, 0.0000000000000000000, 0.0000000000000000000 ) ) ;
#240 = DIRECTION ( 'NONE',  ( -1.000000000000000000, 0.0000000000000000000, 0.0000000000000000000 ) ) ;
#241 = DIRECTION ( 'NONE',  ( 0.0000000000000000000, 0.0000000000000000000, 1.000000000000000000 ) ) ;
#242 = AXIS2_PLACEMENT_3D ( 'NONE', #14, #211, #319 ) ;
#243 = LINE ( 'NONE', #157, #310 ) ;
#244 = DIRECTION ( 'NONE',  ( 1.000000000000000000, 0.0000000000000000000, 0.0000000000000000000 ) ) ;
#245 = PRESENTATION_STYLE_ASSIGNMENT (( #104 ) ) ;
#246 = CARTESIAN_POINT ( 'NONE',  ( -0.01376572049999999665, 4.458983113596453124E-18, 0.04330699999999999827 ) ) ;
#247 = EDGE_CURVE ( 'NONE', #127, #255, #267, .T. ) ;
#248 = ORIENTED_EDGE ( 'NONE', *, *, #291, .F. ) ;
#249 = APPLICATION_CONTEXT ( 'automotive_design' ) ;
#250 = DIRECTION ( 'NONE',  ( -1.224646799147353207E-16, -0.0000000000000000000, -1.000000000000000000 ) ) ;
#251 = EDGE_LOOP ( 'NONE', ( #195, #215, #135, #171 ) ) ;
#252 = CIRCLE ( 'NONE', #288, 0.05905500000000000332 ) ;
#253 = ORIENTED_EDGE ( 'NONE', *, *, #31, .T. ) ;
#254 = CARTESIAN_POINT ( 'NONE',  ( -0.04405499999999973326, 0.0000000000000000000, 1.496062999999999921 ) ) ;
#255 = VERTEX_POINT ( 'NONE', #152 ) ;
#256 = AXIS2_PLACEMENT_3D ( 'NONE', #75, #76, #179 ) ;
#257 = AXIS2_PLACEMENT_3D ( 'NONE', #134, #250, #24 ) ;
#258 = SURFACE_STYLE_USAGE ( .BOTH. , #296 ) ;
#259 = MECHANICAL_DESIGN_GEOMETRIC_PRESENTATION_REPRESENTATION (  '', ( #56 ), #122 ) ;
#260 = ADVANCED_FACE ( 'NONE', ( #61 ), #164, .T. ) ;
#261 = DIRECTION ( 'NONE',  ( 0.0000000000000000000, 0.0000000000000000000, 1.000000000000000000 ) ) ;
#262 = CARTESIAN_POINT ( 'NONE',  ( 5.303577893067442180E-18, 0.0000000000000000000, 0.04330699999999999827 ) ) ;
#263 = PLANE ( 'NONE',  #279 ) ;
#264 = FILL_AREA_STYLE_COLOUR ( '', #173 ) ;
#265 = AXIS2_PLACEMENT_3D ( 'NONE', #25, #190, #297 ) ;
#266 = CYLINDRICAL_SURFACE ( 'NONE', #216, 0.05905500000000000332 ) ;
#267 = CIRCLE ( 'NONE', #137, 0.05905500000000000332 ) ;
#268 = DIRECTION ( 'NONE',  ( -0.0000000000000000000, -0.0000000000000000000, -1.000000000000000000 ) ) ;
#269 = EDGE_CURVE ( 'NONE', #65, #167, #295, .T. ) ;
#270 = CARTESIAN_POINT ( 'NONE',  ( 1.685814554828210248E-18, 0.0000000000000000000, 0.01376572050000000012 ) ) ;
#271 = CYLINDRICAL_SURFACE ( 'NONE', #193, 0.01376572049999999839 ) ;
#272 = DIRECTION ( 'NONE',  ( 0.0000000000000000000, 0.0000000000000000000, -1.000000000000000000 ) ) ;
#273 = ORIENTED_EDGE ( 'NONE', *, *, #31, .F. ) ;
#274 = CIRCLE ( 'NONE', #91, 0.01376572050000000012 ) ;
#275 = APPLICATION_PROTOCOL_DEFINITION ( 'draft international standard', 'automotive_design', 1998, #89 ) ;
#276 = ORIENTED_EDGE ( 'NONE', *, *, #198, .F. ) ;
#277 = LENGTH_MEASURE_WITH_UNIT ( LENGTH_MEASURE( 0.02539999999999999897 ), #231 );
#278 = ORIENTED_EDGE ( 'NONE', *, *, #232, .F. ) ;
#279 = AXIS2_PLACEMENT_3D ( 'NONE', #209, #261, #12 ) ;
#280 =( GEOMETRIC_REPRESENTATION_CONTEXT ( 3 ) GLOBAL_UNCERTAINTY_ASSIGNED_CONTEXT ( ( #3 ) ) GLOBAL_UNIT_ASSIGNED_CONTEXT ( ( #323, #236, #13 ) ) REPRESENTATION_CONTEXT ( 'NONE', 'WORKASPACE' ) );
#281 = LINE ( 'NONE', #308, #172 ) ;
#282 = PRESENTATION_LAYER_ASSIGNMENT (  '', '', ( #56 ) ) ;
#283 = ORIENTED_EDGE ( 'NONE', *, *, #298, .F. ) ;
#284 = CYLINDRICAL_SURFACE ( 'NONE', #94, 0.05905500000000000332 ) ;
#285 = DIRECTION ( 'NONE',  ( 0.0000000000000000000, 0.0000000000000000000, -1.000000000000000000 ) ) ;
#286 = SURFACE_STYLE_FILL_AREA ( #36 ) ;
#287 = DIRECTION ( 'NONE',  ( 0.0000000000000000000, 0.0000000000000000000, -1.000000000000000000 ) ) ;
#288 = AXIS2_PLACEMENT_3D ( 'NONE', #132, #287, #317 ) ;
#289 = SURFACE_STYLE_FILL_AREA ( #182 ) ;
#290 = VERTEX_POINT ( 'NONE', #44 ) ;
#291 = EDGE_CURVE ( 'NONE', #255, #127, #252, .T. ) ;
#292 =( CONVERSION_BASED_UNIT ( 'INCH', #185 ) LENGTH_UNIT ( ) NAMED_UNIT ( #23 ) );
#293 = LINE ( 'NONE', #58, #9 ) ;
#294 = VERTEX_POINT ( 'NONE', #246 ) ;
#295 = CIRCLE ( 'NONE', #180, 0.01376572049999999839 ) ;
#296 = SURFACE_SIDE_STYLE ('',( #286 ) ) ;
#297 = DIRECTION ( 'NONE',  ( -1.000000000000000000, 0.0000000000000000000, 0.0000000000000000000 ) ) ;
#298 = EDGE_CURVE ( 'NONE', #294, #235, #293, .T. ) ;
#299 = ORIENTED_EDGE ( 'NONE', *, *, #136, .T. ) ;
#300 = CARTESIAN_POINT ( 'NONE',  ( 0.0000000000000000000, 0.0000000000000000000, 0.0000000000000000000 ) ) ;
#301 = AXIS2_PLACEMENT_3D ( 'NONE', #262, #18, #79 ) ;
#302 = MECHANICAL_DESIGN_GEOMETRIC_PRESENTATION_REPRESENTATION (  '', ( #181 ), #120 ) ;
#303 = EDGE_LOOP ( 'NONE', ( #63, #183, #90, #253 ) ) ;
#304 = DIRECTION ( 'NONE',  ( 0.0000000000000000000, 1.000000000000000000, 0.0000000000000000000 ) ) ;
#305 = CIRCLE ( 'NONE', #203, 0.04405499999999973326 ) ;
#306 = DIRECTION ( 'NONE',  ( -1.224646799147353207E-16, -0.0000000000000000000, -1.000000000000000000 ) ) ;
#307 = ADVANCED_FACE ( 'NONE', ( #107 ), #80, .T. ) ;
#308 = CARTESIAN_POINT ( 'NONE',  ( 0.05905500000000000332, 7.232151672364695422E-18, 1.496062999999999921 ) ) ;
#309 = CARTESIAN_POINT ( 'NONE',  ( 0.0000000000000000000, 0.0000000000000000000, 1.496062999999999921 ) ) ;
#310 = VECTOR ( 'NONE', #218, 39.37007874015748143 ) ;
#311 = FACE_OUTER_BOUND ( 'NONE', #251, .T. ) ;
#312 = CARTESIAN_POINT ( 'NONE',  ( 1.685814554828210248E-18, 0.0000000000000000000, 0.01376572050000000012 ) ) ;
#313 = DIRECTION ( 'NONE',  ( -0.1736481776669311916, 2.126576849575783316E-17, 0.9848077530122080203 ) ) ;
#314 = CLOSED_SHELL ( 'NONE', ( #260, #149, #68, #96, #118, #238, #121, #37, #307, #17, #50 ) ) ;
#315 = FACE_OUTER_BOUND ( 'NONE', #54, .T. ) ;
#316 = PRESENTATION_STYLE_ASSIGNMENT (( #258 ) ) ;
#317 = DIRECTION ( 'NONE',  ( 1.000000000000000000, 0.0000000000000000000, 0.0000000000000000000 ) ) ;
#318 = CIRCLE ( 'NONE', #242, 0.01376572050000000012 ) ;
#319 = DIRECTION ( 'NONE',  ( -1.000000000000000000, 1.224646799147353207E-16, 0.0000000000000000000 ) ) ;
#320 = EDGE_LOOP ( 'NONE', ( #192, #165, #273 ) ) ;
#321 = LINE ( 'NONE', #59, #72 ) ;
#322 = DIRECTION ( 'NONE',  ( -0.0000000000000000000, -0.0000000000000000000, -1.000000000000000000 ) ) ;
#323 =( CONVERSION_BASED_UNIT ( 'INCH', #60 ) LENGTH_UNIT ( ) NAMED_UNIT ( #191 ) );
#324 = DIRECTION ( 'NONE',  ( -1.000000000000000000, 0.0000000000000000000, 1.550413757892444394E-16 ) ) ;
#325 = DIRECTION ( 'NONE',  ( -1.224646799147353207E-16, -0.0000000000000000000, -1.000000000000000000 ) ) ;
ENDSEC;
END-ISO-10303-21;
