ISO-10303-21;
HEADER;
FILE_DESCRIPTION (( 'STEP AP214' ),
    '1' );
FILE_NAME ('Micro_DM-187-4120.STEP',
    '2021-09-02T15:59:57',
    ( '' ),
    ( '' ),
    'SwSTEP 2.0',
    'SolidWorks 2020',
    '' );
FILE_SCHEMA (( 'AUTOMOTIVE_DESIGN' ));
ENDSEC;

DATA;
#1 = ORIENTED_EDGE ( 'NONE', *, *, #115, .T. ) ;
#2 = AXIS2_PLACEMENT_3D ( 'NONE', #79, #314, #265 ) ;
#3 = CARTESIAN_POINT ( 'NONE',  ( 0.09375000000000001388, 1.148106374200643863E-17, 0.6250000000000000000 ) ) ;
#4 = DIRECTION ( 'NONE',  ( 0.0000000000000000000, 0.0000000000000000000, 1.000000000000000000 ) ) ;
#5 = ORIENTED_EDGE ( 'NONE', *, *, #328, .T. ) ;
#6 = FACE_OUTER_BOUND ( 'NONE', #152, .T. ) ;
#7 = DIRECTION ( 'NONE',  ( -1.000000000000000000, 0.0000000000000000000, 0.0000000000000000000 ) ) ;
#8 = AXIS2_PLACEMENT_3D ( 'NONE', #89, #208, #214 ) ;
#9 = CARTESIAN_POINT ( 'NONE',  ( -0.09375000000000001388, 0.0000000000000000000, 0.6250000000000000000 ) ) ;
#10 = ORIENTED_EDGE ( 'NONE', *, *, #304, .T. ) ;
#11 = EDGE_CURVE ( 'NONE', #183, #55, #21, .T. ) ;
#12 = DIRECTION ( 'NONE',  ( -1.000000000000000000, 0.0000000000000000000, 0.0000000000000000000 ) ) ;
#13 = DIRECTION ( 'NONE',  ( 0.0000000000000000000, 0.0000000000000000000, -1.000000000000000000 ) ) ;
#14 = CARTESIAN_POINT ( 'NONE',  ( -0.07874999999999980627, 0.0000000000000000000, 2.000000000000000000 ) ) ;
#15 = CARTESIAN_POINT ( 'NONE',  ( 0.0000000000000000000, 0.0000000000000000000, 2.000000000000000000 ) ) ;
#16 = DIRECTION ( 'NONE',  ( 0.8660254037844400399, 0.0000000000000000000, 0.4999999999999976685 ) ) ;
#17 = DIRECTION ( 'NONE',  ( -0.0000000000000000000, -0.0000000000000000000, -1.000000000000000000 ) ) ;
#18 = CONICAL_SURFACE ( 'NONE', #52, 0.07874999999999980627, 0.7853981633974466137 ) ;
#19 = EDGE_CURVE ( 'NONE', #58, #33, #155, .T. ) ;
#20 = EDGE_CURVE ( 'NONE', #312, #48, #122, .T. ) ;
#21 = CIRCLE ( 'NONE', #68, 0.007499999999999999722 ) ;
#22 = VECTOR ( 'NONE', #259, 39.37007874015748143 ) ;
#23 = ORIENTED_EDGE ( 'NONE', *, *, #296, .T. ) ;
#24 = ORIENTED_EDGE ( 'NONE', *, *, #20, .F. ) ;
#25 = AXIS2_PLACEMENT_3D ( 'NONE', #241, #192, #189 ) ;
#26 =( CONVERSION_BASED_UNIT ( 'INCH', #56 ) LENGTH_UNIT ( ) NAMED_UNIT ( #146 ) );
#27 = ORIENTED_EDGE ( 'NONE', *, *, #74, .F. ) ;
#28 = DIRECTION ( 'NONE',  ( -0.0000000000000000000, -0.0000000000000000000, -1.000000000000000000 ) ) ;
#29 = CYLINDRICAL_SURFACE ( 'NONE', #2, 0.09370000000000004714 ) ;
#30 = CARTESIAN_POINT ( 'NONE',  ( 0.0000000000000000000, 0.0000000000000000000, 0.6250000000000000000 ) ) ;
#31 = ADVANCED_BREP_SHAPE_REPRESENTATION ( 'Micro_DM-187-4120', ( #45, #272 ), #221 ) ;
#32 = DIRECTION ( 'NONE',  ( -1.000000000000000000, 0.0000000000000000000, 0.0000000000000000000 ) ) ;
#33 = VERTEX_POINT ( 'NONE', #3 ) ;
#34 = CARTESIAN_POINT ( 'NONE',  ( -0.09370000000000003326, 1.147494050801070064E-17, 0.04976759320414544940 ) ) ;
#35 = PRESENTATION_STYLE_ASSIGNMENT (( #209 ) ) ;
#36 = EDGE_CURVE ( 'NONE', #55, #291, #201, .T. ) ;
#37 = PLANE ( 'NONE',  #329 ) ;
#38 = CARTESIAN_POINT ( 'NONE',  ( 0.0000000000000000000, 0.0000000000000000000, 1.707404996040164512E-17 ) ) ;
#39 = AXIS2_PLACEMENT_3D ( 'NONE', #290, #63, #102 ) ;
#40 = CARTESIAN_POINT ( 'NONE',  ( 0.007499999999999999722, 0.0000000000000000000, 1.707404996040164512E-17 ) ) ;
#41 = FILL_AREA_STYLE ('',( #143 ) ) ;
#42 = EDGE_CURVE ( 'NONE', #48, #312, #168, .T. ) ;
#43 = VECTOR ( 'NONE', #269, 39.37007874015748143 ) ;
#44 =( GEOMETRIC_REPRESENTATION_CONTEXT ( 3 ) GLOBAL_UNCERTAINTY_ASSIGNED_CONTEXT ( ( #297 ) ) GLOBAL_UNIT_ASSIGNED_CONTEXT ( ( #26, #226, #261 ) ) REPRESENTATION_CONTEXT ( 'NONE', 'WORKASPACE' ) );
#45 = MANIFOLD_SOLID_BREP ( 'Cut-Revolve4', #310 ) ;
#46 = EDGE_CURVE ( 'NONE', #48, #225, #266, .T. ) ;
#47 = CIRCLE ( 'NONE', #194, 0.007499999999999999722 ) ;
#48 = VERTEX_POINT ( 'NONE', #289 ) ;
#49 = APPLICATION_PROTOCOL_DEFINITION ( 'draft international standard', 'automotive_design', 1998, #327 ) ;
#50 = ORIENTED_EDGE ( 'NONE', *, *, #36, .F. ) ;
#51 = SURFACE_SIDE_STYLE ('',( #88 ) ) ;
#52 = AXIS2_PLACEMENT_3D ( 'NONE', #238, #293, #83 ) ;
#53 = CARTESIAN_POINT ( 'NONE',  ( 0.0000000000000000000, 0.0000000000000000000, 2.000000000000000000 ) ) ;
#54 = EDGE_LOOP ( 'NONE', ( #50, #260, #129, #5 ) ) ;
#55 = VERTEX_POINT ( 'NONE', #188 ) ;
#56 = LENGTH_MEASURE_WITH_UNIT ( LENGTH_MEASURE( 0.02539999999999999897 ), #101 );
#57 = CARTESIAN_POINT ( 'NONE',  ( 0.07874999999999980627, 9.644093543285380530E-18, 2.000000000000000000 ) ) ;
#58 = VERTEX_POINT ( 'NONE', #66 ) ;
#59 = EDGE_CURVE ( 'NONE', #200, #256, #117, .T. ) ;
#60 = FACE_OUTER_BOUND ( 'NONE', #132, .T. ) ;
#61 = CARTESIAN_POINT ( 'NONE',  ( 0.0000000000000000000, 0.0000000000000000000, 1.707404996040164512E-17 ) ) ;
#62 = AXIS2_PLACEMENT_3D ( 'NONE', #15, #239, #32 ) ;
#63 = DIRECTION ( 'NONE',  ( 0.0000000000000000000, 0.0000000000000000000, 1.000000000000000000 ) ) ;
#64 = CARTESIAN_POINT ( 'NONE',  ( 0.0000000000000000000, 0.0000000000000000000, 1.984999999999999654 ) ) ;
#65 = FACE_OUTER_BOUND ( 'NONE', #103, .T. ) ;
#66 = CARTESIAN_POINT ( 'NONE',  ( 0.09375000000000001388, 1.148106374200643863E-17, 1.984999999999999654 ) ) ;
#67 = PRODUCT_DEFINITION_CONTEXT ( 'detailed design', #327, 'design' ) ;
#68 = AXIS2_PLACEMENT_3D ( 'NONE', #61, #285, #7 ) ;
#69 = AXIS2_PLACEMENT_3D ( 'NONE', #30, #174, #315 ) ;
#70 = LINE ( 'NONE', #40, #124 ) ;
#71 = EDGE_CURVE ( 'NONE', #312, #291, #138, .T. ) ;
#72 = ADVANCED_FACE ( 'NONE', ( #321 ), #95, .T. ) ;
#73 = AXIS2_PLACEMENT_3D ( 'NONE', #64, #13, #322 ) ;
#74 = EDGE_CURVE ( 'NONE', #58, #200, #262, .T. ) ;
#75 = MECHANICAL_DESIGN_GEOMETRIC_PRESENTATION_REPRESENTATION (  '', ( #97 ), #217 ) ;
#76 = EDGE_LOOP ( 'NONE', ( #305, #308 ) ) ;
#77 = ORIENTED_EDGE ( 'NONE', *, *, #59, .T. ) ;
#78 = CARTESIAN_POINT ( 'NONE',  ( 0.0000000000000000000, 0.0000000000000000000, 0.6250000000000000000 ) ) ;
#79 = CARTESIAN_POINT ( 'NONE',  ( 0.0000000000000000000, 0.0000000000000000000, 0.0000000000000000000 ) ) ;
#80 = ORIENTED_EDGE ( 'NONE', *, *, #46, .T. ) ;
#81 = VECTOR ( 'NONE', #306, 39.37007874015748143 ) ;
#82 = COLOUR_RGB ( '',0.7921568627450980005, 0.8196078431372548767, 0.9333333333333333481 ) ;
#83 = DIRECTION ( 'NONE',  ( -1.000000000000000000, 0.0000000000000000000, 0.0000000000000000000 ) ) ;
#84 = ORIENTED_EDGE ( 'NONE', *, *, #316, .F. ) ;
#85 = ORIENTED_EDGE ( 'NONE', *, *, #121, .F. ) ;
#86 = EDGE_CURVE ( 'NONE', #183, #225, #70, .T. ) ;
#87 = CARTESIAN_POINT ( 'NONE',  ( 0.007499999999999999722, 0.0000000000000000000, 1.707404996040164512E-17 ) ) ;
#88 = SURFACE_STYLE_FILL_AREA ( #107 ) ;
#89 = CARTESIAN_POINT ( 'NONE',  ( 0.0000000000000000000, 0.0000000000000000000, 2.000000000000000000 ) ) ;
#90 = DIRECTION ( 'NONE',  ( 1.000000000000000000, 0.0000000000000000000, 0.0000000000000000000 ) ) ;
#91 = PRESENTATION_LAYER_ASSIGNMENT (  '', '', ( #151 ) ) ;
#92 = FACE_OUTER_BOUND ( 'NONE', #264, .T. ) ;
#93 = LENGTH_MEASURE_WITH_UNIT ( LENGTH_MEASURE( 0.02539999999999999897 ), #218 );
#94 = DIRECTION ( 'NONE',  ( -0.0000000000000000000, -0.0000000000000000000, -1.000000000000000000 ) ) ;
#95 = CONICAL_SURFACE ( 'NONE', #302, 0.007499999999999999722, 1.047197551196600518 ) ;
#96 = DIMENSIONAL_EXPONENTS ( 1.000000000000000000, 0.0000000000000000000, 0.0000000000000000000, 0.0000000000000000000, 0.0000000000000000000, 0.0000000000000000000, 0.0000000000000000000 ) ;
#97 = STYLED_ITEM ( 'NONE', ( #35 ), #45 ) ;
#98 = ORIENTED_EDGE ( 'NONE', *, *, #328, .F. ) ;
#99 = EDGE_CURVE ( 'NONE', #200, #58, #224, .T. ) ;
#100 = ORIENTED_EDGE ( 'NONE', *, *, #20, .T. ) ;
#101 =( LENGTH_UNIT ( ) NAMED_UNIT ( * ) SI_UNIT ( $, .METRE. ) );
#102 = DIRECTION ( 'NONE',  ( 1.000000000000000000, 0.0000000000000000000, -0.0000000000000000000 ) ) ;
#103 = EDGE_LOOP ( 'NONE', ( #100, #80, #158, #177 ) ) ;
#104 = EDGE_LOOP ( 'NONE', ( #284, #85, #157, #27 ) ) ;
#105 = SHAPE_DEFINITION_REPRESENTATION ( #172, #31 ) ;
#106 = FACE_OUTER_BOUND ( 'NONE', #250, .T. ) ;
#107 = FILL_AREA_STYLE ('',( #232 ) ) ;
#108 = VECTOR ( 'NONE', #180, 39.37007874015748143 ) ;
#109 = AXIS2_PLACEMENT_3D ( 'NONE', #295, #307, #128 ) ;
#110 = PRODUCT_CONTEXT ( 'NONE', #193, 'mechanical' ) ;
#111 = DIRECTION ( 'NONE',  ( 0.0000000000000000000, 0.0000000000000000000, 1.000000000000000000 ) ) ;
#112 = ORIENTED_EDGE ( 'NONE', *, *, #19, .F. ) ;
#113 = FACE_OUTER_BOUND ( 'NONE', #231, .T. ) ;
#114 = DIRECTION ( 'NONE',  ( -1.000000000000000000, 0.0000000000000000000, 0.0000000000000000000 ) ) ;
#115 = EDGE_CURVE ( 'NONE', #33, #256, #197, .T. ) ;
#116 = CYLINDRICAL_SURFACE ( 'NONE', #147, 0.09375000000000001388 ) ;
#117 = LINE ( 'NONE', #215, #271 ) ;
#118 = AXIS2_PLACEMENT_3D ( 'NONE', #213, #318, #90 ) ;
#119 = PRODUCT_DEFINITION ( 'UNKNOWN', '', #282, #67 ) ;
#120 = CARTESIAN_POINT ( 'NONE',  ( 0.0000000000000000000, 0.0000000000000000000, 1.707404996040164512E-17 ) ) ;
#121 = EDGE_CURVE ( 'NONE', #182, #278, #319, .T. ) ;
#122 = CIRCLE ( 'NONE', #186, 0.09370000000000008877 ) ;
#123 =( NAMED_UNIT ( * ) PLANE_ANGLE_UNIT ( ) SI_UNIT ( $, .RADIAN. ) );
#124 = VECTOR ( 'NONE', #16, 39.37007874015748143 ) ;
#125 = EDGE_LOOP ( 'NONE', ( #313, #254, #253, #280 ) ) ;
#126 = CIRCLE ( 'NONE', #207, 0.09375000000000001388 ) ;
#127 = ORIENTED_EDGE ( 'NONE', *, *, #36, .T. ) ;
#128 = DIRECTION ( 'NONE',  ( -1.000000000000000000, 0.0000000000000000000, 0.0000000000000000000 ) ) ;
#129 = ORIENTED_EDGE ( 'NONE', *, *, #86, .T. ) ;
#130 = ORIENTED_EDGE ( 'NONE', *, *, #86, .F. ) ;
#131 = CARTESIAN_POINT ( 'NONE',  ( -0.07874999999999980627, 0.0000000000000000000, 2.000000000000000000 ) ) ;
#132 = EDGE_LOOP ( 'NONE', ( #154, #279, #309, #98 ) ) ;
#133 = DIRECTION ( 'NONE',  ( 1.000000000000000000, 0.0000000000000000000, 0.0000000000000000000 ) ) ;
#134 = DIRECTION ( 'NONE',  ( -0.0000000000000000000, 0.0000000000000000000, -1.000000000000000000 ) ) ;
#135 = EDGE_LOOP ( 'NONE', ( #24, #235 ) ) ;
#136 = AXIS2_PLACEMENT_3D ( 'NONE', #166, #17, #244 ) ;
#137 = CARTESIAN_POINT ( 'NONE',  ( 0.0000000000000000000, 0.0000000000000000000, 0.6250000000000000000 ) ) ;
#138 = LINE ( 'NONE', #237, #43 ) ;
#139 = CARTESIAN_POINT ( 'NONE',  ( 0.09370000000000003326, 0.0000000000000000000, 0.04976759320414544940 ) ) ;
#140 = DIRECTION ( 'NONE',  ( -0.0000000000000000000, -0.0000000000000000000, -1.000000000000000000 ) ) ;
#141 = DIRECTION ( 'NONE',  ( -0.0000000000000000000, -0.0000000000000000000, -1.000000000000000000 ) ) ;
#142 = CONICAL_SURFACE ( 'NONE', #62, 0.07874999999999980627, 0.7853981633974466137 ) ;
#143 = FILL_AREA_STYLE_COLOUR ( '', #82 ) ;
#144 = CARTESIAN_POINT ( 'NONE',  ( -0.09370000000000008877, 0.0000000000000000000, 0.6250000000000000000 ) ) ;
#145 = ADVANCED_FACE ( 'NONE', ( #163 ), #142, .T. ) ;
#146 = DIMENSIONAL_EXPONENTS ( 1.000000000000000000, 0.0000000000000000000, 0.0000000000000000000, 0.0000000000000000000, 0.0000000000000000000, 0.0000000000000000000, 0.0000000000000000000 ) ;
#147 = AXIS2_PLACEMENT_3D ( 'NONE', #179, #156, #320 ) ;
#148 = APPLICATION_PROTOCOL_DEFINITION ( 'draft international standard', 'automotive_design', 1998, #193 ) ;
#149 = ORIENTED_EDGE ( 'NONE', *, *, #277, .T. ) ;
#150 = ORIENTED_EDGE ( 'NONE', *, *, #99, .T. ) ;
#151 = STYLED_ITEM ( 'NONE', ( #273 ), #31 ) ;
#152 = EDGE_LOOP ( 'NONE', ( #23, #1 ) ) ;
#153 = CARTESIAN_POINT ( 'NONE',  ( 0.07874999999999980627, 1.056257864264590573E-17, 2.000000000000000000 ) ) ;
#154 = ORIENTED_EDGE ( 'NONE', *, *, #46, .F. ) ;
#155 = LINE ( 'NONE', #257, #108 ) ;
#156 = DIRECTION ( 'NONE',  ( -0.0000000000000000000, -0.0000000000000000000, -1.000000000000000000 ) ) ;
#157 = ORIENTED_EDGE ( 'NONE', *, *, #199, .T. ) ;
#158 = ORIENTED_EDGE ( 'NONE', *, *, #304, .F. ) ;
#159 = CYLINDRICAL_SURFACE ( 'NONE', #109, 0.09370000000000004714 ) ;
#160 = ORIENTED_EDGE ( 'NONE', *, *, #59, .F. ) ;
#161 = CIRCLE ( 'NONE', #170, 0.09370000000000001938 ) ;
#162 = CARTESIAN_POINT ( 'NONE',  ( 0.09370000000000008877, 0.0000000000000000000, 0.6250000000000000000 ) ) ;
#163 = FACE_OUTER_BOUND ( 'NONE', #125, .T. ) ;
#164 = CARTESIAN_POINT ( 'NONE',  ( -0.09375000000000001388, 0.0000000000000000000, 1.984999999999999654 ) ) ;
#165 =( CONVERSION_BASED_UNIT ( 'INCH', #93 ) LENGTH_UNIT ( ) NAMED_UNIT ( #96 ) );
#166 = CARTESIAN_POINT ( 'NONE',  ( 0.0000000000000000000, 0.0000000000000000000, 0.04976759320414544940 ) ) ;
#167 = DIRECTION ( 'NONE',  ( 1.000000000000000000, 0.0000000000000000000, 0.0000000000000000000 ) ) ;
#168 = CIRCLE ( 'NONE', #69, 0.09370000000000008877 ) ;
#169 = LENGTH_MEASURE_WITH_UNIT ( LENGTH_MEASURE( 0.02539999999999999897 ), #220 );
#170 = AXIS2_PLACEMENT_3D ( 'NONE', #245, #195, #240 ) ;
#171 = ADVANCED_FACE ( 'NONE', ( #181 ), #18, .T. ) ;
#172 = PRODUCT_DEFINITION_SHAPE ( 'NONE', 'NONE',  #119 ) ;
#173 = ORIENTED_EDGE ( 'NONE', *, *, #74, .T. ) ;
#174 = DIRECTION ( 'NONE',  ( -0.0000000000000000000, -0.0000000000000000000, -1.000000000000000000 ) ) ;
#175 = AXIS2_PLACEMENT_3D ( 'NONE', #212, #111, #268 ) ;
#176 = DIRECTION ( 'NONE',  ( 1.000000000000000000, 0.0000000000000000000, -0.0000000000000000000 ) ) ;
#177 = ORIENTED_EDGE ( 'NONE', *, *, #71, .F. ) ;
#178 = ADVANCED_FACE ( 'NONE', ( #230, #6 ), #37, .T. ) ;
#179 = CARTESIAN_POINT ( 'NONE',  ( 0.0000000000000000000, 0.0000000000000000000, 2.000000000000000000 ) ) ;
#180 = DIRECTION ( 'NONE',  ( -0.0000000000000000000, -0.0000000000000000000, -1.000000000000000000 ) ) ;
#181 = FACE_OUTER_BOUND ( 'NONE', #104, .T. ) ;
#182 = VERTEX_POINT ( 'NONE', #14 ) ;
#183 = VERTEX_POINT ( 'NONE', #87 ) ;
#184 = CARTESIAN_POINT ( 'NONE',  ( 0.0000000000000000000, 0.0000000000000000000, 2.000000000000000000 ) ) ;
#185 = DIRECTION ( 'NONE',  ( -0.0000000000000000000, -0.0000000000000000000, -1.000000000000000000 ) ) ;
#186 = AXIS2_PLACEMENT_3D ( 'NONE', #78, #28, #211 ) ;
#187 = PLANE ( 'NONE',  #39 ) ;
#188 = CARTESIAN_POINT ( 'NONE',  ( -0.007499999999999999722, 6.196712803685608298E-18, 1.707404996040164512E-17 ) ) ;
#189 = DIRECTION ( 'NONE',  ( 1.000000000000000000, 0.0000000000000000000, 0.0000000000000000000 ) ) ;
#190 = ADVANCED_FACE ( 'NONE', ( #255 ), #116, .T. ) ;
#191 = SURFACE_SIDE_STYLE ('',( #324 ) ) ;
#192 = DIRECTION ( 'NONE',  ( 0.0000000000000000000, 0.0000000000000000000, -1.000000000000000000 ) ) ;
#193 = APPLICATION_CONTEXT ( 'automotive_design' ) ;
#194 = AXIS2_PLACEMENT_3D ( 'NONE', #120, #140, #243 ) ;
#195 = DIRECTION ( 'NONE',  ( -0.0000000000000000000, -0.0000000000000000000, -1.000000000000000000 ) ) ;
#196 = ADVANCED_FACE ( 'NONE', ( #65 ), #29, .T. ) ;
#197 = CIRCLE ( 'NONE', #248, 0.09375000000000001388 ) ;
#198 = ORIENTED_EDGE ( 'NONE', *, *, #19, .T. ) ;
#199 = EDGE_CURVE ( 'NONE', #182, #200, #287, .T. ) ;
#200 = VERTEX_POINT ( 'NONE', #164 ) ;
#201 = LINE ( 'NONE', #251, #81 ) ;
#202 = CARTESIAN_POINT ( 'NONE',  ( 0.0000000000000000000, 0.0000000000000000000, 0.0000000000000000000 ) ) ;
#203 = DIRECTION ( 'NONE',  ( -1.000000000000000000, 0.0000000000000000000, 0.0000000000000000000 ) ) ;
#204 = ADVANCED_FACE ( 'NONE', ( #92 ), #317, .T. ) ;
#205 = ORIENTED_EDGE ( 'NONE', *, *, #296, .F. ) ;
#206 = EDGE_LOOP ( 'NONE', ( #112, #173, #77, #229 ) ) ;
#207 = AXIS2_PLACEMENT_3D ( 'NONE', #137, #236, #12 ) ;
#208 = DIRECTION ( 'NONE',  ( -0.0000000000000000000, -0.0000000000000000000, -1.000000000000000000 ) ) ;
#209 = SURFACE_STYLE_USAGE ( .BOTH. , #51 ) ;
#210 = CYLINDRICAL_SURFACE ( 'NONE', #8, 0.09375000000000001388 ) ;
#211 = DIRECTION ( 'NONE',  ( -1.000000000000000000, 0.0000000000000000000, 0.0000000000000000000 ) ) ;
#212 = CARTESIAN_POINT ( 'NONE',  ( 0.0000000000000000000, 0.0000000000000000000, 1.707404996040164512E-17 ) ) ;
#213 = CARTESIAN_POINT ( 'NONE',  ( 0.0000000000000000000, 0.0000000000000000000, 2.000000000000000000 ) ) ;
#214 = DIRECTION ( 'NONE',  ( -1.000000000000000000, 0.0000000000000000000, 0.0000000000000000000 ) ) ;
#215 = CARTESIAN_POINT ( 'NONE',  ( -0.09375000000000001388, 0.0000000000000000000, 2.000000000000000000 ) ) ;
#216 = COLOUR_RGB ( '',0.7921568627450980005, 0.8196078431372548767, 0.9333333333333333481 ) ;
#217 =( GEOMETRIC_REPRESENTATION_CONTEXT ( 3 ) GLOBAL_UNCERTAINTY_ASSIGNED_CONTEXT ( ( #323 ) ) GLOBAL_UNIT_ASSIGNED_CONTEXT ( ( #165, #270, #294 ) ) REPRESENTATION_CONTEXT ( 'NONE', 'WORKASPACE' ) );
#218 =( LENGTH_UNIT ( ) NAMED_UNIT ( * ) SI_UNIT ( $, .METRE. ) );
#219 = CARTESIAN_POINT ( 'NONE',  ( 0.09370000000000004714, 1.147494050801070527E-17, 0.0000000000000000000 ) ) ;
#220 =( LENGTH_UNIT ( ) NAMED_UNIT ( * ) SI_UNIT ( $, .METRE. ) );
#221 =( GEOMETRIC_REPRESENTATION_CONTEXT ( 3 ) GLOBAL_UNCERTAINTY_ASSIGNED_CONTEXT ( ( #247 ) ) GLOBAL_UNIT_ASSIGNED_CONTEXT ( ( #298, #123, #301 ) ) REPRESENTATION_CONTEXT ( 'NONE', 'WORKASPACE' ) );
#222 = AXIS2_PLACEMENT_3D ( 'NONE', #53, #4, #263 ) ;
#223 = PRODUCT ( 'Micro_DM-187-4120', 'Micro_DM-187-4120', '', ( #110 ) ) ;
#224 = CIRCLE ( 'NONE', #73, 0.09375000000000001388 ) ;
#225 = VERTEX_POINT ( 'NONE', #139 ) ;
#226 =( NAMED_UNIT ( * ) PLANE_ANGLE_UNIT ( ) SI_UNIT ( $, .RADIAN. ) );
#227 = EDGE_CURVE ( 'NONE', #278, #58, #234, .T. ) ;
#228 = DIRECTION ( 'NONE',  ( -0.7071067811865463515, 0.0000000000000000000, -0.7071067811865486830 ) ) ;
#229 = ORIENTED_EDGE ( 'NONE', *, *, #115, .F. ) ;
#230 = FACE_BOUND ( 'NONE', #135, .T. ) ;
#231 = EDGE_LOOP ( 'NONE', ( #84, #127, #10, #130 ) ) ;
#232 = FILL_AREA_STYLE_COLOUR ( '', #216 ) ;
#233 = CIRCLE ( 'NONE', #136, 0.09370000000000001938 ) ;
#234 = LINE ( 'NONE', #57, #22 ) ;
#235 = ORIENTED_EDGE ( 'NONE', *, *, #42, .F. ) ;
#236 = DIRECTION ( 'NONE',  ( -0.0000000000000000000, -0.0000000000000000000, -1.000000000000000000 ) ) ;
#237 = CARTESIAN_POINT ( 'NONE',  ( -0.09370000000000004714, 0.0000000000000000000, 0.0000000000000000000 ) ) ;
#238 = CARTESIAN_POINT ( 'NONE',  ( 0.0000000000000000000, 0.0000000000000000000, 2.000000000000000000 ) ) ;
#239 = DIRECTION ( 'NONE',  ( 0.0000000000000000000, 0.0000000000000000000, -1.000000000000000000 ) ) ;
#240 = DIRECTION ( 'NONE',  ( -1.000000000000000000, 0.0000000000000000000, 0.0000000000000000000 ) ) ;
#241 = CARTESIAN_POINT ( 'NONE',  ( 0.0000000000000000000, 0.0000000000000000000, 1.984999999999999654 ) ) ;
#242 = CONICAL_SURFACE ( 'NONE', #175, 0.007499999999999999722, 1.047197551196600518 ) ;
#243 = DIRECTION ( 'NONE',  ( -1.000000000000000000, 0.0000000000000000000, 0.0000000000000000000 ) ) ;
#244 = DIRECTION ( 'NONE',  ( -1.000000000000000000, 0.0000000000000000000, 0.0000000000000000000 ) ) ;
#245 = CARTESIAN_POINT ( 'NONE',  ( 0.0000000000000000000, 0.0000000000000000000, 0.04976759320414544940 ) ) ;
#246 = AXIS2_PLACEMENT_3D ( 'NONE', #184, #311, #176 ) ;
#247 = UNCERTAINTY_MEASURE_WITH_UNIT (LENGTH_MEASURE( 1.000000000000000082E-05 ), #298, 'distance_accuracy_value', 'NONE');
#248 = AXIS2_PLACEMENT_3D ( 'NONE', #325, #94, #114 ) ;
#249 = MECHANICAL_DESIGN_GEOMETRIC_PRESENTATION_REPRESENTATION (  '', ( #151 ), #44 ) ;
#250 = EDGE_LOOP ( 'NONE', ( #150, #198, #205, #160 ) ) ;
#251 = CARTESIAN_POINT ( 'NONE',  ( -0.007499999999999999722, 9.184850993605147975E-19, 1.707404996040164512E-17 ) ) ;
#252 = VECTOR ( 'NONE', #228, 39.37007874015748143 ) ;
#253 = ORIENTED_EDGE ( 'NONE', *, *, #99, .F. ) ;
#254 = ORIENTED_EDGE ( 'NONE', *, *, #227, .T. ) ;
#255 = FACE_OUTER_BOUND ( 'NONE', #206, .T. ) ;
#256 = VERTEX_POINT ( 'NONE', #9 ) ;
#257 = CARTESIAN_POINT ( 'NONE',  ( 0.09375000000000001388, 1.148106374200643863E-17, 2.000000000000000000 ) ) ;
#258 = ADVANCED_FACE ( 'NONE', ( #106 ), #210, .T. ) ;
#259 = DIRECTION ( 'NONE',  ( 0.7071067811865463515, 8.659560562354916834E-17, -0.7071067811865486830 ) ) ;
#260 = ORIENTED_EDGE ( 'NONE', *, *, #11, .F. ) ;
#261 =( NAMED_UNIT ( * ) SI_UNIT ( $, .STERADIAN. ) SOLID_ANGLE_UNIT ( ) );
#262 = CIRCLE ( 'NONE', #25, 0.09375000000000001388 ) ;
#263 = DIRECTION ( 'NONE',  ( 1.000000000000000000, 0.0000000000000000000, 0.0000000000000000000 ) ) ;
#264 = EDGE_LOOP ( 'NONE', ( #288, #149 ) ) ;
#265 = DIRECTION ( 'NONE',  ( -1.000000000000000000, 0.0000000000000000000, 0.0000000000000000000 ) ) ;
#266 = LINE ( 'NONE', #219, #292 ) ;
#267 = ADVANCED_FACE ( 'NONE', ( #113 ), #242, .T. ) ;
#268 = DIRECTION ( 'NONE',  ( 1.000000000000000000, 0.0000000000000000000, 0.0000000000000000000 ) ) ;
#269 = DIRECTION ( 'NONE',  ( -0.0000000000000000000, -0.0000000000000000000, -1.000000000000000000 ) ) ;
#270 =( NAMED_UNIT ( * ) PLANE_ANGLE_UNIT ( ) SI_UNIT ( $, .RADIAN. ) );
#271 = VECTOR ( 'NONE', #141, 39.37007874015748143 ) ;
#272 = AXIS2_PLACEMENT_3D ( 'NONE', #202, #286, #133 ) ;
#273 = PRESENTATION_STYLE_ASSIGNMENT (( #299 ) ) ;
#274 = CIRCLE ( 'NONE', #222, 0.07874999999999980627 ) ;
#275 = ADVANCED_FACE ( 'NONE', ( #283 ), #187, .F. ) ;
#276 = ADVANCED_FACE ( 'NONE', ( #60 ), #159, .T. ) ;
#277 = EDGE_CURVE ( 'NONE', #278, #182, #274, .T. ) ;
#278 = VERTEX_POINT ( 'NONE', #153 ) ;
#279 = ORIENTED_EDGE ( 'NONE', *, *, #42, .T. ) ;
#280 = ORIENTED_EDGE ( 'NONE', *, *, #199, .F. ) ;
#281 = PRESENTATION_LAYER_ASSIGNMENT (  '', '', ( #97 ) ) ;
#282 = PRODUCT_DEFINITION_FORMATION_WITH_SPECIFIED_SOURCE ( 'ANY', '', #223, .NOT_KNOWN. ) ;
#283 = FACE_OUTER_BOUND ( 'NONE', #76, .T. ) ;
#284 = ORIENTED_EDGE ( 'NONE', *, *, #227, .F. ) ;
#285 = DIRECTION ( 'NONE',  ( -0.0000000000000000000, -0.0000000000000000000, -1.000000000000000000 ) ) ;
#286 = DIRECTION ( 'NONE',  ( 0.0000000000000000000, 0.0000000000000000000, 1.000000000000000000 ) ) ;
#287 = LINE ( 'NONE', #131, #252 ) ;
#288 = ORIENTED_EDGE ( 'NONE', *, *, #121, .T. ) ;
#289 = CARTESIAN_POINT ( 'NONE',  ( 0.09370000000000008877, 1.147494050801071143E-17, 0.6250000000000000000 ) ) ;
#290 = CARTESIAN_POINT ( 'NONE',  ( 0.0000000000000000000, 0.0000000000000000000, 0.0000000000000000000 ) ) ;
#291 = VERTEX_POINT ( 'NONE', #34 ) ;
#292 = VECTOR ( 'NONE', #185, 39.37007874015748143 ) ;
#293 = DIRECTION ( 'NONE',  ( 0.0000000000000000000, 0.0000000000000000000, -1.000000000000000000 ) ) ;
#294 =( NAMED_UNIT ( * ) SI_UNIT ( $, .STERADIAN. ) SOLID_ANGLE_UNIT ( ) );
#295 = CARTESIAN_POINT ( 'NONE',  ( 0.0000000000000000000, 0.0000000000000000000, 0.0000000000000000000 ) ) ;
#296 = EDGE_CURVE ( 'NONE', #256, #33, #126, .T. ) ;
#297 = UNCERTAINTY_MEASURE_WITH_UNIT (LENGTH_MEASURE( 1.000000000000000082E-05 ), #26, 'distance_accuracy_value', 'NONE');
#298 =( CONVERSION_BASED_UNIT ( 'INCH', #169 ) LENGTH_UNIT ( ) NAMED_UNIT ( #326 ) );
#299 = SURFACE_STYLE_USAGE ( .BOTH. , #191 ) ;
#300 = DIRECTION ( 'NONE',  ( 0.0000000000000000000, 0.0000000000000000000, 1.000000000000000000 ) ) ;
#301 =( NAMED_UNIT ( * ) SI_UNIT ( $, .STERADIAN. ) SOLID_ANGLE_UNIT ( ) );
#302 = AXIS2_PLACEMENT_3D ( 'NONE', #38, #300, #167 ) ;
#303 = PRODUCT_RELATED_PRODUCT_CATEGORY ( 'part', '', ( #223 ) ) ;
#304 = EDGE_CURVE ( 'NONE', #291, #225, #161, .T. ) ;
#305 = ORIENTED_EDGE ( 'NONE', *, *, #11, .T. ) ;
#306 = DIRECTION ( 'NONE',  ( -0.8660254037844400399, 1.060575238724908640E-16, 0.4999999999999976685 ) ) ;
#307 = DIRECTION ( 'NONE',  ( -0.0000000000000000000, -0.0000000000000000000, -1.000000000000000000 ) ) ;
#308 = ORIENTED_EDGE ( 'NONE', *, *, #316, .T. ) ;
#309 = ORIENTED_EDGE ( 'NONE', *, *, #71, .T. ) ;
#310 = CLOSED_SHELL ( 'NONE', ( #196, #267, #145, #258, #190, #204, #171, #178, #72, #276, #275 ) ) ;
#311 = DIRECTION ( 'NONE',  ( 0.0000000000000000000, 0.0000000000000000000, 1.000000000000000000 ) ) ;
#312 = VERTEX_POINT ( 'NONE', #144 ) ;
#313 = ORIENTED_EDGE ( 'NONE', *, *, #277, .F. ) ;
#314 = DIRECTION ( 'NONE',  ( -0.0000000000000000000, -0.0000000000000000000, -1.000000000000000000 ) ) ;
#315 = DIRECTION ( 'NONE',  ( -1.000000000000000000, 0.0000000000000000000, 0.0000000000000000000 ) ) ;
#316 = EDGE_CURVE ( 'NONE', #55, #183, #47, .T. ) ;
#317 = PLANE ( 'NONE',  #246 ) ;
#318 = DIRECTION ( 'NONE',  ( 0.0000000000000000000, 0.0000000000000000000, 1.000000000000000000 ) ) ;
#319 = CIRCLE ( 'NONE', #118, 0.07874999999999980627 ) ;
#320 = DIRECTION ( 'NONE',  ( -1.000000000000000000, 0.0000000000000000000, 0.0000000000000000000 ) ) ;
#321 = FACE_OUTER_BOUND ( 'NONE', #54, .T. ) ;
#322 = DIRECTION ( 'NONE',  ( 1.000000000000000000, 0.0000000000000000000, 0.0000000000000000000 ) ) ;
#323 = UNCERTAINTY_MEASURE_WITH_UNIT (LENGTH_MEASURE( 1.000000000000000082E-05 ), #165, 'distance_accuracy_value', 'NONE');
#324 = SURFACE_STYLE_FILL_AREA ( #41 ) ;
#325 = CARTESIAN_POINT ( 'NONE',  ( 0.0000000000000000000, 0.0000000000000000000, 0.6250000000000000000 ) ) ;
#326 = DIMENSIONAL_EXPONENTS ( 1.000000000000000000, 0.0000000000000000000, 0.0000000000000000000, 0.0000000000000000000, 0.0000000000000000000, 0.0000000000000000000, 0.0000000000000000000 ) ;
#327 = APPLICATION_CONTEXT ( 'automotive_design' ) ;
#328 = EDGE_CURVE ( 'NONE', #225, #291, #233, .T. ) ;
#329 = AXIS2_PLACEMENT_3D ( 'NONE', #162, #134, #203 ) ;
ENDSEC;
END-ISO-10303-21;
