ISO-10303-21;
HEADER;
FILE_DESCRIPTION (( 'STEP AP214' ),
    '1' );
FILE_NAME ('82954.STEP',
    '2023-06-23T07:38:38',
    ( '' ),
    ( '' ),
    'SwSTEP 2.0',
    'SolidWorks 2023',
    '' );
FILE_SCHEMA (( 'AUTOMOTIVE_DESIGN' ));
ENDSEC;

DATA;
#1 = FILL_AREA_STYLE ('',( #170 ) ) ;
#2 = DIRECTION ( 'NONE',  ( -0.000000000000000000, -1.000000000000000000, -0.000000000000000000 ) ) ;
#3 = STYLED_ITEM ( 'NONE', ( #338 ), #280 ) ;
#4 =( LENGTH_UNIT ( ) NAMED_UNIT ( * ) SI_UNIT ( $, .METRE. ) );
#5 = CARTESIAN_POINT ( 'NONE',  ( 0.000000000000000000, 0.3125000000000000000, 0.000000000000000000 ) ) ;
#6 = CARTESIAN_POINT ( 'NONE',  ( 1.339151274867630787E-17, 0.000000000000000000, 0.1093500000000000028 ) ) ;
#7 =( CONVERSION_BASED_UNIT ( 'INCH', #284 ) LENGTH_UNIT ( ) NAMED_UNIT ( #290 ) );
#8 = PLANE ( 'NONE',  #274 ) ;
#9 = DIRECTION ( 'NONE',  ( -1.000000000000000000, 0.000000000000000000, 0.000000000000000000 ) ) ;
#10 = CLOSED_SHELL ( 'NONE', ( #280, #156, #73, #358 ) ) ;
#11 =( GEOMETRIC_REPRESENTATION_CONTEXT ( 3 ) GLOBAL_UNCERTAINTY_ASSIGNED_CONTEXT ( ( #234 ) ) GLOBAL_UNIT_ASSIGNED_CONTEXT ( ( #44, #133, #329 ) ) REPRESENTATION_CONTEXT ( 'NONE', 'WORKASPACE' ) );
#12 = EDGE_CURVE ( 'NONE', #190, #84, #173, .T. ) ;
#13 = ORIENTED_EDGE ( 'NONE', *, *, #145, .F. ) ;
#14 = ORIENTED_EDGE ( 'NONE', *, *, #117, .F. ) ;
#15 = FILL_AREA_STYLE_COLOUR ( '', #200 ) ;
#16 = PRODUCT_DEFINITION_SHAPE ( 'NONE', 'NONE',  #33 ) ;
#17 = CARTESIAN_POINT ( 'NONE',  ( 0.1093500000000000028, 0.3125000000000000000, 1.339151274867630787E-17 ) ) ;
#18 =( LENGTH_UNIT ( ) NAMED_UNIT ( * ) SI_UNIT ( $, .METRE. ) );
#19 = CARTESIAN_POINT ( 'NONE',  ( 0.1250000000000001110, 2.000000000000000000, 1.530808498934191817E-17 ) ) ;
#20 = AXIS2_PLACEMENT_3D ( 'NONE', #93, #90, #339 ) ;
#21 = CIRCLE ( 'NONE', #262, 0.1250000000000000555 ) ;
#22 = PRODUCT ( '82954', '82954', '', ( #81 ) ) ;
#23 = PRESENTATION_LAYER_ASSIGNMENT (  '', '', ( #136 ) ) ;
#24 =( LENGTH_UNIT ( ) NAMED_UNIT ( * ) SI_UNIT ( $, .METRE. ) );
#25 = EDGE_CURVE ( 'NONE', #157, #276, #52, .T. ) ;
#26 = DIMENSIONAL_EXPONENTS ( 1.000000000000000000, 0.000000000000000000, 0.000000000000000000, 0.000000000000000000, 0.000000000000000000, 0.000000000000000000, 0.000000000000000000 ) ;
#27 = CARTESIAN_POINT ( 'NONE',  ( 1.560218949328098644E-18, 0.3554980216144650873, 0.000000000000000000 ) ) ;
#28 = DIRECTION ( 'NONE',  ( 0.000000000000000000, 0.000000000000000000, -1.000000000000000000 ) ) ;
#29 = CARTESIAN_POINT ( 'NONE',  ( 0.000000000000000000, 0.000000000000000000, 0.000000000000000000 ) ) ;
#30 = VERTEX_POINT ( 'NONE', #162 ) ;
#31 = VECTOR ( 'NONE', #210, 39.37007874015748143 ) ;
#32 =( NAMED_UNIT ( * ) SI_UNIT ( $, .STERADIAN. ) SOLID_ANGLE_UNIT ( ) );
#33 = PRODUCT_DEFINITION ( 'UNKNOWN', '', #325, #123 ) ;
#34 = DIRECTION ( 'NONE',  ( -1.000000000000000000, 3.628583108584750472E-17, 0.000000000000000000 ) ) ;
#35 = ORIENTED_EDGE ( 'NONE', *, *, #302, .T. ) ;
#36 = FACE_OUTER_BOUND ( 'NONE', #253, .T. ) ;
#37 = CARTESIAN_POINT ( 'NONE',  ( 0.000000000000000000, 0.000000000000000000, 0.000000000000000000 ) ) ;
#38 = VERTEX_POINT ( 'NONE', #6 ) ;
#39 =( NAMED_UNIT ( * ) SI_UNIT ( $, .STERADIAN. ) SOLID_ANGLE_UNIT ( ) );
#40 = EDGE_CURVE ( 'NONE', #276, #157, #310, .T. ) ;
#41 = AXIS2_PLACEMENT_3D ( 'NONE', #43, #2, #120 ) ;
#42 = FILL_AREA_STYLE ('',( #281 ) ) ;
#43 = CARTESIAN_POINT ( 'NONE',  ( 0.000000000000000000, 0.000000000000000000, 0.000000000000000000 ) ) ;
#44 =( CONVERSION_BASED_UNIT ( 'INCH', #53 ) LENGTH_UNIT ( ) NAMED_UNIT ( #346 ) );
#45 = AXIS2_PLACEMENT_3D ( 'NONE', #155, #183, #99 ) ;
#46 =( NAMED_UNIT ( * ) SI_UNIT ( $, .STERADIAN. ) SOLID_ANGLE_UNIT ( ) );
#47 = CARTESIAN_POINT ( 'NONE',  ( 1.339151274867630787E-17, 0.3125000000000000000, 0.1093500000000000028 ) ) ;
#48 = DIRECTION ( 'NONE',  ( 0.000000000000000000, 0.000000000000000000, -1.000000000000000000 ) ) ;
#49 = DIRECTION ( 'NONE',  ( 3.628583108584750472E-17, 1.000000000000000000, -0.000000000000000000 ) ) ;
#50 = SURFACE_SIDE_STYLE ('',( #129 ) ) ;
#51 = SURFACE_STYLE_USAGE ( .BOTH. , #285 ) ;
#52 = CIRCLE ( 'NONE', #20, 0.1093500000000000028 ) ;
#53 = LENGTH_MEASURE_WITH_UNIT ( LENGTH_MEASURE( 0.02539999999999999897 ), #18 );
#54 = SURFACE_STYLE_USAGE ( .BOTH. , #289 ) ;
#55 = SHAPE_DEFINITION_REPRESENTATION ( #16, #316 ) ;
#56 = MANIFOLD_SOLID_BREP ( 'Revolve - Tool Body (Reduced Cut Diameter)', #177 ) ;
#57 = SURFACE_STYLE_FILL_AREA ( #237 ) ;
#58 = EDGE_CURVE ( 'NONE', #308, #172, #113, .T. ) ;
#59 = FACE_OUTER_BOUND ( 'NONE', #195, .T. ) ;
#60 = CYLINDRICAL_SURFACE ( 'NONE', #245, 0.1250000000000000278 ) ;
#61 =( CONVERSION_BASED_UNIT ( 'INCH', #357 ) LENGTH_UNIT ( ) NAMED_UNIT ( #96 ) );
#62 = VECTOR ( 'NONE', #312, 39.37007874015748143 ) ;
#63 = ORIENTED_EDGE ( 'NONE', *, *, #315, .T. ) ;
#64 = ORIENTED_EDGE ( 'NONE', *, *, #187, .T. ) ;
#65 = DIRECTION ( 'NONE',  ( 0.3420201433256684354, 0.9396926207859085389, 4.188538737676987451E-17 ) ) ;
#66 = CARTESIAN_POINT ( 'NONE',  ( 0.000000000000000000, 0.000000000000000000, 0.000000000000000000 ) ) ;
#67 = ADVANCED_FACE ( 'NONE', ( #36 ), #202, .T. ) ;
#68 = EDGE_LOOP ( 'NONE', ( #321, #169, #109, #122 ) ) ;
#69 = AXIS2_PLACEMENT_3D ( 'NONE', #5, #233, #287 ) ;
#70 =( NAMED_UNIT ( * ) SI_UNIT ( $, .STERADIAN. ) SOLID_ANGLE_UNIT ( ) );
#71 =( GEOMETRIC_REPRESENTATION_CONTEXT ( 3 ) GLOBAL_UNCERTAINTY_ASSIGNED_CONTEXT ( ( #86 ) ) GLOBAL_UNIT_ASSIGNED_CONTEXT ( ( #131, #353, #32 ) ) REPRESENTATION_CONTEXT ( 'NONE', 'WORKASPACE' ) );
#72 = PRESENTATION_LAYER_ASSIGNMENT (  '', '', ( #311 ) ) ;
#73 = ADVANCED_FACE ( 'NONE', ( #217 ), #100, .T. ) ;
#74 = SURFACE_STYLE_USAGE ( .BOTH. , #207 ) ;
#75 = DIMENSIONAL_EXPONENTS ( 1.000000000000000000, 0.000000000000000000, 0.000000000000000000, 0.000000000000000000, 0.000000000000000000, 0.000000000000000000, 0.000000000000000000 ) ;
#76 = DIRECTION ( 'NONE',  ( 1.000000000000000000, 0.000000000000000000, 0.000000000000000000 ) ) ;
#77 = ORIENTED_EDGE ( 'NONE', *, *, #328, .T. ) ;
#78 = DIRECTION ( 'NONE',  ( 3.628583108584750472E-17, 1.000000000000000000, -0.000000000000000000 ) ) ;
#79 = DIRECTION ( 'NONE',  ( 3.628583108584750472E-17, 1.000000000000000000, -0.000000000000000000 ) ) ;
#80 = EDGE_CURVE ( 'NONE', #276, #30, #104, .T. ) ;
#81 = PRODUCT_CONTEXT ( 'NONE', #240, 'mechanical' ) ;
#82 = ORIENTED_EDGE ( 'NONE', *, *, #117, .T. ) ;
#83 =( NAMED_UNIT ( * ) PLANE_ANGLE_UNIT ( ) SI_UNIT ( $, .RADIAN. ) );
#84 = VERTEX_POINT ( 'NONE', #186 ) ;
#85 = AXIS2_PLACEMENT_3D ( 'NONE', #340, #307, #48 ) ;
#86 = UNCERTAINTY_MEASURE_WITH_UNIT (LENGTH_MEASURE( 1.000000000000000082E-05 ), #131, 'distance_accuracy_value', 'NONE');
#87 = LINE ( 'NONE', #158, #153 ) ;
#88 = FILL_AREA_STYLE ('',( #15 ) ) ;
#89 = ADVANCED_FACE ( 'NONE', ( #138 ), #345, .F. ) ;
#90 = DIRECTION ( 'NONE',  ( 3.628583108584750472E-17, 1.000000000000000000, -0.000000000000000000 ) ) ;
#91 = UNCERTAINTY_MEASURE_WITH_UNIT (LENGTH_MEASURE( 1.000000000000000082E-05 ), #61, 'distance_accuracy_value', 'NONE');
#92 = ORIENTED_EDGE ( 'NONE', *, *, #58, .F. ) ;
#93 = CARTESIAN_POINT ( 'NONE',  ( 0.000000000000000000, 0.3125000000000000000, 0.000000000000000000 ) ) ;
#94 = CARTESIAN_POINT ( 'NONE',  ( 1.339151274867630787E-17, 0.000000000000000000, 0.1093500000000000028 ) ) ;
#95 = CARTESIAN_POINT ( 'NONE',  ( 7.198846956776918904E-35, 0.3125000000000000000, 0.000000000000000000 ) ) ;
#96 = DIMENSIONAL_EXPONENTS ( 1.000000000000000000, 0.000000000000000000, 0.000000000000000000, 0.000000000000000000, 0.000000000000000000, 0.000000000000000000, 0.000000000000000000 ) ;
#97 = LENGTH_MEASURE_WITH_UNIT ( LENGTH_MEASURE( 0.02539999999999999897 ), #24 );
#98 = EDGE_CURVE ( 'NONE', #84, #190, #283, .T. ) ;
#99 = DIRECTION ( 'NONE',  ( -1.000000000000000000, 0.000000000000000000, 0.000000000000000000 ) ) ;
#100 = CYLINDRICAL_SURFACE ( 'NONE', #286, 0.1093500000000000028 ) ;
#101 = STYLED_ITEM ( 'NONE', ( #201 ), #56 ) ;
#102 = ORIENTED_EDGE ( 'NONE', *, *, #292, .T. ) ;
#103 = CIRCLE ( 'NONE', #330, 0.1093500000000000028 ) ;
#104 = LINE ( 'NONE', #318, #174 ) ;
#105 =( NAMED_UNIT ( * ) SI_UNIT ( $, .STERADIAN. ) SOLID_ANGLE_UNIT ( ) );
#106 = ORIENTED_EDGE ( 'NONE', *, *, #328, .F. ) ;
#107 = FILL_AREA_STYLE ('',( #218 ) ) ;
#108 = CARTESIAN_POINT ( 'NONE',  ( 0.000000000000000000, 0.000000000000000000, -0.1093500000000000028 ) ) ;
#109 = ORIENTED_EDGE ( 'NONE', *, *, #98, .F. ) ;
#110 = LENGTH_MEASURE_WITH_UNIT ( LENGTH_MEASURE( 0.02539999999999999897 ), #198 );
#111 = DIRECTION ( 'NONE',  ( -1.000000000000000000, 0.000000000000000000, 0.000000000000000000 ) ) ;
#112 = ORIENTED_EDGE ( 'NONE', *, *, #80, .T. ) ;
#113 = CIRCLE ( 'NONE', #255, 0.1093500000000000028 ) ;
#114 = PRESENTATION_LAYER_ASSIGNMENT (  '', '', ( #291 ) ) ;
#115 = VERTEX_POINT ( 'NONE', #108 ) ;
#116 = DIRECTION ( 'NONE',  ( 0.000000000000000000, -0.000000000000000000, 1.000000000000000000 ) ) ;
#117 = EDGE_CURVE ( 'NONE', #308, #115, #191, .T. ) ;
#118 = ORIENTED_EDGE ( 'NONE', *, *, #315, .F. ) ;
#119 = VECTOR ( 'NONE', #239, 39.37007874015748143 ) ;
#120 = DIRECTION ( 'NONE',  ( 0.000000000000000000, 0.000000000000000000, -1.000000000000000000 ) ) ;
#121 = CARTESIAN_POINT ( 'NONE',  ( 0.000000000000000000, 0.3125000000000000000, 0.000000000000000000 ) ) ;
#122 = ORIENTED_EDGE ( 'NONE', *, *, #302, .F. ) ;
#123 = PRODUCT_DEFINITION_CONTEXT ( 'detailed design', #332, 'design' ) ;
#124 = AXIS2_PLACEMENT_3D ( 'NONE', #229, #331, #199 ) ;
#125 =( GEOMETRIC_REPRESENTATION_CONTEXT ( 3 ) GLOBAL_UNCERTAINTY_ASSIGNED_CONTEXT ( ( #260 ) ) GLOBAL_UNIT_ASSIGNED_CONTEXT ( ( #211, #320, #39 ) ) REPRESENTATION_CONTEXT ( 'NONE', 'WORKASPACE' ) );
#126 = FACE_OUTER_BOUND ( 'NONE', #356, .T. ) ;
#127 = LINE ( 'NONE', #94, #62 ) ;
#128 = ORIENTED_EDGE ( 'NONE', *, *, #40, .F. ) ;
#129 = SURFACE_STYLE_FILL_AREA ( #88 ) ;
#130 = DIRECTION ( 'NONE',  ( -1.000000000000000000, 0.000000000000000000, 0.000000000000000000 ) ) ;
#131 =( CONVERSION_BASED_UNIT ( 'INCH', #110 ) LENGTH_UNIT ( ) NAMED_UNIT ( #75 ) );
#132 = DIRECTION ( 'NONE',  ( 0.000000000000000000, -1.000000000000000000, -0.000000000000000000 ) ) ;
#133 =( NAMED_UNIT ( * ) PLANE_ANGLE_UNIT ( ) SI_UNIT ( $, .RADIAN. ) );
#134 =( GEOMETRIC_REPRESENTATION_CONTEXT ( 3 ) GLOBAL_UNCERTAINTY_ASSIGNED_CONTEXT ( ( #258 ) ) GLOBAL_UNIT_ASSIGNED_CONTEXT ( ( #327, #83, #46 ) ) REPRESENTATION_CONTEXT ( 'NONE', 'WORKASPACE' ) );
#135 = EDGE_LOOP ( 'NONE', ( #92, #106 ) ) ;
#136 = STYLED_ITEM ( 'NONE', ( #313 ), #358 ) ;
#137 =( NAMED_UNIT ( * ) SI_UNIT ( $, .STERADIAN. ) SOLID_ANGLE_UNIT ( ) );
#138 = FACE_OUTER_BOUND ( 'NONE', #350, .T. ) ;
#139 = APPLICATION_PROTOCOL_DEFINITION ( 'draft international standard', 'automotive_design', 1998, #240 ) ;
#140 = ORIENTED_EDGE ( 'NONE', *, *, #25, .F. ) ;
#141 = SURFACE_STYLE_FILL_AREA ( #42 ) ;
#142 = CIRCLE ( 'NONE', #45, 0.1250000000000000555 ) ;
#143 = AXIS2_PLACEMENT_3D ( 'NONE', #37, #224, #76 ) ;
#144 = DIRECTION ( 'NONE',  ( -1.000000000000000000, 0.000000000000000000, 0.000000000000000000 ) ) ;
#145 = EDGE_CURVE ( 'NONE', #30, #246, #21, .T. ) ;
#146 = SURFACE_STYLE_FILL_AREA ( #107 ) ;
#147 = PRESENTATION_STYLE_ASSIGNMENT (( #74 ) ) ;
#148 = CYLINDRICAL_SURFACE ( 'NONE', #192, 0.1250000000000000278 ) ;
#149 = CARTESIAN_POINT ( 'NONE',  ( 0.000000000000000000, 0.3125000000000000000, -0.1093500000000000028 ) ) ;
#150 = SURFACE_STYLE_USAGE ( .BOTH. , #50 ) ;
#151 = PRESENTATION_STYLE_ASSIGNMENT (( #150 ) ) ;
#152 = MECHANICAL_DESIGN_GEOMETRIC_PRESENTATION_REPRESENTATION (  '', ( #101 ), #71 ) ;
#153 = VECTOR ( 'NONE', #208, 39.37007874015748143 ) ;
#154 =( GEOMETRIC_REPRESENTATION_CONTEXT ( 3 ) GLOBAL_UNCERTAINTY_ASSIGNED_CONTEXT ( ( #355 ) ) GLOBAL_UNIT_ASSIGNED_CONTEXT ( ( #335, #161, #137 ) ) REPRESENTATION_CONTEXT ( 'NONE', 'WORKASPACE' ) );
#155 = CARTESIAN_POINT ( 'NONE',  ( 1.560218949328098644E-18, 0.3554980216144650873, 0.000000000000000000 ) ) ;
#156 = ADVANCED_FACE ( 'NONE', ( #230 ), #272, .T. ) ;
#157 = VERTEX_POINT ( 'NONE', #304 ) ;
#158 = CARTESIAN_POINT ( 'NONE',  ( -0.1249999999999999584, 2.000000000000000000, 0.000000000000000000 ) ) ;
#159 = ADVANCED_FACE ( 'NONE', ( #126 ), #160, .T. ) ;
#160 = CONICAL_SURFACE ( 'NONE', #69, 0.1093500000000000028, 0.3490658503988654515 ) ;
#161 =( NAMED_UNIT ( * ) PLANE_ANGLE_UNIT ( ) SI_UNIT ( $, .RADIAN. ) );
#162 = CARTESIAN_POINT ( 'NONE',  ( -0.1250000000000000555, 0.3554980216144650873, 0.000000000000000000 ) ) ;
#163 = CARTESIAN_POINT ( 'NONE',  ( 0.000000000000000000, 0.000000000000000000, 0.000000000000000000 ) ) ;
#164 = DIRECTION ( 'NONE',  ( -0.3420201433256683243, 0.9396926207859085389, 0.000000000000000000 ) ) ;
#165 = COLOUR_RGB ( '',1.000000000000000000, 0.000000000000000000, 0.000000000000000000 ) ;
#166 = EDGE_LOOP ( 'NONE', ( #265, #77, #82, #277 ) ) ;
#167 = DIRECTION ( 'NONE',  ( 0.000000000000000000, 0.000000000000000000, -1.000000000000000000 ) ) ;
#168 = ORIENTED_EDGE ( 'NONE', *, *, #323, .T. ) ;
#169 = ORIENTED_EDGE ( 'NONE', *, *, #259, .T. ) ;
#170 = FILL_AREA_STYLE_COLOUR ( '', #342 ) ;
#171 = DIRECTION ( 'NONE',  ( 3.628583108584750472E-17, 1.000000000000000000, -0.000000000000000000 ) ) ;
#172 = VERTEX_POINT ( 'NONE', #47 ) ;
#173 = CIRCLE ( 'NONE', #222, 0.1250000000000000000 ) ;
#174 = VECTOR ( 'NONE', #164, 39.37007874015748143 ) ;
#175 = MANIFOLD_SOLID_BREP ( 'Revolve - Cutting Edge', #10 ) ;
#176 = EDGE_LOOP ( 'NONE', ( #341, #352 ) ) ;
#177 = CLOSED_SHELL ( 'NONE', ( #351, #159, #89, #67, #306, #219 ) ) ;
#178 = LINE ( 'NONE', #17, #188 ) ;
#179 = SURFACE_STYLE_FILL_AREA ( #203 ) ;
#180 = EDGE_CURVE ( 'NONE', #246, #30, #142, .T. ) ;
#181 = CARTESIAN_POINT ( 'NONE',  ( 0.1250000000000000833, 2.000000000000000000, 1.530808498934192125E-17 ) ) ;
#182 = AXIS2_PLACEMENT_3D ( 'NONE', #336, #231, #130 ) ;
#183 = DIRECTION ( 'NONE',  ( 3.628583108584750472E-17, 1.000000000000000000, -0.000000000000000000 ) ) ;
#184 = CARTESIAN_POINT ( 'NONE',  ( 0.1250000000000000555, 0.3554980216144650873, 1.530808498934192125E-17 ) ) ;
#185 = DIRECTION ( 'NONE',  ( -0.000000000000000000, -1.000000000000000000, -0.000000000000000000 ) ) ;
#186 = CARTESIAN_POINT ( 'NONE',  ( -0.1249999999999999306, 2.000000000000000000, 0.000000000000000000 ) ) ;
#187 = EDGE_CURVE ( 'NONE', #115, #38, #103, .T. ) ;
#188 = VECTOR ( 'NONE', #65, 39.37007874015748143 ) ;
#189 = DIRECTION ( 'NONE',  ( 0.000000000000000000, 0.000000000000000000, -1.000000000000000000 ) ) ;
#190 = VERTEX_POINT ( 'NONE', #181 ) ;
#191 = LINE ( 'NONE', #241, #31 ) ;
#192 = AXIS2_PLACEMENT_3D ( 'NONE', #295, #79, #271 ) ;
#193 = MECHANICAL_DESIGN_GEOMETRIC_PRESENTATION_REPRESENTATION (  '', ( #136 ), #125 ) ;
#194 = CARTESIAN_POINT ( 'NONE',  ( 0.000000000000000000, 0.3125000000000000000, 0.000000000000000000 ) ) ;
#195 = EDGE_LOOP ( 'NONE', ( #64, #102 ) ) ;
#196 = SURFACE_SIDE_STYLE ('',( #141 ) ) ;
#197 = APPLICATION_PROTOCOL_DEFINITION ( 'draft international standard', 'automotive_design', 1998, #332 ) ;
#198 =( LENGTH_UNIT ( ) NAMED_UNIT ( * ) SI_UNIT ( $, .METRE. ) );
#199 = DIRECTION ( 'NONE',  ( 0.000000000000000000, 0.000000000000000000, -1.000000000000000000 ) ) ;
#200 = COLOUR_RGB ( '',0.7921568627450980005, 0.8196078431372548767, 0.9333333333333333481 ) ;
#201 = PRESENTATION_STYLE_ASSIGNMENT (( #51 ) ) ;
#202 = CONICAL_SURFACE ( 'NONE', #252, 0.1093500000000000028, 0.3490658503988654515 ) ;
#203 = FILL_AREA_STYLE ('',( #334 ) ) ;
#204 = CARTESIAN_POINT ( 'NONE',  ( 0.1250000000000000555, 2.000000000000000000, 0.000000000000000000 ) ) ;
#205 = CIRCLE ( 'NONE', #85, 0.1093500000000000028 ) ;
#206 = DIRECTION ( 'NONE',  ( 1.000000000000000000, -3.628583108584750472E-17, 0.000000000000000000 ) ) ;
#207 = SURFACE_SIDE_STYLE ('',( #57 ) ) ;
#208 = DIRECTION ( 'NONE',  ( 3.628583108584750472E-17, 1.000000000000000000, -0.000000000000000000 ) ) ;
#209 = CARTESIAN_POINT ( 'NONE',  ( -0.1093500000000000028, 0.3125000000000000000, 0.000000000000000000 ) ) ;
#210 = DIRECTION ( 'NONE',  ( -0.000000000000000000, -1.000000000000000000, -0.000000000000000000 ) ) ;
#211 =( CONVERSION_BASED_UNIT ( 'INCH', #97 ) LENGTH_UNIT ( ) NAMED_UNIT ( #244 ) );
#212 = FILL_AREA_STYLE_COLOUR ( '', #305 ) ;
#213 = DIRECTION ( 'NONE',  ( 3.628583108584750472E-17, 1.000000000000000000, -0.000000000000000000 ) ) ;
#214 = AXIS2_PLACEMENT_3D ( 'NONE', #247, #213, #273 ) ;
#215 = DIRECTION ( 'NONE',  ( 0.000000000000000000, 0.000000000000000000, -1.000000000000000000 ) ) ;
#216 = AXIS2_PLACEMENT_3D ( 'NONE', #29, #132, #215 ) ;
#217 = FACE_OUTER_BOUND ( 'NONE', #166, .T. ) ;
#218 = FILL_AREA_STYLE_COLOUR ( '', #165 ) ;
#219 = ADVANCED_FACE ( 'NONE', ( #226 ), #8, .F. ) ;
#220 = ORIENTED_EDGE ( 'NONE', *, *, #259, .F. ) ;
#221 = UNCERTAINTY_MEASURE_WITH_UNIT (LENGTH_MEASURE( 1.000000000000000082E-05 ), #7, 'distance_accuracy_value', 'NONE');
#222 = AXIS2_PLACEMENT_3D ( 'NONE', #264, #49, #9 ) ;
#223 = AXIS2_PLACEMENT_3D ( 'NONE', #300, #359, #116 ) ;
#224 = DIRECTION ( 'NONE',  ( 0.000000000000000000, 0.000000000000000000, 1.000000000000000000 ) ) ;
#225 = ORIENTED_EDGE ( 'NONE', *, *, #180, .T. ) ;
#226 = FACE_OUTER_BOUND ( 'NONE', #176, .T. ) ;
#227 = ORIENTED_EDGE ( 'NONE', *, *, #58, .T. ) ;
#228 = STYLED_ITEM ( 'NONE', ( #147 ), #73 ) ;
#229 = CARTESIAN_POINT ( 'NONE',  ( 0.000000000000000000, 0.000000000000000000, 0.000000000000000000 ) ) ;
#230 = FACE_OUTER_BOUND ( 'NONE', #135, .T. ) ;
#231 = DIRECTION ( 'NONE',  ( 3.628583108584750472E-17, 1.000000000000000000, -0.000000000000000000 ) ) ;
#232 = LENGTH_MEASURE_WITH_UNIT ( LENGTH_MEASURE( 0.02539999999999999897 ), #282 );
#233 = DIRECTION ( 'NONE',  ( 3.628583108584750472E-17, 1.000000000000000000, -0.000000000000000000 ) ) ;
#234 = UNCERTAINTY_MEASURE_WITH_UNIT (LENGTH_MEASURE( 1.000000000000000082E-05 ), #44, 'distance_accuracy_value', 'NONE');
#235 =( NAMED_UNIT ( * ) PLANE_ANGLE_UNIT ( ) SI_UNIT ( $, .RADIAN. ) );
#236 = FACE_OUTER_BOUND ( 'NONE', #68, .T. ) ;
#237 = FILL_AREA_STYLE ('',( #212 ) ) ;
#238 = MECHANICAL_DESIGN_GEOMETRIC_PRESENTATION_REPRESENTATION (  '', ( #228 ), #317 ) ;
#239 = DIRECTION ( 'NONE',  ( 3.628583108584750472E-17, 1.000000000000000000, -0.000000000000000000 ) ) ;
#240 = APPLICATION_CONTEXT ( 'automotive_design' ) ;
#241 = CARTESIAN_POINT ( 'NONE',  ( 0.000000000000000000, 0.000000000000000000, -0.1093500000000000028 ) ) ;
#242 = ORIENTED_EDGE ( 'NONE', *, *, #40, .T. ) ;
#243 = FACE_OUTER_BOUND ( 'NONE', #349, .T. ) ;
#244 = DIMENSIONAL_EXPONENTS ( 1.000000000000000000, 0.000000000000000000, 0.000000000000000000, 0.000000000000000000, 0.000000000000000000, 0.000000000000000000, 0.000000000000000000 ) ;
#245 = AXIS2_PLACEMENT_3D ( 'NONE', #293, #309, #111 ) ;
#246 = VERTEX_POINT ( 'NONE', #184 ) ;
#247 = CARTESIAN_POINT ( 'NONE',  ( 6.123233995736766036E-17, 2.000000000000000000, 0.000000000000000000 ) ) ;
#248 = SURFACE_STYLE_USAGE ( .BOTH. , #196 ) ;
#249 = PLANE ( 'NONE',  #216 ) ;
#250 =( LENGTH_UNIT ( ) NAMED_UNIT ( * ) SI_UNIT ( $, .METRE. ) );
#251 =( LENGTH_UNIT ( ) NAMED_UNIT ( * ) SI_UNIT ( $, .METRE. ) );
#252 = AXIS2_PLACEMENT_3D ( 'NONE', #194, #171, #344 ) ;
#253 = EDGE_LOOP ( 'NONE', ( #118, #279, #112, #299 ) ) ;
#254 = CYLINDRICAL_SURFACE ( 'NONE', #41, 0.1093500000000000028 ) ;
#255 = AXIS2_PLACEMENT_3D ( 'NONE', #121, #322, #167 ) ;
#256 = COLOUR_RGB ( '',1.000000000000000000, 0.000000000000000000, 0.000000000000000000 ) ;
#257 =( GEOMETRIC_REPRESENTATION_CONTEXT ( 3 ) GLOBAL_UNCERTAINTY_ASSIGNED_CONTEXT ( ( #91 ) ) GLOBAL_UNIT_ASSIGNED_CONTEXT ( ( #61, #275, #105 ) ) REPRESENTATION_CONTEXT ( 'NONE', 'WORKASPACE' ) );
#258 = UNCERTAINTY_MEASURE_WITH_UNIT (LENGTH_MEASURE( 1.000000000000000082E-05 ), #327, 'distance_accuracy_value', 'NONE');
#259 = EDGE_CURVE ( 'NONE', #246, #190, #288, .T. ) ;
#260 = UNCERTAINTY_MEASURE_WITH_UNIT (LENGTH_MEASURE( 1.000000000000000082E-05 ), #211, 'distance_accuracy_value', 'NONE');
#261 = COLOUR_RGB ( '',0.7921568627450980005, 0.8196078431372548767, 0.9333333333333333481 ) ;
#262 = AXIS2_PLACEMENT_3D ( 'NONE', #27, #314, #144 ) ;
#263 = SURFACE_STYLE_USAGE ( .BOTH. , #298 ) ;
#264 = CARTESIAN_POINT ( 'NONE',  ( 6.123233995736766036E-17, 2.000000000000000000, 0.000000000000000000 ) ) ;
#265 = ORIENTED_EDGE ( 'NONE', *, *, #323, .F. ) ;
#266 = ORIENTED_EDGE ( 'NONE', *, *, #187, .F. ) ;
#267 = DIRECTION ( 'NONE',  ( -3.628583108584750472E-17, -1.000000000000000000, 0.000000000000000000 ) ) ;
#268 = PRESENTATION_LAYER_ASSIGNMENT (  '', '', ( #101 ) ) ;
#269 = MECHANICAL_DESIGN_GEOMETRIC_PRESENTATION_REPRESENTATION (  '', ( #3 ), #154 ) ;
#270 = DIRECTION ( 'NONE',  ( -0.000000000000000000, -1.000000000000000000, -0.000000000000000000 ) ) ;
#271 = DIRECTION ( 'NONE',  ( -1.000000000000000000, 0.000000000000000000, 0.000000000000000000 ) ) ;
#272 = PLANE ( 'NONE',  #223 ) ;
#273 = DIRECTION ( 'NONE',  ( -1.000000000000000000, 0.000000000000000000, 0.000000000000000000 ) ) ;
#274 = AXIS2_PLACEMENT_3D ( 'NONE', #204, #267, #206 ) ;
#275 =( NAMED_UNIT ( * ) PLANE_ANGLE_UNIT ( ) SI_UNIT ( $, .RADIAN. ) );
#276 = VERTEX_POINT ( 'NONE', #209 ) ;
#277 = ORIENTED_EDGE ( 'NONE', *, *, #292, .F. ) ;
#278 = LENGTH_MEASURE_WITH_UNIT ( LENGTH_MEASURE( 0.02539999999999999897 ), #250 );
#279 = ORIENTED_EDGE ( 'NONE', *, *, #25, .T. ) ;
#280 = ADVANCED_FACE ( 'NONE', ( #243 ), #254, .T. ) ;
#281 = FILL_AREA_STYLE_COLOUR ( '', #256 ) ;
#282 =( LENGTH_UNIT ( ) NAMED_UNIT ( * ) SI_UNIT ( $, .METRE. ) );
#283 = CIRCLE ( 'NONE', #214, 0.1250000000000000000 ) ;
#284 = LENGTH_MEASURE_WITH_UNIT ( LENGTH_MEASURE( 0.02539999999999999897 ), #4 );
#285 = SURFACE_SIDE_STYLE ('',( #179 ) ) ;
#286 = AXIS2_PLACEMENT_3D ( 'NONE', #66, #270, #189 ) ;
#287 = DIRECTION ( 'NONE',  ( -1.000000000000000000, 0.000000000000000000, 0.000000000000000000 ) ) ;
#288 = LINE ( 'NONE', #19, #119 ) ;
#289 = SURFACE_SIDE_STYLE ('',( #333 ) ) ;
#290 = DIMENSIONAL_EXPONENTS ( 1.000000000000000000, 0.000000000000000000, 0.000000000000000000, 0.000000000000000000, 0.000000000000000000, 0.000000000000000000, 0.000000000000000000 ) ;
#291 = STYLED_ITEM ( 'NONE', ( #354 ), #156 ) ;
#292 = EDGE_CURVE ( 'NONE', #38, #115, #348, .T. ) ;
#293 = CARTESIAN_POINT ( 'NONE',  ( 6.123233995736766036E-17, 2.000000000000000000, 0.000000000000000000 ) ) ;
#294 = PRODUCT_RELATED_PRODUCT_CATEGORY ( 'part', '', ( #22 ) ) ;
#295 = CARTESIAN_POINT ( 'NONE',  ( 6.123233995736766036E-17, 2.000000000000000000, 0.000000000000000000 ) ) ;
#296 = ORIENTED_EDGE ( 'NONE', *, *, #12, .F. ) ;
#297 = PRESENTATION_LAYER_ASSIGNMENT (  '', '', ( #228 ) ) ;
#298 = SURFACE_SIDE_STYLE ('',( #146 ) ) ;
#299 = ORIENTED_EDGE ( 'NONE', *, *, #180, .F. ) ;
#300 = CARTESIAN_POINT ( 'NONE',  ( 0.000000000000000000, 0.3125000000000000000, 0.000000000000000000 ) ) ;
#301 = ORIENTED_EDGE ( 'NONE', *, *, #80, .F. ) ;
#302 = EDGE_CURVE ( 'NONE', #30, #84, #87, .T. ) ;
#303 = PRESENTATION_LAYER_ASSIGNMENT (  '', '', ( #3 ) ) ;
#304 = CARTESIAN_POINT ( 'NONE',  ( 0.1093500000000000028, 0.3125000000000000000, 1.434979886900911610E-17 ) ) ;
#305 = COLOUR_RGB ( '',1.000000000000000000, 0.000000000000000000, 0.000000000000000000 ) ;
#306 = ADVANCED_FACE ( 'NONE', ( #319 ), #60, .T. ) ;
#307 = DIRECTION ( 'NONE',  ( -0.000000000000000000, -1.000000000000000000, -0.000000000000000000 ) ) ;
#308 = VERTEX_POINT ( 'NONE', #149 ) ;
#309 = DIRECTION ( 'NONE',  ( 3.628583108584750472E-17, 1.000000000000000000, -0.000000000000000000 ) ) ;
#310 = CIRCLE ( 'NONE', #182, 0.1093500000000000028 ) ;
#311 = STYLED_ITEM ( 'NONE', ( #151 ), #175 ) ;
#312 = DIRECTION ( 'NONE',  ( -0.000000000000000000, -1.000000000000000000, -0.000000000000000000 ) ) ;
#313 = PRESENTATION_STYLE_ASSIGNMENT (( #54 ) ) ;
#314 = DIRECTION ( 'NONE',  ( 3.628583108584750472E-17, 1.000000000000000000, -0.000000000000000000 ) ) ;
#315 = EDGE_CURVE ( 'NONE', #157, #246, #178, .T. ) ;
#316 = ADVANCED_BREP_SHAPE_REPRESENTATION ( '82954', ( #175, #56, #143 ), #257 ) ;
#317 =( GEOMETRIC_REPRESENTATION_CONTEXT ( 3 ) GLOBAL_UNCERTAINTY_ASSIGNED_CONTEXT ( ( #221 ) ) GLOBAL_UNIT_ASSIGNED_CONTEXT ( ( #7, #235, #70 ) ) REPRESENTATION_CONTEXT ( 'NONE', 'WORKASPACE' ) );
#318 = CARTESIAN_POINT ( 'NONE',  ( -0.1093500000000000028, 0.3125000000000000000, 0.000000000000000000 ) ) ;
#319 = FACE_OUTER_BOUND ( 'NONE', #326, .T. ) ;
#320 =( NAMED_UNIT ( * ) PLANE_ANGLE_UNIT ( ) SI_UNIT ( $, .RADIAN. ) );
#321 = ORIENTED_EDGE ( 'NONE', *, *, #145, .T. ) ;
#322 = DIRECTION ( 'NONE',  ( -0.000000000000000000, -1.000000000000000000, -0.000000000000000000 ) ) ;
#323 = EDGE_CURVE ( 'NONE', #172, #38, #127, .T. ) ;
#324 = AXIS2_PLACEMENT_3D ( 'NONE', #95, #78, #34 ) ;
#325 = PRODUCT_DEFINITION_FORMATION_WITH_SPECIFIED_SOURCE ( 'ANY', '', #22, .NOT_KNOWN. ) ;
#326 = EDGE_LOOP ( 'NONE', ( #220, #225, #35, #296 ) ) ;
#327 =( CONVERSION_BASED_UNIT ( 'INCH', #278 ) LENGTH_UNIT ( ) NAMED_UNIT ( #343 ) );
#328 = EDGE_CURVE ( 'NONE', #172, #308, #205, .T. ) ;
#329 =( NAMED_UNIT ( * ) SI_UNIT ( $, .STERADIAN. ) SOLID_ANGLE_UNIT ( ) );
#330 = AXIS2_PLACEMENT_3D ( 'NONE', #163, #185, #28 ) ;
#331 = DIRECTION ( 'NONE',  ( -0.000000000000000000, -1.000000000000000000, -0.000000000000000000 ) ) ;
#332 = APPLICATION_CONTEXT ( 'automotive_design' ) ;
#333 = SURFACE_STYLE_FILL_AREA ( #1 ) ;
#334 = FILL_AREA_STYLE_COLOUR ( '', #261 ) ;
#335 =( CONVERSION_BASED_UNIT ( 'INCH', #232 ) LENGTH_UNIT ( ) NAMED_UNIT ( #26 ) );
#336 = CARTESIAN_POINT ( 'NONE',  ( 0.000000000000000000, 0.3125000000000000000, 0.000000000000000000 ) ) ;
#337 = MECHANICAL_DESIGN_GEOMETRIC_PRESENTATION_REPRESENTATION (  '', ( #311 ), #11 ) ;
#338 = PRESENTATION_STYLE_ASSIGNMENT (( #263 ) ) ;
#339 = DIRECTION ( 'NONE',  ( -1.000000000000000000, 0.000000000000000000, 0.000000000000000000 ) ) ;
#340 = CARTESIAN_POINT ( 'NONE',  ( 0.000000000000000000, 0.3125000000000000000, 0.000000000000000000 ) ) ;
#341 = ORIENTED_EDGE ( 'NONE', *, *, #98, .T. ) ;
#342 = COLOUR_RGB ( '',1.000000000000000000, 0.000000000000000000, 0.000000000000000000 ) ;
#343 = DIMENSIONAL_EXPONENTS ( 1.000000000000000000, 0.000000000000000000, 0.000000000000000000, 0.000000000000000000, 0.000000000000000000, 0.000000000000000000, 0.000000000000000000 ) ;
#344 = DIRECTION ( 'NONE',  ( -1.000000000000000000, 0.000000000000000000, 0.000000000000000000 ) ) ;
#345 = PLANE ( 'NONE',  #324 ) ;
#346 = DIMENSIONAL_EXPONENTS ( 1.000000000000000000, 0.000000000000000000, 0.000000000000000000, 0.000000000000000000, 0.000000000000000000, 0.000000000000000000, 0.000000000000000000 ) ;
#347 = MECHANICAL_DESIGN_GEOMETRIC_PRESENTATION_REPRESENTATION (  '', ( #291 ), #134 ) ;
#348 = CIRCLE ( 'NONE', #124, 0.1093500000000000028 ) ;
#349 = EDGE_LOOP ( 'NONE', ( #227, #168, #266, #14 ) ) ;
#350 = EDGE_LOOP ( 'NONE', ( #128, #140 ) ) ;
#351 = ADVANCED_FACE ( 'NONE', ( #236 ), #148, .T. ) ;
#352 = ORIENTED_EDGE ( 'NONE', *, *, #12, .T. ) ;
#353 =( NAMED_UNIT ( * ) PLANE_ANGLE_UNIT ( ) SI_UNIT ( $, .RADIAN. ) );
#354 = PRESENTATION_STYLE_ASSIGNMENT (( #248 ) ) ;
#355 = UNCERTAINTY_MEASURE_WITH_UNIT (LENGTH_MEASURE( 1.000000000000000082E-05 ), #335, 'distance_accuracy_value', 'NONE');
#356 = EDGE_LOOP ( 'NONE', ( #242, #63, #13, #301 ) ) ;
#357 = LENGTH_MEASURE_WITH_UNIT ( LENGTH_MEASURE( 0.02539999999999999897 ), #251 );
#358 = ADVANCED_FACE ( 'NONE', ( #59 ), #249, .T. ) ;
#359 = DIRECTION ( 'NONE',  ( 0.000000000000000000, 1.000000000000000000, 0.000000000000000000 ) ) ;
ENDSEC;
END-ISO-10303-21;
