ISO-10303-21;
HEADER;
FILE_DESCRIPTION (( 'STEP AP214' ),
    '1' );
FILE_NAME ('82255.STEP',
    '2023-06-23T04:18:07',
    ( '' ),
    ( '' ),
    'SwSTEP 2.0',
    'SolidWorks 2023',
    '' );
FILE_SCHEMA (( 'AUTOMOTIVE_DESIGN' ));
ENDSEC;

DATA;
#1 = APPLICATION_CONTEXT ( 'automotive_design' ) ;
#2 = DIRECTION ( 'NONE',  ( 0.000000000000000000, -1.000000000000000000, -0.000000000000000000 ) ) ;
#3 = EDGE_CURVE ( 'NONE', #267, #222, #63, .T. ) ;
#4 = COLOUR_RGB ( '',1.000000000000000000, 0.000000000000000000, 0.000000000000000000 ) ;
#5 = DIRECTION ( 'NONE',  ( -3.378335997647874040E-17, 1.000000000000000000, 0.000000000000000000 ) ) ;
#6 = VERTEX_POINT ( 'NONE', #230 ) ;
#7 = FACE_OUTER_BOUND ( 'NONE', #245, .T. ) ;
#8 = FACE_OUTER_BOUND ( 'NONE', #240, .T. ) ;
#9 = DIRECTION ( 'NONE',  ( -3.378335997647874040E-17, 1.000000000000000000, -0.000000000000000000 ) ) ;
#10 =( NAMED_UNIT ( * ) SI_UNIT ( $, .STERADIAN. ) SOLID_ANGLE_UNIT ( ) );
#11 = ORIENTED_EDGE ( 'NONE', *, *, #65, .F. ) ;
#12 = CIRCLE ( 'NONE', #74, 0.09375000000000001388 ) ;
#13 = AXIS2_PLACEMENT_3D ( 'NONE', #188, #215, #189 ) ;
#14 = DIRECTION ( 'NONE',  ( -0.000000000000000000, -1.000000000000000000, -0.000000000000000000 ) ) ;
#15 = DIRECTION ( 'NONE',  ( -0.000000000000000000, -1.000000000000000000, -0.000000000000000000 ) ) ;
#16 = EDGE_CURVE ( 'NONE', #6, #98, #122, .T. ) ;
#17 = FILL_AREA_STYLE ('',( #162 ) ) ;
#18 = CIRCLE ( 'NONE', #255, 0.09375000000000006939 ) ;
#19 = MECHANICAL_DESIGN_GEOMETRIC_PRESENTATION_REPRESENTATION (  '', ( #75 ), #249 ) ;
#20 = LENGTH_MEASURE_WITH_UNIT ( LENGTH_MEASURE( 0.02539999999999999897 ), #69 );
#21 = SURFACE_STYLE_USAGE ( .BOTH. , #117 ) ;
#22 = ORIENTED_EDGE ( 'NONE', *, *, #110, .T. ) ;
#23 = STYLED_ITEM ( 'NONE', ( #307 ), #269 ) ;
#24 =( NAMED_UNIT ( * ) SI_UNIT ( $, .STERADIAN. ) SOLID_ANGLE_UNIT ( ) );
#25 = PRESENTATION_STYLE_ASSIGNMENT (( #196 ) ) ;
#26 = ORIENTED_EDGE ( 'NONE', *, *, #219, .T. ) ;
#27 = VECTOR ( 'NONE', #257, 39.37007874015748143 ) ;
#28 =( CONVERSION_BASED_UNIT ( 'INCH', #217 ) LENGTH_UNIT ( ) NAMED_UNIT ( #39 ) );
#29 = VERTEX_POINT ( 'NONE', #301 ) ;
#30 = ORIENTED_EDGE ( 'NONE', *, *, #219, .F. ) ;
#31 = CARTESIAN_POINT ( 'NONE',  ( 0.000000000000000000, 1.187500000000000000, 0.000000000000000000 ) ) ;
#32 = VERTEX_POINT ( 'NONE', #156 ) ;
#33 = AXIS2_PLACEMENT_3D ( 'NONE', #127, #78, #82 ) ;
#34 = DIRECTION ( 'NONE',  ( -3.378335997647874040E-17, 1.000000000000000000, -0.000000000000000000 ) ) ;
#35 = CARTESIAN_POINT ( 'NONE',  ( 0.000000000000000000, 1.187500000000000000, 0.000000000000000000 ) ) ;
#36 = DIRECTION ( 'NONE',  ( 0.000000000000000000, 0.000000000000000000, -1.000000000000000000 ) ) ;
#37 = CARTESIAN_POINT ( 'NONE',  ( 0.000000000000000000, 0.000000000000000000, 0.000000000000000000 ) ) ;
#38 = PRESENTATION_STYLE_ASSIGNMENT (( #79 ) ) ;
#39 = DIMENSIONAL_EXPONENTS ( 1.000000000000000000, 0.000000000000000000, 0.000000000000000000, 0.000000000000000000, 0.000000000000000000, 0.000000000000000000, 0.000000000000000000 ) ;
#40 = APPLICATION_PROTOCOL_DEFINITION ( 'draft international standard', 'automotive_design', 1998, #253 ) ;
#41 = COLOUR_RGB ( '',0.7921568627450980005, 0.8196078431372548767, 0.9333333333333333481 ) ;
#42 = DIRECTION ( 'NONE',  ( -3.378335997647874040E-17, 1.000000000000000000, -0.000000000000000000 ) ) ;
#43 = CARTESIAN_POINT ( 'NONE',  ( 0.000000000000000000, 0.000000000000000000, -0.09375000000000001388 ) ) ;
#44 = SURFACE_STYLE_USAGE ( .BOTH. , #213 ) ;
#45 = DIMENSIONAL_EXPONENTS ( 1.000000000000000000, 0.000000000000000000, 0.000000000000000000, 0.000000000000000000, 0.000000000000000000, 0.000000000000000000, 0.000000000000000000 ) ;
#46 = SURFACE_STYLE_FILL_AREA ( #260 ) ;
#47 = MECHANICAL_DESIGN_GEOMETRIC_PRESENTATION_REPRESENTATION (  '', ( #94 ), #290 ) ;
#48 = ORIENTED_EDGE ( 'NONE', *, *, #154, .F. ) ;
#49 = EDGE_LOOP ( 'NONE', ( #76, #108 ) ) ;
#50 = SURFACE_SIDE_STYLE ('',( #169 ) ) ;
#51 = FILL_AREA_STYLE_COLOUR ( '', #4 ) ;
#52 = ORIENTED_EDGE ( 'NONE', *, *, #190, .F. ) ;
#53 = FACE_OUTER_BOUND ( 'NONE', #103, .T. ) ;
#54 = AXIS2_PLACEMENT_3D ( 'NONE', #265, #2, #261 ) ;
#55 = EDGE_CURVE ( 'NONE', #123, #29, #67, .T. ) ;
#56 = CARTESIAN_POINT ( 'NONE',  ( 0.09375000000000001388, 3.000000000000000444, 0.000000000000000000 ) ) ;
#57 = DIRECTION ( 'NONE',  ( 1.000000000000000000, 3.378335997647874040E-17, 0.000000000000000000 ) ) ;
#58 =( GEOMETRIC_REPRESENTATION_CONTEXT ( 3 ) GLOBAL_UNCERTAINTY_ASSIGNED_CONTEXT ( ( #289 ) ) GLOBAL_UNIT_ASSIGNED_CONTEXT ( ( #155, #200, #248 ) ) REPRESENTATION_CONTEXT ( 'NONE', 'WORKASPACE' ) );
#59 = EDGE_LOOP ( 'NONE', ( #224, #112 ) ) ;
#60 = CYLINDRICAL_SURFACE ( 'NONE', #118, 0.09375000000000004163 ) ;
#61 = DIRECTION ( 'NONE',  ( -0.000000000000000000, -1.000000000000000000, -0.000000000000000000 ) ) ;
#62 = UNCERTAINTY_MEASURE_WITH_UNIT (LENGTH_MEASURE( 1.000000000000000082E-05 ), #218, 'distance_accuracy_value', 'NONE');
#63 = CIRCLE ( 'NONE', #107, 0.09375000000000001388 ) ;
#64 = DIRECTION ( 'NONE',  ( -0.000000000000000000, -1.000000000000000000, -0.000000000000000000 ) ) ;
#65 = EDGE_CURVE ( 'NONE', #29, #123, #18, .T. ) ;
#66 = CARTESIAN_POINT ( 'NONE',  ( -0.09375000000000011102, 3.000000000000000444, 0.000000000000000000 ) ) ;
#67 = CIRCLE ( 'NONE', #166, 0.09375000000000006939 ) ;
#68 = PRESENTATION_LAYER_ASSIGNMENT (  '', '', ( #75 ) ) ;
#69 =( LENGTH_UNIT ( ) NAMED_UNIT ( * ) SI_UNIT ( $, .METRE. ) );
#70 =( LENGTH_UNIT ( ) NAMED_UNIT ( * ) SI_UNIT ( $, .METRE. ) );
#71 =( GEOMETRIC_REPRESENTATION_CONTEXT ( 3 ) GLOBAL_UNCERTAINTY_ASSIGNED_CONTEXT ( ( #62 ) ) GLOBAL_UNIT_ASSIGNED_CONTEXT ( ( #218, #193, #202 ) ) REPRESENTATION_CONTEXT ( 'NONE', 'WORKASPACE' ) );
#72 =( LENGTH_UNIT ( ) NAMED_UNIT ( * ) SI_UNIT ( $, .METRE. ) );
#73 =( LENGTH_UNIT ( ) NAMED_UNIT ( * ) SI_UNIT ( $, .METRE. ) );
#74 = AXIS2_PLACEMENT_3D ( 'NONE', #139, #15, #106 ) ;
#75 = STYLED_ITEM ( 'NONE', ( #38 ), #309 ) ;
#76 = ORIENTED_EDGE ( 'NONE', *, *, #288, .F. ) ;
#77 = DIRECTION ( 'NONE',  ( -3.378335997647874040E-17, 1.000000000000000000, -0.000000000000000000 ) ) ;
#78 = DIRECTION ( 'NONE',  ( 0.000000000000000000, 0.000000000000000000, 1.000000000000000000 ) ) ;
#79 = SURFACE_STYLE_USAGE ( .BOTH. , #272 ) ;
#80 = MECHANICAL_DESIGN_GEOMETRIC_PRESENTATION_REPRESENTATION (  '', ( #302 ), #163 ) ;
#81 = CARTESIAN_POINT ( 'NONE',  ( 0.09375000000000001388, 3.000000000000000444, 1.148106374200644325E-17 ) ) ;
#82 = DIRECTION ( 'NONE',  ( 1.000000000000000000, 0.000000000000000000, 0.000000000000000000 ) ) ;
#83 = DIRECTION ( 'NONE',  ( -1.000000000000000000, 0.000000000000000000, 0.000000000000000000 ) ) ;
#84 =( NAMED_UNIT ( * ) PLANE_ANGLE_UNIT ( ) SI_UNIT ( $, .RADIAN. ) );
#85 = PRODUCT_DEFINITION_FORMATION_WITH_SPECIFIED_SOURCE ( 'ANY', '', #171, .NOT_KNOWN. ) ;
#86 = COLOUR_RGB ( '',1.000000000000000000, 0.000000000000000000, 0.000000000000000000 ) ;
#87 = EDGE_CURVE ( 'NONE', #267, #123, #300, .T. ) ;
#88 = MECHANICAL_DESIGN_GEOMETRIC_PRESENTATION_REPRESENTATION (  '', ( #23 ), #212 ) ;
#89 = LINE ( 'NONE', #43, #237 ) ;
#90 = SURFACE_STYLE_USAGE ( .BOTH. , #120 ) ;
#91 = ORIENTED_EDGE ( 'NONE', *, *, #305, .F. ) ;
#92 = SURFACE_STYLE_FILL_AREA ( #93 ) ;
#93 = FILL_AREA_STYLE ('',( #51 ) ) ;
#94 = STYLED_ITEM ( 'NONE', ( #210 ), #161 ) ;
#95 = ORIENTED_EDGE ( 'NONE', *, *, #55, .T. ) ;
#96 = ORIENTED_EDGE ( 'NONE', *, *, #179, .T. ) ;
#97 = UNCERTAINTY_MEASURE_WITH_UNIT (LENGTH_MEASURE( 1.000000000000000082E-05 ), #143, 'distance_accuracy_value', 'NONE');
#98 = VERTEX_POINT ( 'NONE', #232 ) ;
#99 = ORIENTED_EDGE ( 'NONE', *, *, #190, .T. ) ;
#100 = SURFACE_STYLE_FILL_AREA ( #104 ) ;
#101 = CYLINDRICAL_SURFACE ( 'NONE', #151, 0.09375000000000004163 ) ;
#102 = PRODUCT_DEFINITION ( 'UNKNOWN', '', #85, #109 ) ;
#103 = EDGE_LOOP ( 'NONE', ( #220, #91 ) ) ;
#104 = FILL_AREA_STYLE ('',( #185 ) ) ;
#105 = SURFACE_STYLE_FILL_AREA ( #247 ) ;
#106 = DIRECTION ( 'NONE',  ( 0.000000000000000000, 0.000000000000000000, -1.000000000000000000 ) ) ;
#107 = AXIS2_PLACEMENT_3D ( 'NONE', #254, #297, #129 ) ;
#108 = ORIENTED_EDGE ( 'NONE', *, *, #3, .F. ) ;
#109 = PRODUCT_DEFINITION_CONTEXT ( 'detailed design', #253, 'design' ) ;
#110 = EDGE_CURVE ( 'NONE', #252, #32, #284, .T. ) ;
#111 = PRESENTATION_STYLE_ASSIGNMENT (( #21 ) ) ;
#112 = ORIENTED_EDGE ( 'NONE', *, *, #16, .T. ) ;
#113 = CYLINDRICAL_SURFACE ( 'NONE', #13, 0.09375000000000001388 ) ;
#114 =( CONVERSION_BASED_UNIT ( 'INCH', #20 ) LENGTH_UNIT ( ) NAMED_UNIT ( #197 ) );
#115 = ADVANCED_FACE ( 'NONE', ( #7 ), #101, .T. ) ;
#116 = SURFACE_STYLE_FILL_AREA ( #17 ) ;
#117 = SURFACE_SIDE_STYLE ('',( #46 ) ) ;
#118 = AXIS2_PLACEMENT_3D ( 'NONE', #226, #9, #201 ) ;
#119 =( GEOMETRIC_REPRESENTATION_CONTEXT ( 3 ) GLOBAL_UNCERTAINTY_ASSIGNED_CONTEXT ( ( #172 ) ) GLOBAL_UNIT_ASSIGNED_CONTEXT ( ( #28, #146, #24 ) ) REPRESENTATION_CONTEXT ( 'NONE', 'WORKASPACE' ) );
#120 = SURFACE_SIDE_STYLE ('',( #92 ) ) ;
#121 = EDGE_LOOP ( 'NONE', ( #149, #95 ) ) ;
#122 = CIRCLE ( 'NONE', #298, 0.09375000000000001388 ) ;
#123 = VERTEX_POINT ( 'NONE', #81 ) ;
#124 = ADVANCED_FACE ( 'NONE', ( #274 ), #228, .F. ) ;
#125 = PRESENTATION_STYLE_ASSIGNMENT (( #90 ) ) ;
#126 = LENGTH_MEASURE_WITH_UNIT ( LENGTH_MEASURE( 0.02539999999999999897 ), #132 );
#127 = CARTESIAN_POINT ( 'NONE',  ( 0.000000000000000000, 0.000000000000000000, 0.000000000000000000 ) ) ;
#128 = COLOUR_RGB ( '',1.000000000000000000, 0.000000000000000000, 0.000000000000000000 ) ;
#129 = DIRECTION ( 'NONE',  ( -1.000000000000000000, 0.000000000000000000, 0.000000000000000000 ) ) ;
#130 = VECTOR ( 'NONE', #64, 39.37007874015748143 ) ;
#131 = ORIENTED_EDGE ( 'NONE', *, *, #55, .F. ) ;
#132 =( LENGTH_UNIT ( ) NAMED_UNIT ( * ) SI_UNIT ( $, .METRE. ) );
#133 = FACE_OUTER_BOUND ( 'NONE', #195, .T. ) ;
#134 = DIRECTION ( 'NONE',  ( 0.000000000000000000, 1.000000000000000000, 0.000000000000000000 ) ) ;
#135 = SURFACE_STYLE_USAGE ( .BOTH. , #157 ) ;
#136 = APPLICATION_PROTOCOL_DEFINITION ( 'draft international standard', 'automotive_design', 1998, #1 ) ;
#137 = ORIENTED_EDGE ( 'NONE', *, *, #3, .T. ) ;
#138 = PRESENTATION_LAYER_ASSIGNMENT (  '', '', ( #231 ) ) ;
#139 = CARTESIAN_POINT ( 'NONE',  ( 0.000000000000000000, 0.000000000000000000, 0.000000000000000000 ) ) ;
#140 =( NAMED_UNIT ( * ) SI_UNIT ( $, .STERADIAN. ) SOLID_ANGLE_UNIT ( ) );
#141 = DIMENSIONAL_EXPONENTS ( 1.000000000000000000, 0.000000000000000000, 0.000000000000000000, 0.000000000000000000, 0.000000000000000000, 0.000000000000000000, 0.000000000000000000 ) ;
#142 =( NAMED_UNIT ( * ) SI_UNIT ( $, .STERADIAN. ) SOLID_ANGLE_UNIT ( ) );
#143 =( CONVERSION_BASED_UNIT ( 'INCH', #236 ) LENGTH_UNIT ( ) NAMED_UNIT ( #45 ) );
#144 = COLOUR_RGB ( '',0.7921568627450980005, 0.8196078431372548767, 0.9333333333333333481 ) ;
#145 = LENGTH_MEASURE_WITH_UNIT ( LENGTH_MEASURE( 0.02539999999999999897 ), #70 );
#146 =( NAMED_UNIT ( * ) PLANE_ANGLE_UNIT ( ) SI_UNIT ( $, .RADIAN. ) );
#147 =( CONVERSION_BASED_UNIT ( 'INCH', #221 ) LENGTH_UNIT ( ) NAMED_UNIT ( #214 ) );
#148 = PRODUCT_RELATED_PRODUCT_CATEGORY ( 'part', '', ( #171 ) ) ;
#149 = ORIENTED_EDGE ( 'NONE', *, *, #65, .T. ) ;
#150 = PLANE ( 'NONE',  #206 ) ;
#151 = AXIS2_PLACEMENT_3D ( 'NONE', #250, #178, #186 ) ;
#152 =( LENGTH_UNIT ( ) NAMED_UNIT ( * ) SI_UNIT ( $, .METRE. ) );
#153 = FILL_AREA_STYLE_COLOUR ( '', #144 ) ;
#154 = EDGE_CURVE ( 'NONE', #98, #6, #12, .T. ) ;
#155 =( CONVERSION_BASED_UNIT ( 'INCH', #126 ) LENGTH_UNIT ( ) NAMED_UNIT ( #244 ) );
#156 = CARTESIAN_POINT ( 'NONE',  ( 1.148106374200643863E-17, 1.187500000000000000, 0.09375000000000001388 ) ) ;
#157 = SURFACE_SIDE_STYLE ('',( #105 ) ) ;
#158 = EDGE_LOOP ( 'NONE', ( #30, #165, #96, #205 ) ) ;
#159 = PLANE ( 'NONE',  #303 ) ;
#160 = ADVANCED_FACE ( 'NONE', ( #133 ), #60, .T. ) ;
#161 = MANIFOLD_SOLID_BREP ( 'Revolve - Tool Body (Straight Shanked)', #241 ) ;
#162 = FILL_AREA_STYLE_COLOUR ( '', #41 ) ;
#163 =( GEOMETRIC_REPRESENTATION_CONTEXT ( 3 ) GLOBAL_UNCERTAINTY_ASSIGNED_CONTEXT ( ( #306 ) ) GLOBAL_UNIT_ASSIGNED_CONTEXT ( ( #114, #84, #142 ) ) REPRESENTATION_CONTEXT ( 'NONE', 'WORKASPACE' ) );
#164 = ADVANCED_FACE ( 'NONE', ( #286 ), #113, .T. ) ;
#165 = ORIENTED_EDGE ( 'NONE', *, *, #305, .T. ) ;
#166 = AXIS2_PLACEMENT_3D ( 'NONE', #295, #77, #83 ) ;
#167 = MECHANICAL_DESIGN_GEOMETRIC_PRESENTATION_REPRESENTATION (  '', ( #231 ), #71 ) ;
#168 = FACE_OUTER_BOUND ( 'NONE', #49, .T. ) ;
#169 = SURFACE_STYLE_FILL_AREA ( #198 ) ;
#170 =( NAMED_UNIT ( * ) PLANE_ANGLE_UNIT ( ) SI_UNIT ( $, .RADIAN. ) );
#171 = PRODUCT ( '82255', '82255', '', ( #229 ) ) ;
#172 = UNCERTAINTY_MEASURE_WITH_UNIT (LENGTH_MEASURE( 1.000000000000000082E-05 ), #28, 'distance_accuracy_value', 'NONE');
#173 = CARTESIAN_POINT ( 'NONE',  ( 5.349915990470371091E-35, 1.187500000000000000, 0.000000000000000000 ) ) ;
#174 = PRESENTATION_LAYER_ASSIGNMENT (  '', '', ( #94 ) ) ;
#175 = CIRCLE ( 'NONE', #242, 0.09375000000000001388 ) ;
#176 = DIRECTION ( 'NONE',  ( 0.000000000000000000, 0.000000000000000000, -1.000000000000000000 ) ) ;
#177 = PRODUCT_DEFINITION_SHAPE ( 'NONE', 'NONE',  #102 ) ;
#178 = DIRECTION ( 'NONE',  ( -3.378335997647874040E-17, 1.000000000000000000, -0.000000000000000000 ) ) ;
#179 = EDGE_CURVE ( 'NONE', #252, #98, #89, .T. ) ;
#180 = CARTESIAN_POINT ( 'NONE',  ( 0.000000000000000000, 1.187500000000000000, 0.000000000000000000 ) ) ;
#181 = CARTESIAN_POINT ( 'NONE',  ( 0.09374999999999997224, 3.000000000000000444, 1.148106374200644171E-17 ) ) ;
#182 =( CONVERSION_BASED_UNIT ( 'INCH', #275 ) LENGTH_UNIT ( ) NAMED_UNIT ( #141 ) );
#183 = DIRECTION ( 'NONE',  ( 0.000000000000000000, 0.000000000000000000, -1.000000000000000000 ) ) ;
#184 = COLOUR_RGB ( '',1.000000000000000000, 0.000000000000000000, 0.000000000000000000 ) ;
#185 = FILL_AREA_STYLE_COLOUR ( '', #184 ) ;
#186 = DIRECTION ( 'NONE',  ( -1.000000000000000000, 0.000000000000000000, 0.000000000000000000 ) ) ;
#187 = DIRECTION ( 'NONE',  ( -3.378335997647874040E-17, 1.000000000000000000, -0.000000000000000000 ) ) ;
#188 = CARTESIAN_POINT ( 'NONE',  ( 0.000000000000000000, 0.000000000000000000, 0.000000000000000000 ) ) ;
#189 = DIRECTION ( 'NONE',  ( 0.000000000000000000, 0.000000000000000000, -1.000000000000000000 ) ) ;
#190 = EDGE_CURVE ( 'NONE', #222, #29, #283, .T. ) ;
#191 = CARTESIAN_POINT ( 'NONE',  ( 0.000000000000000000, 1.187500000000000000, -0.09375000000000001388 ) ) ;
#192 = ORIENTED_EDGE ( 'NONE', *, *, #288, .T. ) ;
#193 =( NAMED_UNIT ( * ) PLANE_ANGLE_UNIT ( ) SI_UNIT ( $, .RADIAN. ) );
#194 = AXIS2_PLACEMENT_3D ( 'NONE', #299, #292, #176 ) ;
#195 = EDGE_LOOP ( 'NONE', ( #192, #264, #11, #52 ) ) ;
#196 = SURFACE_STYLE_USAGE ( .BOTH. , #50 ) ;
#197 = DIMENSIONAL_EXPONENTS ( 1.000000000000000000, 0.000000000000000000, 0.000000000000000000, 0.000000000000000000, 0.000000000000000000, 0.000000000000000000, 0.000000000000000000 ) ;
#198 = FILL_AREA_STYLE ('',( #263 ) ) ;
#199 = UNCERTAINTY_MEASURE_WITH_UNIT (LENGTH_MEASURE( 1.000000000000000082E-05 ), #147, 'distance_accuracy_value', 'NONE');
#200 =( NAMED_UNIT ( * ) PLANE_ANGLE_UNIT ( ) SI_UNIT ( $, .RADIAN. ) );
#201 = DIRECTION ( 'NONE',  ( -1.000000000000000000, 0.000000000000000000, 0.000000000000000000 ) ) ;
#202 =( NAMED_UNIT ( * ) SI_UNIT ( $, .STERADIAN. ) SOLID_ANGLE_UNIT ( ) );
#203 = CYLINDRICAL_SURFACE ( 'NONE', #194, 0.09375000000000001388 ) ;
#204 = AXIS2_PLACEMENT_3D ( 'NONE', #35, #61, #183 ) ;
#205 = ORIENTED_EDGE ( 'NONE', *, *, #16, .F. ) ;
#206 = AXIS2_PLACEMENT_3D ( 'NONE', #31, #134, #296 ) ;
#207 = DIRECTION ( 'NONE',  ( 0.000000000000000000, 0.000000000000000000, -1.000000000000000000 ) ) ;
#208 = SHAPE_DEFINITION_REPRESENTATION ( #177, #239 ) ;
#209 = DIMENSIONAL_EXPONENTS ( 1.000000000000000000, 0.000000000000000000, 0.000000000000000000, 0.000000000000000000, 0.000000000000000000, 0.000000000000000000, 0.000000000000000000 ) ;
#210 = PRESENTATION_STYLE_ASSIGNMENT (( #135 ) ) ;
#211 = PRESENTATION_LAYER_ASSIGNMENT (  '', '', ( #302 ) ) ;
#212 =( GEOMETRIC_REPRESENTATION_CONTEXT ( 3 ) GLOBAL_UNCERTAINTY_ASSIGNED_CONTEXT ( ( #199 ) ) GLOBAL_UNIT_ASSIGNED_CONTEXT ( ( #147, #170, #287 ) ) REPRESENTATION_CONTEXT ( 'NONE', 'WORKASPACE' ) );
#213 = SURFACE_SIDE_STYLE ('',( #116 ) ) ;
#214 = DIMENSIONAL_EXPONENTS ( 1.000000000000000000, 0.000000000000000000, 0.000000000000000000, 0.000000000000000000, 0.000000000000000000, 0.000000000000000000, 0.000000000000000000 ) ;
#215 = DIRECTION ( 'NONE',  ( -0.000000000000000000, -1.000000000000000000, -0.000000000000000000 ) ) ;
#216 = CIRCLE ( 'NONE', #273, 0.09375000000000001388 ) ;
#217 = LENGTH_MEASURE_WITH_UNIT ( LENGTH_MEASURE( 0.02539999999999999897 ), #73 );
#218 =( CONVERSION_BASED_UNIT ( 'INCH', #145 ) LENGTH_UNIT ( ) NAMED_UNIT ( #209 ) );
#219 = EDGE_CURVE ( 'NONE', #32, #6, #259, .T. ) ;
#220 = ORIENTED_EDGE ( 'NONE', *, *, #110, .F. ) ;
#221 = LENGTH_MEASURE_WITH_UNIT ( LENGTH_MEASURE( 0.02539999999999999897 ), #72 );
#222 = VERTEX_POINT ( 'NONE', #233 ) ;
#223 = PLANE ( 'NONE',  #54 ) ;
#224 = ORIENTED_EDGE ( 'NONE', *, *, #154, .T. ) ;
#225 = DIRECTION ( 'NONE',  ( -0.000000000000000000, -1.000000000000000000, -0.000000000000000000 ) ) ;
#226 = CARTESIAN_POINT ( 'NONE',  ( -6.123233995736772199E-17, 3.000000000000000444, 0.000000000000000000 ) ) ;
#227 = UNCERTAINTY_MEASURE_WITH_UNIT (LENGTH_MEASURE( 1.000000000000000082E-05 ), #182, 'distance_accuracy_value', 'NONE');
#228 = PLANE ( 'NONE',  #308 ) ;
#229 = PRODUCT_CONTEXT ( 'NONE', #1, 'mechanical' ) ;
#230 = CARTESIAN_POINT ( 'NONE',  ( 1.148106374200643863E-17, 0.000000000000000000, 0.09375000000000001388 ) ) ;
#231 = STYLED_ITEM ( 'NONE', ( #125 ), #282 ) ;
#232 = CARTESIAN_POINT ( 'NONE',  ( 0.000000000000000000, 0.000000000000000000, -0.09375000000000001388 ) ) ;
#233 = CARTESIAN_POINT ( 'NONE',  ( -0.09375000000000001388, 1.187499999999999778, 0.000000000000000000 ) ) ;
#234 = VECTOR ( 'NONE', #42, 39.37007874015748143 ) ;
#235 = DIRECTION ( 'NONE',  ( -0.000000000000000000, -1.000000000000000000, -0.000000000000000000 ) ) ;
#236 = LENGTH_MEASURE_WITH_UNIT ( LENGTH_MEASURE( 0.02539999999999999897 ), #258 );
#237 = VECTOR ( 'NONE', #235, 39.37007874015748143 ) ;
#238 = DIRECTION ( 'NONE',  ( -1.000000000000000000, -3.378335997647874040E-17, 0.000000000000000000 ) ) ;
#239 = ADVANCED_BREP_SHAPE_REPRESENTATION ( '82255', ( #269, #161, #33 ), #58 ) ;
#240 = EDGE_LOOP ( 'NONE', ( #22, #26, #48, #276 ) ) ;
#241 = CLOSED_SHELL ( 'NONE', ( #160, #270, #115, #124 ) ) ;
#242 = AXIS2_PLACEMENT_3D ( 'NONE', #251, #34, #294 ) ;
#243 = FACE_OUTER_BOUND ( 'NONE', #59, .T. ) ;
#244 = DIMENSIONAL_EXPONENTS ( 1.000000000000000000, 0.000000000000000000, 0.000000000000000000, 0.000000000000000000, 0.000000000000000000, 0.000000000000000000, 0.000000000000000000 ) ;
#245 = EDGE_LOOP ( 'NONE', ( #256, #137, #99, #131 ) ) ;
#246 =( NAMED_UNIT ( * ) PLANE_ANGLE_UNIT ( ) SI_UNIT ( $, .RADIAN. ) );
#247 = FILL_AREA_STYLE ('',( #153 ) ) ;
#248 =( NAMED_UNIT ( * ) SI_UNIT ( $, .STERADIAN. ) SOLID_ANGLE_UNIT ( ) );
#249 =( GEOMETRIC_REPRESENTATION_CONTEXT ( 3 ) GLOBAL_UNCERTAINTY_ASSIGNED_CONTEXT ( ( #227 ) ) GLOBAL_UNIT_ASSIGNED_CONTEXT ( ( #182, #246, #10 ) ) REPRESENTATION_CONTEXT ( 'NONE', 'WORKASPACE' ) );
#250 = CARTESIAN_POINT ( 'NONE',  ( -6.123233995736772199E-17, 3.000000000000000444, 0.000000000000000000 ) ) ;
#251 = CARTESIAN_POINT ( 'NONE',  ( 7.582401355855259480E-33, 1.187499999999999778, 0.000000000000000000 ) ) ;
#252 = VERTEX_POINT ( 'NONE', #191 ) ;
#253 = APPLICATION_CONTEXT ( 'automotive_design' ) ;
#254 = CARTESIAN_POINT ( 'NONE',  ( 7.582401355855259480E-33, 1.187499999999999778, 0.000000000000000000 ) ) ;
#255 = AXIS2_PLACEMENT_3D ( 'NONE', #293, #187, #277 ) ;
#256 = ORIENTED_EDGE ( 'NONE', *, *, #87, .F. ) ;
#257 = DIRECTION ( 'NONE',  ( -3.378335997647874040E-17, 1.000000000000000000, -0.000000000000000000 ) ) ;
#258 =( LENGTH_UNIT ( ) NAMED_UNIT ( * ) SI_UNIT ( $, .METRE. ) );
#259 = LINE ( 'NONE', #280, #130 ) ;
#260 = FILL_AREA_STYLE ('',( #268 ) ) ;
#261 = DIRECTION ( 'NONE',  ( 0.000000000000000000, 0.000000000000000000, -1.000000000000000000 ) ) ;
#262 = STYLED_ITEM ( 'NONE', ( #25 ), #278 ) ;
#263 = FILL_AREA_STYLE_COLOUR ( '', #86 ) ;
#264 = ORIENTED_EDGE ( 'NONE', *, *, #87, .T. ) ;
#265 = CARTESIAN_POINT ( 'NONE',  ( 0.000000000000000000, 0.000000000000000000, 0.000000000000000000 ) ) ;
#266 = PRESENTATION_LAYER_ASSIGNMENT (  '', '', ( #262 ) ) ;
#267 = VERTEX_POINT ( 'NONE', #281 ) ;
#268 = FILL_AREA_STYLE_COLOUR ( '', #128 ) ;
#269 = MANIFOLD_SOLID_BREP ( 'Revolve - Cutting Edge', #279 ) ;
#270 = ADVANCED_FACE ( 'NONE', ( #168 ), #159, .F. ) ;
#271 = DIRECTION ( 'NONE',  ( 3.378335997647874040E-17, -1.000000000000000000, 0.000000000000000000 ) ) ;
#272 = SURFACE_SIDE_STYLE ('',( #100 ) ) ;
#273 = AXIS2_PLACEMENT_3D ( 'NONE', #180, #225, #36 ) ;
#274 = FACE_OUTER_BOUND ( 'NONE', #121, .T. ) ;
#275 = LENGTH_MEASURE_WITH_UNIT ( LENGTH_MEASURE( 0.02539999999999999897 ), #152 );
#276 = ORIENTED_EDGE ( 'NONE', *, *, #179, .F. ) ;
#277 = DIRECTION ( 'NONE',  ( -1.000000000000000000, 0.000000000000000000, 0.000000000000000000 ) ) ;
#278 = ADVANCED_FACE ( 'NONE', ( #243 ), #223, .T. ) ;
#279 = CLOSED_SHELL ( 'NONE', ( #309, #282, #164, #278 ) ) ;
#280 = CARTESIAN_POINT ( 'NONE',  ( 1.148106374200643863E-17, 0.000000000000000000, 0.09375000000000001388 ) ) ;
#281 = CARTESIAN_POINT ( 'NONE',  ( 0.09375000000000001388, 1.187499999999999778, 1.148106374200644325E-17 ) ) ;
#282 = ADVANCED_FACE ( 'NONE', ( #53 ), #150, .T. ) ;
#283 = LINE ( 'NONE', #66, #27 ) ;
#284 = CIRCLE ( 'NONE', #204, 0.09375000000000001388 ) ;
#285 = PRESENTATION_LAYER_ASSIGNMENT (  '', '', ( #23 ) ) ;
#286 = FACE_OUTER_BOUND ( 'NONE', #158, .T. ) ;
#287 =( NAMED_UNIT ( * ) SI_UNIT ( $, .STERADIAN. ) SOLID_ANGLE_UNIT ( ) );
#288 = EDGE_CURVE ( 'NONE', #222, #267, #175, .T. ) ;
#289 = UNCERTAINTY_MEASURE_WITH_UNIT (LENGTH_MEASURE( 1.000000000000000082E-05 ), #155, 'distance_accuracy_value', 'NONE');
#290 =( GEOMETRIC_REPRESENTATION_CONTEXT ( 3 ) GLOBAL_UNCERTAINTY_ASSIGNED_CONTEXT ( ( #97 ) ) GLOBAL_UNIT_ASSIGNED_CONTEXT ( ( #143, #304, #140 ) ) REPRESENTATION_CONTEXT ( 'NONE', 'WORKASPACE' ) );
#291 = MECHANICAL_DESIGN_GEOMETRIC_PRESENTATION_REPRESENTATION (  '', ( #262 ), #119 ) ;
#292 = DIRECTION ( 'NONE',  ( -0.000000000000000000, -1.000000000000000000, -0.000000000000000000 ) ) ;
#293 = CARTESIAN_POINT ( 'NONE',  ( -6.123233995736772199E-17, 3.000000000000000444, 0.000000000000000000 ) ) ;
#294 = DIRECTION ( 'NONE',  ( -1.000000000000000000, 0.000000000000000000, 0.000000000000000000 ) ) ;
#295 = CARTESIAN_POINT ( 'NONE',  ( -6.123233995736772199E-17, 3.000000000000000444, 0.000000000000000000 ) ) ;
#296 = DIRECTION ( 'NONE',  ( 0.000000000000000000, -0.000000000000000000, 1.000000000000000000 ) ) ;
#297 = DIRECTION ( 'NONE',  ( -3.378335997647874040E-17, 1.000000000000000000, -0.000000000000000000 ) ) ;
#298 = AXIS2_PLACEMENT_3D ( 'NONE', #37, #14, #207 ) ;
#299 = CARTESIAN_POINT ( 'NONE',  ( 0.000000000000000000, 0.000000000000000000, 0.000000000000000000 ) ) ;
#300 = LINE ( 'NONE', #181, #234 ) ;
#301 = CARTESIAN_POINT ( 'NONE',  ( -0.09375000000000013878, 3.000000000000000444, 0.000000000000000000 ) ) ;
#302 = STYLED_ITEM ( 'NONE', ( #111 ), #164 ) ;
#303 = AXIS2_PLACEMENT_3D ( 'NONE', #173, #5, #238 ) ;
#304 =( NAMED_UNIT ( * ) PLANE_ANGLE_UNIT ( ) SI_UNIT ( $, .RADIAN. ) );
#305 = EDGE_CURVE ( 'NONE', #32, #252, #216, .T. ) ;
#306 = UNCERTAINTY_MEASURE_WITH_UNIT (LENGTH_MEASURE( 1.000000000000000082E-05 ), #114, 'distance_accuracy_value', 'NONE');
#307 = PRESENTATION_STYLE_ASSIGNMENT (( #44 ) ) ;
#308 = AXIS2_PLACEMENT_3D ( 'NONE', #56, #271, #57 ) ;
#309 = ADVANCED_FACE ( 'NONE', ( #8 ), #203, .T. ) ;
ENDSEC;
END-ISO-10303-21;
