ISO-10303-21;
HEADER;
FILE_DESCRIPTION (( 'STEP AP214' ),
    '1' );
FILE_NAME ('59712.STEP',
    '2023-07-24T15:27:30',
    ( '' ),
    ( '' ),
    'SwSTEP 2.0',
    'SolidWorks 2023',
    '' );
FILE_SCHEMA (( 'AUTOMOTIVE_DESIGN' ));
ENDSEC;

DATA;
#1 = STYLED_ITEM ( 'NONE', ( #258 ), #290 ) ;
#2 = SURFACE_STYLE_USAGE ( .BOTH. , #55 ) ;
#3 = SURFACE_SIDE_STYLE ('',( #354 ) ) ;
#4 = CARTESIAN_POINT ( 'NONE',  ( 0.000000000000000000, 0.000000000000000000, -6.000000000000000000 ) ) ;
#5 = ORIENTED_EDGE ( 'NONE', *, *, #144, .F. ) ;
#6 = DIRECTION ( 'NONE',  ( -1.208874916035850209E-16, 1.000000000000000000, -0.000000000000000000 ) ) ;
#7 = DIRECTION ( 'NONE',  ( 0.000000000000000000, 0.000000000000000000, -1.000000000000000000 ) ) ;
#8 = AXIS2_PLACEMENT_3D ( 'NONE', #208, #152, #79 ) ;
#9 = CYLINDRICAL_SURFACE ( 'NONE', #357, 5.999999999999998224 ) ;
#10 = DIRECTION ( 'NONE',  ( -1.208874916035850209E-16, 1.000000000000000000, -0.000000000000000000 ) ) ;
#11 = ORIENTED_EDGE ( 'NONE', *, *, #193, .T. ) ;
#12 = ORIENTED_EDGE ( 'NONE', *, *, #235, .T. ) ;
#13 = ORIENTED_EDGE ( 'NONE', *, *, #212, .F. ) ;
#14 =( NAMED_UNIT ( * ) SI_UNIT ( $, .STERADIAN. ) SOLID_ANGLE_UNIT ( ) );
#15 = CIRCLE ( 'NONE', #60, 5.000000000000000000 ) ;
#16 = AXIS2_PLACEMENT_3D ( 'NONE', #243, #174, #177 ) ;
#17 = CARTESIAN_POINT ( 'NONE',  ( 7.347880794884118750E-16, 1.000000000000000000, 6.000000000000000000 ) ) ;
#18 = SURFACE_STYLE_USAGE ( .BOTH. , #304 ) ;
#19 = DIRECTION ( 'NONE',  ( -0.000000000000000000, -1.000000000000000000, -0.000000000000000000 ) ) ;
#20 = PRODUCT_CONTEXT ( 'NONE', #180, 'mechanical' ) ;
#21 = FILL_AREA_STYLE_COLOUR ( '', #172 ) ;
#22 = COLOUR_RGB ( '',1.000000000000000000, 0.000000000000000000, 0.000000000000000000 ) ;
#23 = ORIENTED_EDGE ( 'NONE', *, *, #320, .T. ) ;
#24 =( LENGTH_UNIT ( ) NAMED_UNIT ( * ) SI_UNIT ( .MILLI., .METRE. ) );
#25 = COLOUR_RGB ( '',0.7921568627450980005, 0.8196078431372548767, 0.9333333333333333481 ) ;
#26 = PLANE ( 'NONE',  #330 ) ;
#27 = ORIENTED_EDGE ( 'NONE', *, *, #63, .F. ) ;
#28 = LINE ( 'NONE', #77, #200 ) ;
#29 = DIRECTION ( 'NONE',  ( -1.208874916035850209E-16, 1.000000000000000000, -0.000000000000000000 ) ) ;
#30 = FILL_AREA_STYLE ('',( #129 ) ) ;
#31 = ORIENTED_EDGE ( 'NONE', *, *, #340, .T. ) ;
#32 = EDGE_CURVE ( 'NONE', #191, #350, #315, .T. ) ;
#33 = ORIENTED_EDGE ( 'NONE', *, *, #158, .F. ) ;
#34 = EDGE_LOOP ( 'NONE', ( #33, #261, #296, #143 ) ) ;
#35 = COLOUR_RGB ( '',0.7921568627450980005, 0.8196078431372548767, 0.9333333333333333481 ) ;
#36 = PRESENTATION_LAYER_ASSIGNMENT (  '', '', ( #251 ) ) ;
#37 = MANIFOLD_SOLID_BREP ( 'Revolve - Cutting Edge', #80 ) ;
#38 = SURFACE_STYLE_USAGE ( .BOTH. , #281 ) ;
#39 = UNCERTAINTY_MEASURE_WITH_UNIT (LENGTH_MEASURE( 1.000000000000000082E-05 ), #183, 'distance_accuracy_value', 'NONE');
#40 = PRODUCT_RELATED_PRODUCT_CATEGORY ( 'part', '', ( #352 ) ) ;
#41 = AXIS2_PLACEMENT_3D ( 'NONE', #184, #221, #74 ) ;
#42 = FACE_OUTER_BOUND ( 'NONE', #56, .T. ) ;
#43 = PRESENTATION_LAYER_ASSIGNMENT (  '', '', ( #1 ) ) ;
#44 =( NAMED_UNIT ( * ) PLANE_ANGLE_UNIT ( ) SI_UNIT ( $, .RADIAN. ) );
#45 = CIRCLE ( 'NONE', #260, 5.999999999999994671 ) ;
#46 =( GEOMETRIC_REPRESENTATION_CONTEXT ( 3 ) GLOBAL_UNCERTAINTY_ASSIGNED_CONTEXT ( ( #119 ) ) GLOBAL_UNIT_ASSIGNED_CONTEXT ( ( #234, #146, #14 ) ) REPRESENTATION_CONTEXT ( 'NONE', 'WORKASPACE' ) );
#47 =( LENGTH_UNIT ( ) NAMED_UNIT ( * ) SI_UNIT ( .MILLI., .METRE. ) );
#48 = MANIFOLD_SOLID_BREP ( 'Revolve - Tool Body (Straight Shanked)', #282 ) ;
#49 = CARTESIAN_POINT ( 'NONE',  ( 0.000000000000000000, 1.000000000000000000, -5.000000000000000000 ) ) ;
#50 = DIRECTION ( 'NONE',  ( 0.000000000000000000, -0.000000000000000000, 1.000000000000000000 ) ) ;
#51 = ADVANCED_FACE ( 'NONE', ( #159 ), #210, .T. ) ;
#52 = FILL_AREA_STYLE ('',( #313 ) ) ;
#53 = DIRECTION ( 'NONE',  ( -0.000000000000000000, -1.000000000000000000, -0.000000000000000000 ) ) ;
#54 = PLANE ( 'NONE',  #247 ) ;
#55 = SURFACE_SIDE_STYLE ('',( #150 ) ) ;
#56 = EDGE_LOOP ( 'NONE', ( #288, #12, #5, #113 ) ) ;
#57 = DIRECTION ( 'NONE',  ( 0.000000000000000000, 0.000000000000000000, -1.000000000000000000 ) ) ;
#58 = ADVANCED_FACE ( 'NONE', ( #42 ), #131, .T. ) ;
#59 = ORIENTED_EDGE ( 'NONE', *, *, #147, .T. ) ;
#60 = AXIS2_PLACEMENT_3D ( 'NONE', #264, #162, #86 ) ;
#61 = AXIS2_PLACEMENT_3D ( 'NONE', #138, #110, #359 ) ;
#62 =( NAMED_UNIT ( * ) PLANE_ANGLE_UNIT ( ) SI_UNIT ( $, .RADIAN. ) );
#63 = EDGE_CURVE ( 'NONE', #350, #204, #76, .T. ) ;
#64 = AXIS2_PLACEMENT_3D ( 'NONE', #49, #98, #246 ) ;
#65 = FILL_AREA_STYLE ('',( #173 ) ) ;
#66 = PRODUCT_DEFINITION ( 'UNKNOWN', '', #101, #337 ) ;
#67 = ORIENTED_EDGE ( 'NONE', *, *, #32, .F. ) ;
#68 = SURFACE_SIDE_STYLE ('',( #242 ) ) ;
#69 = AXIS2_PLACEMENT_3D ( 'NONE', #70, #360, #201 ) ;
#70 = CARTESIAN_POINT ( 'NONE',  ( 0.000000000000000000, 18.00000000000000000, 0.000000000000000000 ) ) ;
#71 = SURFACE_STYLE_USAGE ( .BOTH. , #249 ) ;
#72 = MECHANICAL_DESIGN_GEOMETRIC_PRESENTATION_REPRESENTATION (  '', ( #251 ), #46 ) ;
#73 =( NAMED_UNIT ( * ) PLANE_ANGLE_UNIT ( ) SI_UNIT ( $, .RADIAN. ) );
#74 = DIRECTION ( 'NONE',  ( 0.000000000000000000, 0.000000000000000000, -1.000000000000000000 ) ) ;
#75 = ADVANCED_FACE ( 'NONE', ( #164 ), #9, .T. ) ;
#76 = LINE ( 'NONE', #4, #94 ) ;
#77 = CARTESIAN_POINT ( 'NONE',  ( 5.999999999999996447, 75.00000000000000000, 7.347880794884117764E-16 ) ) ;
#78 = CARTESIAN_POINT ( 'NONE',  ( 7.347880794884119736E-16, 0.000000000000000000, 6.000000000000000000 ) ) ;
#79 = DIRECTION ( 'NONE',  ( 0.000000000000000000, 0.000000000000000000, -1.000000000000000000 ) ) ;
#80 = CLOSED_SHELL ( 'NONE', ( #368, #51, #290, #91, #298, #199 ) ) ;
#81 = AXIS2_PLACEMENT_3D ( 'NONE', #102, #29, #189 ) ;
#82 = CARTESIAN_POINT ( 'NONE',  ( 7.347880794884119736E-16, 18.00000000000000000, 6.000000000000000000 ) ) ;
#83 = VERTEX_POINT ( 'NONE', #108 ) ;
#84 = ORIENTED_EDGE ( 'NONE', *, *, #241, .F. ) ;
#85 =( NAMED_UNIT ( * ) PLANE_ANGLE_UNIT ( ) SI_UNIT ( $, .RADIAN. ) );
#86 = DIRECTION ( 'NONE',  ( 0.000000000000000000, 0.000000000000000000, -1.000000000000000000 ) ) ;
#87 = AXIS2_PLACEMENT_3D ( 'NONE', #198, #151, #203 ) ;
#88 = DIRECTION ( 'NONE',  ( 0.000000000000000000, 1.000000000000000000, 0.000000000000000000 ) ) ;
#89 = VECTOR ( 'NONE', #53, 1000.000000000000000 ) ;
#90 = VERTEX_POINT ( 'NONE', #349 ) ;
#91 = ADVANCED_FACE ( 'NONE', ( #287 ), #239, .T. ) ;
#92 = CARTESIAN_POINT ( 'NONE',  ( 0.000000000000000000, 1.000000000000000000, 0.000000000000000000 ) ) ;
#93 = DIRECTION ( 'NONE',  ( -0.000000000000000000, -1.000000000000000000, -0.000000000000000000 ) ) ;
#94 = VECTOR ( 'NONE', #257, 1000.000000000000000 ) ;
#95 = AXIS2_PLACEMENT_3D ( 'NONE', #237, #153, #179 ) ;
#96 = SURFACE_STYLE_FILL_AREA ( #367 ) ;
#97 =( LENGTH_UNIT ( ) NAMED_UNIT ( * ) SI_UNIT ( .MILLI., .METRE. ) );
#98 = DIRECTION ( 'NONE',  ( -1.000000000000000000, 0.000000000000000000, 0.000000000000000000 ) ) ;
#99 =( NAMED_UNIT ( * ) SI_UNIT ( $, .STERADIAN. ) SOLID_ANGLE_UNIT ( ) );
#100 = AXIS2_PLACEMENT_3D ( 'NONE', #253, #219, #7 ) ;
#101 = PRODUCT_DEFINITION_FORMATION_WITH_SPECIFIED_SOURCE ( 'ANY', '', #352, .NOT_KNOWN. ) ;
#102 = CARTESIAN_POINT ( 'NONE',  ( -1.469576158976823750E-15, 75.00000000000000000, 0.000000000000000000 ) ) ;
#103 = UNCERTAINTY_MEASURE_WITH_UNIT (LENGTH_MEASURE( 1.000000000000000082E-05 ), #295, 'distance_accuracy_value', 'NONE');
#104 = FACE_OUTER_BOUND ( 'NONE', #132, .T. ) ;
#105 = DIRECTION ( 'NONE',  ( -1.208874916035850209E-16, 1.000000000000000000, -0.000000000000000000 ) ) ;
#106 = SURFACE_SIDE_STYLE ('',( #134 ) ) ;
#107 = VERTEX_POINT ( 'NONE', #192 ) ;
#108 = CARTESIAN_POINT ( 'NONE',  ( 6.735557395310443009E-16, 0.000000000000000000, 5.000000000000000000 ) ) ;
#109 = DIRECTION ( 'NONE',  ( -1.208874916035850209E-16, 1.000000000000000000, -0.000000000000000000 ) ) ;
#110 = DIRECTION ( 'NONE',  ( -0.000000000000000000, -1.000000000000000000, -0.000000000000000000 ) ) ;
#111 = ORIENTED_EDGE ( 'NONE', *, *, #158, .T. ) ;
#112 = DIRECTION ( 'NONE',  ( -1.000000000000000000, 0.000000000000000000, 0.000000000000000000 ) ) ;
#113 = ORIENTED_EDGE ( 'NONE', *, *, #147, .F. ) ;
#114 = APPLICATION_PROTOCOL_DEFINITION ( 'draft international standard', 'automotive_design', 1998, #224 ) ;
#115 = CARTESIAN_POINT ( 'NONE',  ( 0.000000000000000000, 18.00000000000000000, -6.000000000000000000 ) ) ;
#116 = COLOUR_RGB ( '',1.000000000000000000, 0.000000000000000000, 0.000000000000000000 ) ;
#117 = CIRCLE ( 'NONE', #157, 6.000000000000000000 ) ;
#118 = PRESENTATION_STYLE_ASSIGNMENT (( #38 ) ) ;
#119 = UNCERTAINTY_MEASURE_WITH_UNIT (LENGTH_MEASURE( 1.000000000000000082E-05 ), #234, 'distance_accuracy_value', 'NONE');
#120 = SHAPE_DEFINITION_REPRESENTATION ( #231, #297 ) ;
#121 = FILL_AREA_STYLE_COLOUR ( '', #35 ) ;
#122 = MECHANICAL_DESIGN_GEOMETRIC_PRESENTATION_REPRESENTATION (  '', ( #245 ), #272 ) ;
#123 = CIRCLE ( 'NONE', #347, 5.999999999999994671 ) ;
#124 = SURFACE_STYLE_USAGE ( .BOTH. , #236 ) ;
#125 =( LENGTH_UNIT ( ) NAMED_UNIT ( * ) SI_UNIT ( .MILLI., .METRE. ) );
#126 = PRESENTATION_STYLE_ASSIGNMENT (( #18 ) ) ;
#127 = ADVANCED_FACE ( 'NONE', ( #104 ), #321, .F. ) ;
#128 = CIRCLE ( 'NONE', #8, 5.000000000000000000 ) ;
#129 = FILL_AREA_STYLE_COLOUR ( '', #283 ) ;
#130 = CARTESIAN_POINT ( 'NONE',  ( -1.469576158976823750E-15, 75.00000000000000000, 0.000000000000000000 ) ) ;
#131 = CYLINDRICAL_SURFACE ( 'NONE', #81, 5.999999999999998224 ) ;
#132 = EDGE_LOOP ( 'NONE', ( #13, #84 ) ) ;
#133 = LINE ( 'NONE', #353, #168 ) ;
#134 = SURFACE_STYLE_FILL_AREA ( #322 ) ;
#135 = DIRECTION ( 'NONE',  ( -1.208874916035850209E-16, 1.000000000000000000, -0.000000000000000000 ) ) ;
#136 = ORIENTED_EDGE ( 'NONE', *, *, #193, .F. ) ;
#137 = PRESENTATION_LAYER_ASSIGNMENT (  '', '', ( #267 ) ) ;
#138 = CARTESIAN_POINT ( 'NONE',  ( 0.000000000000000000, 0.000000000000000000, 0.000000000000000000 ) ) ;
#139 = PRESENTATION_STYLE_ASSIGNMENT (( #220 ) ) ;
#140 = DIRECTION ( 'NONE',  ( 1.000000000000000000, 1.208874916035850209E-16, 0.000000000000000000 ) ) ;
#141 = VERTEX_POINT ( 'NONE', #262 ) ;
#142 = ORIENTED_EDGE ( 'NONE', *, *, #218, .T. ) ;
#143 = ORIENTED_EDGE ( 'NONE', *, *, #269, .F. ) ;
#144 = EDGE_CURVE ( 'NONE', #90, #333, #366, .T. ) ;
#145 = CIRCLE ( 'NONE', #324, 6.000000000000001776 ) ;
#146 =( NAMED_UNIT ( * ) PLANE_ANGLE_UNIT ( ) SI_UNIT ( $, .RADIAN. ) );
#147 = EDGE_CURVE ( 'NONE', #141, #90, #133, .T. ) ;
#148 = SURFACE_STYLE_FILL_AREA ( #52 ) ;
#149 = AXIS2_PLACEMENT_3D ( 'NONE', #256, #10, #112 ) ;
#150 = SURFACE_STYLE_FILL_AREA ( #156 ) ;
#151 = DIRECTION ( 'NONE',  ( -0.000000000000000000, -1.000000000000000000, -0.000000000000000000 ) ) ;
#152 = DIRECTION ( 'NONE',  ( -0.000000000000000000, -1.000000000000000000, -0.000000000000000000 ) ) ;
#153 = DIRECTION ( 'NONE',  ( 1.000000000000000000, 0.000000000000000000, -1.224646799147353207E-16 ) ) ;
#154 = ORIENTED_EDGE ( 'NONE', *, *, #218, .F. ) ;
#155 =( GEOMETRIC_REPRESENTATION_CONTEXT ( 3 ) GLOBAL_UNCERTAINTY_ASSIGNED_CONTEXT ( ( #277 ) ) GLOBAL_UNIT_ASSIGNED_CONTEXT ( ( #312, #279, #216 ) ) REPRESENTATION_CONTEXT ( 'NONE', 'WORKASPACE' ) );
#156 = FILL_AREA_STYLE ('',( #21 ) ) ;
#157 = AXIS2_PLACEMENT_3D ( 'NONE', #92, #19, #331 ) ;
#158 = EDGE_CURVE ( 'NONE', #191, #328, #232, .T. ) ;
#159 = FACE_OUTER_BOUND ( 'NONE', #171, .T. ) ;
#160 =( NAMED_UNIT ( * ) SI_UNIT ( $, .STERADIAN. ) SOLID_ANGLE_UNIT ( ) );
#161 = SURFACE_STYLE_FILL_AREA ( #289 ) ;
#162 = DIRECTION ( 'NONE',  ( -0.000000000000000000, -1.000000000000000000, -0.000000000000000000 ) ) ;
#163 = ORIENTED_EDGE ( 'NONE', *, *, #340, .F. ) ;
#164 = FACE_OUTER_BOUND ( 'NONE', #362, .T. ) ;
#165 = FACE_OUTER_BOUND ( 'NONE', #223, .T. ) ;
#166 = DIRECTION ( 'NONE',  ( -0.000000000000000000, -1.000000000000000000, -0.000000000000000000 ) ) ;
#167 = ORIENTED_EDGE ( 'NONE', *, *, #235, .F. ) ;
#168 = VECTOR ( 'NONE', #6, 1000.000000000000000 ) ;
#169 = DIRECTION ( 'NONE',  ( 0.000000000000000000, 0.000000000000000000, -1.000000000000000000 ) ) ;
#170 = DIRECTION ( 'NONE',  ( -1.208874916035850209E-16, 1.000000000000000000, 0.000000000000000000 ) ) ;
#171 = EDGE_LOOP ( 'NONE', ( #23, #228, #136, #154 ) ) ;
#172 = COLOUR_RGB ( '',1.000000000000000000, 0.000000000000000000, 0.000000000000000000 ) ;
#173 = FILL_AREA_STYLE_COLOUR ( '', #348 ) ;
#174 = DIRECTION ( 'NONE',  ( 0.000000000000000000, 0.000000000000000000, 1.000000000000000000 ) ) ;
#175 = AXIS2_PLACEMENT_3D ( 'NONE', #286, #291, #140 ) ;
#176 = FACE_OUTER_BOUND ( 'NONE', #294, .T. ) ;
#177 = DIRECTION ( 'NONE',  ( 1.000000000000000000, 0.000000000000000000, 0.000000000000000000 ) ) ;
#178 =( NAMED_UNIT ( * ) SI_UNIT ( $, .STERADIAN. ) SOLID_ANGLE_UNIT ( ) );
#179 = DIRECTION ( 'NONE',  ( -1.224646799147352468E-16, 0.000000000000000000, -1.000000000000000000 ) ) ;
#180 = APPLICATION_CONTEXT ( 'automotive_design' ) ;
#181 = FILL_AREA_STYLE ('',( #121 ) ) ;
#182 = PRESENTATION_LAYER_ASSIGNMENT (  '', '', ( #370 ) ) ;
#183 =( LENGTH_UNIT ( ) NAMED_UNIT ( * ) SI_UNIT ( .MILLI., .METRE. ) );
#184 = CARTESIAN_POINT ( 'NONE',  ( 0.000000000000000000, 1.000000000000000000, 0.000000000000000000 ) ) ;
#185 = CARTESIAN_POINT ( 'NONE',  ( 0.000000000000000000, 1.000000000000000000, 0.000000000000000000 ) ) ;
#186 = CARTESIAN_POINT ( 'NONE',  ( -1.469576158976823750E-15, 75.00000000000000000, 0.000000000000000000 ) ) ;
#187 = EDGE_CURVE ( 'NONE', #333, #90, #145, .T. ) ;
#188 = CARTESIAN_POINT ( 'NONE',  ( 5.421010862427522170E-15, 18.00000000000000355, 0.000000000000000000 ) ) ;
#189 = DIRECTION ( 'NONE',  ( -1.000000000000000000, 0.000000000000000000, 0.000000000000000000 ) ) ;
#190 = SURFACE_STYLE_USAGE ( .BOTH. , #3 ) ;
#191 = VERTEX_POINT ( 'NONE', #82 ) ;
#192 = CARTESIAN_POINT ( 'NONE',  ( 6.000000000000000000, 18.00000000000000355, 7.347880794884119736E-16 ) ) ;
#193 = EDGE_CURVE ( 'NONE', #326, #83, #15, .T. ) ;
#194 = ORIENTED_EDGE ( 'NONE', *, *, #320, .F. ) ;
#195 = CIRCLE ( 'NONE', #69, 6.000000000000000000 ) ;
#196 = FACE_OUTER_BOUND ( 'NONE', #358, .T. ) ;
#197 = ORIENTED_EDGE ( 'NONE', *, *, #269, .T. ) ;
#198 = CARTESIAN_POINT ( 'NONE',  ( 0.000000000000000000, 0.000000000000000000, 0.000000000000000000 ) ) ;
#199 = ADVANCED_FACE ( 'NONE', ( #196 ), #54, .T. ) ;
#200 = VECTOR ( 'NONE', #135, 1000.000000000000000 ) ;
#201 = DIRECTION ( 'NONE',  ( 0.000000000000000000, 0.000000000000000000, -1.000000000000000000 ) ) ;
#202 = PRESENTATION_LAYER_ASSIGNMENT (  '', '', ( #361 ) ) ;
#203 = DIRECTION ( 'NONE',  ( 0.000000000000000000, 0.000000000000000000, -1.000000000000000000 ) ) ;
#204 = VERTEX_POINT ( 'NONE', #213 ) ;
#205 =( NAMED_UNIT ( * ) SI_UNIT ( $, .STERADIAN. ) SOLID_ANGLE_UNIT ( ) );
#206 = APPLICATION_PROTOCOL_DEFINITION ( 'draft international standard', 'automotive_design', 1998, #180 ) ;
#207 = DIRECTION ( 'NONE',  ( 0.000000000000000000, 0.000000000000000000, -1.000000000000000000 ) ) ;
#208 = CARTESIAN_POINT ( 'NONE',  ( 0.000000000000000000, 0.000000000000000000, 0.000000000000000000 ) ) ;
#209 = ORIENTED_EDGE ( 'NONE', *, *, #229, .F. ) ;
#210 = TOROIDAL_SURFACE ( 'NONE', #100, 5.000000000000000000, 0.9999999999999995559 ) ;
#211 = CARTESIAN_POINT ( 'NONE',  ( 6.000000000000000000, 75.00000000000000000, 7.347880794884119736E-16 ) ) ;
#212 = EDGE_CURVE ( 'NONE', #141, #107, #123, .T. ) ;
#213 = CARTESIAN_POINT ( 'NONE',  ( 0.000000000000000000, 1.000000000000000000, -6.000000000000000000 ) ) ;
#214 = AXIS2_PLACEMENT_3D ( 'NONE', #185, #166, #57 ) ;
#215 = STYLED_ITEM ( 'NONE', ( #306 ), #368 ) ;
#216 =( NAMED_UNIT ( * ) SI_UNIT ( $, .STERADIAN. ) SOLID_ANGLE_UNIT ( ) );
#217 =( NAMED_UNIT ( * ) SI_UNIT ( $, .STERADIAN. ) SOLID_ANGLE_UNIT ( ) );
#218 = EDGE_CURVE ( 'NONE', #204, #326, #341, .T. ) ;
#219 = DIRECTION ( 'NONE',  ( -0.000000000000000000, -1.000000000000000000, -0.000000000000000000 ) ) ;
#220 = SURFACE_STYLE_USAGE ( .BOTH. , #106 ) ;
#221 = DIRECTION ( 'NONE',  ( -0.000000000000000000, -1.000000000000000000, -0.000000000000000000 ) ) ;
#222 = PRESENTATION_LAYER_ASSIGNMENT (  '', '', ( #275 ) ) ;
#223 = EDGE_LOOP ( 'NONE', ( #263, #302 ) ) ;
#224 = APPLICATION_CONTEXT ( 'automotive_design' ) ;
#225 = DIRECTION ( 'NONE',  ( -1.000000000000000000, -1.208874916035850209E-16, 0.000000000000000000 ) ) ;
#226 = FILL_AREA_STYLE_COLOUR ( '', #116 ) ;
#227 = PLANE ( 'NONE',  #175 ) ;
#228 = ORIENTED_EDGE ( 'NONE', *, *, #303, .T. ) ;
#229 = EDGE_CURVE ( 'NONE', #83, #326, #128, .T. ) ;
#230 = ORIENTED_EDGE ( 'NONE', *, *, #303, .F. ) ;
#231 = PRODUCT_DEFINITION_SHAPE ( 'NONE', 'NONE',  #66 ) ;
#232 = LINE ( 'NONE', #78, #89 ) ;
#233 = ORIENTED_EDGE ( 'NONE', *, *, #229, .T. ) ;
#234 =( LENGTH_UNIT ( ) NAMED_UNIT ( * ) SI_UNIT ( .MILLI., .METRE. ) );
#235 = EDGE_CURVE ( 'NONE', #107, #333, #28, .T. ) ;
#236 = SURFACE_SIDE_STYLE ('',( #148 ) ) ;
#237 = CARTESIAN_POINT ( 'NONE',  ( 6.123233995736766282E-16, 1.000000000000000000, 5.000000000000000000 ) ) ;
#238 = CARTESIAN_POINT ( 'NONE',  ( 0.000000000000000000, 18.00000000000000000, 0.000000000000000000 ) ) ;
#239 = TOROIDAL_SURFACE ( 'NONE', #214, 5.000000000000000000, 0.9999999999999995559 ) ;
#240 =( GEOMETRIC_REPRESENTATION_CONTEXT ( 3 ) GLOBAL_UNCERTAINTY_ASSIGNED_CONTEXT ( ( #250 ) ) GLOBAL_UNIT_ASSIGNED_CONTEXT ( ( #97, #73, #205 ) ) REPRESENTATION_CONTEXT ( 'NONE', 'WORKASPACE' ) );
#241 = EDGE_CURVE ( 'NONE', #107, #141, #45, .T. ) ;
#242 = SURFACE_STYLE_FILL_AREA ( #65 ) ;
#243 = CARTESIAN_POINT ( 'NONE',  ( 0.000000000000000000, 0.000000000000000000, 0.000000000000000000 ) ) ;
#244 = PRESENTATION_STYLE_ASSIGNMENT (( #71 ) ) ;
#245 = STYLED_ITEM ( 'NONE', ( #126 ), #37 ) ;
#246 = DIRECTION ( 'NONE',  ( 0.000000000000000000, 0.000000000000000000, 1.000000000000000000 ) ) ;
#247 = AXIS2_PLACEMENT_3D ( 'NONE', #238, #88, #50 ) ;
#248 = FILL_AREA_STYLE_COLOUR ( '', #25 ) ;
#249 = SURFACE_SIDE_STYLE ('',( #96 ) ) ;
#250 = UNCERTAINTY_MEASURE_WITH_UNIT (LENGTH_MEASURE( 1.000000000000000082E-05 ), #97, 'distance_accuracy_value', 'NONE');
#251 = STYLED_ITEM ( 'NONE', ( #118 ), #199 ) ;
#252 = PRESENTATION_LAYER_ASSIGNMENT (  '', '', ( #215 ) ) ;
#253 = CARTESIAN_POINT ( 'NONE',  ( 0.000000000000000000, 1.000000000000000000, 0.000000000000000000 ) ) ;
#254 = DIRECTION ( 'NONE',  ( -1.208874916035850209E-16, 1.000000000000000000, -0.000000000000000000 ) ) ;
#255 = CYLINDRICAL_SURFACE ( 'NONE', #87, 6.000000000000000000 ) ;
#256 = CARTESIAN_POINT ( 'NONE',  ( -1.469576158976823750E-15, 75.00000000000000000, 0.000000000000000000 ) ) ;
#257 = DIRECTION ( 'NONE',  ( -0.000000000000000000, -1.000000000000000000, -0.000000000000000000 ) ) ;
#258 = PRESENTATION_STYLE_ASSIGNMENT (( #190 ) ) ;
#259 = PRESENTATION_STYLE_ASSIGNMENT (( #2 ) ) ;
#260 = AXIS2_PLACEMENT_3D ( 'NONE', #188, #254, #293 ) ;
#261 = ORIENTED_EDGE ( 'NONE', *, *, #32, .T. ) ;
#262 = CARTESIAN_POINT ( 'NONE',  ( -5.999999999999989342, 18.00000000000000355, 0.000000000000000000 ) ) ;
#263 = ORIENTED_EDGE ( 'NONE', *, *, #144, .T. ) ;
#264 = CARTESIAN_POINT ( 'NONE',  ( 0.000000000000000000, 0.000000000000000000, 0.000000000000000000 ) ) ;
#265 =( NAMED_UNIT ( * ) PLANE_ANGLE_UNIT ( ) SI_UNIT ( $, .RADIAN. ) );
#266 = ORIENTED_EDGE ( 'NONE', *, *, #241, .T. ) ;
#267 = STYLED_ITEM ( 'NONE', ( #244 ), #48 ) ;
#268 =( GEOMETRIC_REPRESENTATION_CONTEXT ( 3 ) GLOBAL_UNCERTAINTY_ASSIGNED_CONTEXT ( ( #310 ) ) GLOBAL_UNIT_ASSIGNED_CONTEXT ( ( #47, #265, #356 ) ) REPRESENTATION_CONTEXT ( 'NONE', 'WORKASPACE' ) );
#269 = EDGE_CURVE ( 'NONE', #328, #204, #307, .T. ) ;
#270 = AXIS2_PLACEMENT_3D ( 'NONE', #344, #170, #225 ) ;
#271 = CARTESIAN_POINT ( 'NONE',  ( 0.000000000000000000, 18.00000000000000000, 0.000000000000000000 ) ) ;
#272 =( GEOMETRIC_REPRESENTATION_CONTEXT ( 3 ) GLOBAL_UNCERTAINTY_ASSIGNED_CONTEXT ( ( #369 ) ) GLOBAL_UNIT_ASSIGNED_CONTEXT ( ( #363, #44, #99 ) ) REPRESENTATION_CONTEXT ( 'NONE', 'WORKASPACE' ) );
#273 = ADVANCED_FACE ( 'NONE', ( #165 ), #227, .F. ) ;
#274 = MECHANICAL_DESIGN_GEOMETRIC_PRESENTATION_REPRESENTATION (  '', ( #361 ), #316 ) ;
#275 = STYLED_ITEM ( 'NONE', ( #365 ), #298 ) ;
#276 = DIRECTION ( 'NONE',  ( -1.208874916035850209E-16, 1.000000000000000000, -0.000000000000000000 ) ) ;
#277 = UNCERTAINTY_MEASURE_WITH_UNIT (LENGTH_MEASURE( 1.000000000000000082E-05 ), #312, 'distance_accuracy_value', 'NONE');
#278 = SURFACE_STYLE_FILL_AREA ( #181 ) ;
#279 =( NAMED_UNIT ( * ) PLANE_ANGLE_UNIT ( ) SI_UNIT ( $, .RADIAN. ) );
#280 = FACE_OUTER_BOUND ( 'NONE', #355, .T. ) ;
#281 = SURFACE_SIDE_STYLE ('',( #161 ) ) ;
#282 = CLOSED_SHELL ( 'NONE', ( #58, #127, #75, #273 ) ) ;
#283 = COLOUR_RGB ( '',1.000000000000000000, 0.000000000000000000, 0.000000000000000000 ) ;
#284 = COLOUR_RGB ( '',1.000000000000000000, 0.000000000000000000, 0.000000000000000000 ) ;
#285 = UNCERTAINTY_MEASURE_WITH_UNIT (LENGTH_MEASURE( 1.000000000000000082E-05 ), #24, 'distance_accuracy_value', 'NONE');
#286 = CARTESIAN_POINT ( 'NONE',  ( 6.000000000000000000, 75.00000000000000000, 0.000000000000000000 ) ) ;
#287 = FACE_OUTER_BOUND ( 'NONE', #314, .T. ) ;
#288 = ORIENTED_EDGE ( 'NONE', *, *, #212, .T. ) ;
#289 = FILL_AREA_STYLE ('',( #327 ) ) ;
#290 = ADVANCED_FACE ( 'NONE', ( #280 ), #26, .T. ) ;
#291 = DIRECTION ( 'NONE',  ( 1.208874916035850209E-16, -1.000000000000000000, 0.000000000000000000 ) ) ;
#292 = MECHANICAL_DESIGN_GEOMETRIC_PRESENTATION_REPRESENTATION (  '', ( #1 ), #317 ) ;
#293 = DIRECTION ( 'NONE',  ( -1.000000000000000000, 0.000000000000000000, 0.000000000000000000 ) ) ;
#294 = EDGE_LOOP ( 'NONE', ( #31, #111, #194, #27 ) ) ;
#295 =( LENGTH_UNIT ( ) NAMED_UNIT ( * ) SI_UNIT ( .MILLI., .METRE. ) );
#296 = ORIENTED_EDGE ( 'NONE', *, *, #63, .T. ) ;
#297 = ADVANCED_BREP_SHAPE_REPRESENTATION ( '59712', ( #37, #48, #16 ), #301 ) ;
#298 = ADVANCED_FACE ( 'NONE', ( #351 ), #255, .T. ) ;
#299 = PRESENTATION_LAYER_ASSIGNMENT (  '', '', ( #245 ) ) ;
#300 = MECHANICAL_DESIGN_GEOMETRIC_PRESENTATION_REPRESENTATION (  '', ( #370 ), #155 ) ;
#301 =( GEOMETRIC_REPRESENTATION_CONTEXT ( 3 ) GLOBAL_UNCERTAINTY_ASSIGNED_CONTEXT ( ( #103 ) ) GLOBAL_UNIT_ASSIGNED_CONTEXT ( ( #295, #85, #178 ) ) REPRESENTATION_CONTEXT ( 'NONE', 'WORKASPACE' ) );
#302 = ORIENTED_EDGE ( 'NONE', *, *, #187, .T. ) ;
#303 = EDGE_CURVE ( 'NONE', #328, #83, #325, .T. ) ;
#304 = SURFACE_SIDE_STYLE ('',( #278 ) ) ;
#305 = DIRECTION ( 'NONE',  ( -1.000000000000000000, 0.000000000000000000, 0.000000000000000000 ) ) ;
#306 = PRESENTATION_STYLE_ASSIGNMENT (( #332 ) ) ;
#307 = CIRCLE ( 'NONE', #41, 6.000000000000000000 ) ;
#308 = MECHANICAL_DESIGN_GEOMETRIC_PRESENTATION_REPRESENTATION (  '', ( #275 ), #240 ) ;
#309 = CARTESIAN_POINT ( 'NONE',  ( 5.421010862427522170E-15, 18.00000000000000355, 0.000000000000000000 ) ) ;
#310 = UNCERTAINTY_MEASURE_WITH_UNIT (LENGTH_MEASURE( 1.000000000000000082E-05 ), #47, 'distance_accuracy_value', 'NONE');
#311 =( NAMED_UNIT ( * ) PLANE_ANGLE_UNIT ( ) SI_UNIT ( $, .RADIAN. ) );
#312 =( LENGTH_UNIT ( ) NAMED_UNIT ( * ) SI_UNIT ( .MILLI., .METRE. ) );
#313 = FILL_AREA_STYLE_COLOUR ( '', #284 ) ;
#314 = EDGE_LOOP ( 'NONE', ( #230, #197, #142, #209 ) ) ;
#315 = CIRCLE ( 'NONE', #364, 6.000000000000000000 ) ;
#316 =( GEOMETRIC_REPRESENTATION_CONTEXT ( 3 ) GLOBAL_UNCERTAINTY_ASSIGNED_CONTEXT ( ( #39 ) ) GLOBAL_UNIT_ASSIGNED_CONTEXT ( ( #183, #62, #217 ) ) REPRESENTATION_CONTEXT ( 'NONE', 'WORKASPACE' ) );
#317 =( GEOMETRIC_REPRESENTATION_CONTEXT ( 3 ) GLOBAL_UNCERTAINTY_ASSIGNED_CONTEXT ( ( #285 ) ) GLOBAL_UNIT_ASSIGNED_CONTEXT ( ( #24, #311, #160 ) ) REPRESENTATION_CONTEXT ( 'NONE', 'WORKASPACE' ) );
#318 = DIRECTION ( 'NONE',  ( -1.000000000000000000, 0.000000000000000000, 0.000000000000000000 ) ) ;
#319 = DIRECTION ( 'NONE',  ( 0.000000000000000000, -1.000000000000000000, -0.000000000000000000 ) ) ;
#320 = EDGE_CURVE ( 'NONE', #204, #328, #117, .T. ) ;
#321 = PLANE ( 'NONE',  #270 ) ;
#322 = FILL_AREA_STYLE ('',( #226 ) ) ;
#323 = ORIENTED_EDGE ( 'NONE', *, *, #187, .F. ) ;
#324 = AXIS2_PLACEMENT_3D ( 'NONE', #130, #109, #346 ) ;
#325 = CIRCLE ( 'NONE', #95, 1.000000000000000000 ) ;
#326 = VERTEX_POINT ( 'NONE', #335 ) ;
#327 = FILL_AREA_STYLE_COLOUR ( '', #22 ) ;
#328 = VERTEX_POINT ( 'NONE', #17 ) ;
#329 =( GEOMETRIC_REPRESENTATION_CONTEXT ( 3 ) GLOBAL_UNCERTAINTY_ASSIGNED_CONTEXT ( ( #338 ) ) GLOBAL_UNIT_ASSIGNED_CONTEXT ( ( #125, #339, #343 ) ) REPRESENTATION_CONTEXT ( 'NONE', 'WORKASPACE' ) );
#330 = AXIS2_PLACEMENT_3D ( 'NONE', #345, #319, #169 ) ;
#331 = DIRECTION ( 'NONE',  ( 0.000000000000000000, 0.000000000000000000, -1.000000000000000000 ) ) ;
#332 = SURFACE_STYLE_USAGE ( .BOTH. , #68 ) ;
#333 = VERTEX_POINT ( 'NONE', #211 ) ;
#334 = MECHANICAL_DESIGN_GEOMETRIC_PRESENTATION_REPRESENTATION (  '', ( #267 ), #329 ) ;
#335 = CARTESIAN_POINT ( 'NONE',  ( 0.000000000000000000, 0.000000000000000000, -5.000000000000000000 ) ) ;
#336 = CYLINDRICAL_SURFACE ( 'NONE', #61, 6.000000000000000000 ) ;
#337 = PRODUCT_DEFINITION_CONTEXT ( 'detailed design', #224, 'design' ) ;
#338 = UNCERTAINTY_MEASURE_WITH_UNIT (LENGTH_MEASURE( 1.000000000000000082E-05 ), #125, 'distance_accuracy_value', 'NONE');
#339 =( NAMED_UNIT ( * ) PLANE_ANGLE_UNIT ( ) SI_UNIT ( $, .RADIAN. ) );
#340 = EDGE_CURVE ( 'NONE', #350, #191, #195, .T. ) ;
#341 = CIRCLE ( 'NONE', #64, 1.000000000000000000 ) ;
#342 = MECHANICAL_DESIGN_GEOMETRIC_PRESENTATION_REPRESENTATION (  '', ( #215 ), #268 ) ;
#343 =( NAMED_UNIT ( * ) SI_UNIT ( $, .STERADIAN. ) SOLID_ANGLE_UNIT ( ) );
#344 = CARTESIAN_POINT ( 'NONE',  ( 5.421010862427522170E-15, 18.00000000000000000, 0.000000000000000000 ) ) ;
#345 = CARTESIAN_POINT ( 'NONE',  ( 0.000000000000000000, 0.000000000000000000, 0.000000000000000000 ) ) ;
#346 = DIRECTION ( 'NONE',  ( -1.000000000000000000, 0.000000000000000000, 0.000000000000000000 ) ) ;
#347 = AXIS2_PLACEMENT_3D ( 'NONE', #309, #276, #305 ) ;
#348 = COLOUR_RGB ( '',1.000000000000000000, 0.000000000000000000, 0.000000000000000000 ) ;
#349 = CARTESIAN_POINT ( 'NONE',  ( -6.000000000000003553, 75.00000000000000000, 0.000000000000000000 ) ) ;
#350 = VERTEX_POINT ( 'NONE', #115 ) ;
#351 = FACE_OUTER_BOUND ( 'NONE', #34, .T. ) ;
#352 = PRODUCT ( '59712', '59712', '', ( #20 ) ) ;
#353 = CARTESIAN_POINT ( 'NONE',  ( -6.000000000000000000, 75.00000000000000000, 0.000000000000000000 ) ) ;
#354 = SURFACE_STYLE_FILL_AREA ( #30 ) ;
#355 = EDGE_LOOP ( 'NONE', ( #11, #233 ) ) ;
#356 =( NAMED_UNIT ( * ) SI_UNIT ( $, .STERADIAN. ) SOLID_ANGLE_UNIT ( ) );
#357 = AXIS2_PLACEMENT_3D ( 'NONE', #186, #105, #318 ) ;
#358 = EDGE_LOOP ( 'NONE', ( #163, #67 ) ) ;
#359 = DIRECTION ( 'NONE',  ( 0.000000000000000000, 0.000000000000000000, -1.000000000000000000 ) ) ;
#360 = DIRECTION ( 'NONE',  ( -0.000000000000000000, -1.000000000000000000, -0.000000000000000000 ) ) ;
#361 = STYLED_ITEM ( 'NONE', ( #139 ), #91 ) ;
#362 = EDGE_LOOP ( 'NONE', ( #167, #266, #59, #323 ) ) ;
#363 =( LENGTH_UNIT ( ) NAMED_UNIT ( * ) SI_UNIT ( .MILLI., .METRE. ) );
#364 = AXIS2_PLACEMENT_3D ( 'NONE', #271, #93, #207 ) ;
#365 = PRESENTATION_STYLE_ASSIGNMENT (( #124 ) ) ;
#366 = CIRCLE ( 'NONE', #149, 6.000000000000001776 ) ;
#367 = FILL_AREA_STYLE ('',( #248 ) ) ;
#368 = ADVANCED_FACE ( 'NONE', ( #176 ), #336, .T. ) ;
#369 = UNCERTAINTY_MEASURE_WITH_UNIT (LENGTH_MEASURE( 1.000000000000000082E-05 ), #363, 'distance_accuracy_value', 'NONE');
#370 = STYLED_ITEM ( 'NONE', ( #259 ), #51 ) ;
ENDSEC;
END-ISO-10303-21;
