ISO-10303-21;
HEADER;
FILE_DESCRIPTION (( 'STEP AP214' ),
    '1' );
FILE_NAME ('59491.STEP',
    '2023-07-24T15:47:58',
    ( '' ),
    ( '' ),
    'SwSTEP 2.0',
    'SolidWorks 2023',
    '' );
FILE_SCHEMA (( 'AUTOMOTIVE_DESIGN' ));
ENDSEC;

DATA;
#1 = DIRECTION ( 'NONE',  ( 0.000000000000000000, 0.000000000000000000, -1.000000000000000000 ) ) ;
#2 = EDGE_CURVE ( 'NONE', #255, #114, #25, .T. ) ;
#3 = DIRECTION ( 'NONE',  ( 0.000000000000000000, 0.000000000000000000, -1.000000000000000000 ) ) ;
#4 = AXIS2_PLACEMENT_3D ( 'NONE', #109, #188, #236 ) ;
#5 = PRODUCT_DEFINITION_SHAPE ( 'NONE', 'NONE',  #153 ) ;
#6 =( NAMED_UNIT ( * ) SI_UNIT ( $, .STERADIAN. ) SOLID_ANGLE_UNIT ( ) );
#7 = CARTESIAN_POINT ( 'NONE',  ( -1.347111479062090180E-15, 100.0000000000000000, 0.000000000000000000 ) ) ;
#8 = EDGE_LOOP ( 'NONE', ( #158, #90 ) ) ;
#9 = CYLINDRICAL_SURFACE ( 'NONE', #234, 10.00000000000000178 ) ;
#10 = FACE_OUTER_BOUND ( 'NONE', #61, .T. ) ;
#11 = ORIENTED_EDGE ( 'NONE', *, *, #271, .F. ) ;
#12 = SURFACE_STYLE_FILL_AREA ( #37 ) ;
#13 = UNCERTAINTY_MEASURE_WITH_UNIT (LENGTH_MEASURE( 1.000000000000000082E-05 ), #281, 'distance_accuracy_value', 'NONE');
#14 = CARTESIAN_POINT ( 'NONE',  ( 10.00000000000000178, 100.0000000000000000, 1.224646799147353454E-15 ) ) ;
#15 = SURFACE_SIDE_STYLE ('',( #216 ) ) ;
#16 = CARTESIAN_POINT ( 'NONE',  ( 1.224646799147353256E-15, 40.00000000000000000, 10.00000000000000000 ) ) ;
#17 = FILL_AREA_STYLE_COLOUR ( '', #286 ) ;
#18 = PRESENTATION_STYLE_ASSIGNMENT (( #219 ) ) ;
#19 = SURFACE_STYLE_FILL_AREA ( #47 ) ;
#20 = ADVANCED_FACE ( 'NONE', ( #217 ), #44, .T. ) ;
#21 = DIRECTION ( 'NONE',  ( 0.000000000000000000, 0.000000000000000000, -1.000000000000000000 ) ) ;
#22 = CARTESIAN_POINT ( 'NONE',  ( 2.520429634751184325E-33, 40.00000000000000000, 0.000000000000000000 ) ) ;
#23 = CARTESIAN_POINT ( 'NONE',  ( 0.000000000000000000, 0.000000000000000000, 0.000000000000000000 ) ) ;
#24 = AXIS2_PLACEMENT_3D ( 'NONE', #146, #225, #204 ) ;
#25 = LINE ( 'NONE', #120, #111 ) ;
#26 = CARTESIAN_POINT ( 'NONE',  ( 10.00000000000000000, 40.00000000000000000, 1.224646799147353454E-15 ) ) ;
#27 = CLOSED_SHELL ( 'NONE', ( #108, #20, #81, #194 ) ) ;
#28 = STYLED_ITEM ( 'NONE', ( #43 ), #194 ) ;
#29 = EDGE_CURVE ( 'NONE', #196, #222, #228, .T. ) ;
#30 = ORIENTED_EDGE ( 'NONE', *, *, #77, .T. ) ;
#31 = CARTESIAN_POINT ( 'NONE',  ( 1.925929944387235853E-31, 40.00000000000000000, 0.000000000000000000 ) ) ;
#32 =( GEOMETRIC_REPRESENTATION_CONTEXT ( 3 ) GLOBAL_UNCERTAINTY_ASSIGNED_CONTEXT ( ( #56 ) ) GLOBAL_UNIT_ASSIGNED_CONTEXT ( ( #98, #55, #227 ) ) REPRESENTATION_CONTEXT ( 'NONE', 'WORKASPACE' ) );
#33 = EDGE_CURVE ( 'NONE', #255, #252, #162, .T. ) ;
#34 = ORIENTED_EDGE ( 'NONE', *, *, #265, .F. ) ;
#35 = LINE ( 'NONE', #107, #65 ) ;
#36 = CARTESIAN_POINT ( 'NONE',  ( -1.347111479062090180E-15, 100.0000000000000000, 0.000000000000000000 ) ) ;
#37 = FILL_AREA_STYLE ('',( #192 ) ) ;
#38 = AXIS2_PLACEMENT_3D ( 'NONE', #31, #164, #52 ) ;
#39 = MECHANICAL_DESIGN_GEOMETRIC_PRESENTATION_REPRESENTATION (  '', ( #128 ), #214 ) ;
#40 = CARTESIAN_POINT ( 'NONE',  ( 1.224646799147353256E-15, 0.000000000000000000, 10.00000000000000000 ) ) ;
#41 = FILL_AREA_STYLE ('',( #232 ) ) ;
#42 =( LENGTH_UNIT ( ) NAMED_UNIT ( * ) SI_UNIT ( .MILLI., .METRE. ) );
#43 = PRESENTATION_STYLE_ASSIGNMENT (( #275 ) ) ;
#44 = PLANE ( 'NONE',  #170 ) ;
#45 =( NAMED_UNIT ( * ) SI_UNIT ( $, .STERADIAN. ) SOLID_ANGLE_UNIT ( ) );
#46 = CYLINDRICAL_SURFACE ( 'NONE', #4, 10.00000000000000000 ) ;
#47 = FILL_AREA_STYLE ('',( #220 ) ) ;
#48 = EDGE_CURVE ( 'NONE', #105, #196, #205, .T. ) ;
#49 = CARTESIAN_POINT ( 'NONE',  ( 0.000000000000000000, 40.00000000000000000, -10.00000000000000000 ) ) ;
#50 = AXIS2_PLACEMENT_3D ( 'NONE', #23, #264, #245 ) ;
#51 = DIRECTION ( 'NONE',  ( 1.000000000000000000, 2.245185798436817151E-17, 0.000000000000000000 ) ) ;
#52 = DIRECTION ( 'NONE',  ( -1.000000000000000000, 0.000000000000000000, 0.000000000000000000 ) ) ;
#53 = STYLED_ITEM ( 'NONE', ( #155 ), #108 ) ;
#54 = CIRCLE ( 'NONE', #152, 10.00000000000000000 ) ;
#55 =( NAMED_UNIT ( * ) PLANE_ANGLE_UNIT ( ) SI_UNIT ( $, .RADIAN. ) );
#56 = UNCERTAINTY_MEASURE_WITH_UNIT (LENGTH_MEASURE( 1.000000000000000082E-05 ), #98, 'distance_accuracy_value', 'NONE');
#57 = DIRECTION ( 'NONE',  ( -0.000000000000000000, -1.000000000000000000, -0.000000000000000000 ) ) ;
#58 = SURFACE_STYLE_FILL_AREA ( #249 ) ;
#59 = CYLINDRICAL_SURFACE ( 'NONE', #274, 10.00000000000000000 ) ;
#60 = DIRECTION ( 'NONE',  ( -1.000000000000000000, 0.000000000000000000, 0.000000000000000000 ) ) ;
#61 = EDGE_LOOP ( 'NONE', ( #30, #73, #34, #103 ) ) ;
#62 =( LENGTH_UNIT ( ) NAMED_UNIT ( * ) SI_UNIT ( .MILLI., .METRE. ) );
#63 = ORIENTED_EDGE ( 'NONE', *, *, #48, .F. ) ;
#64 = MECHANICAL_DESIGN_GEOMETRIC_PRESENTATION_REPRESENTATION (  '', ( #95 ), #32 ) ;
#65 = VECTOR ( 'NONE', #280, 1000.000000000000000 ) ;
#66 = FACE_OUTER_BOUND ( 'NONE', #113, .T. ) ;
#67 = ORIENTED_EDGE ( 'NONE', *, *, #33, .T. ) ;
#68 = EDGE_LOOP ( 'NONE', ( #215, #173 ) ) ;
#69 = DIRECTION ( 'NONE',  ( -2.245185798436817151E-17, 1.000000000000000000, -0.000000000000000000 ) ) ;
#70 = EDGE_CURVE ( 'NONE', #154, #114, #177, .T. ) ;
#71 = EDGE_LOOP ( 'NONE', ( #11, #243, #278, #110 ) ) ;
#72 = COLOUR_RGB ( '',0.7921568627450980005, 0.8196078431372548767, 0.9333333333333333481 ) ;
#73 = ORIENTED_EDGE ( 'NONE', *, *, #271, .T. ) ;
#74 = CARTESIAN_POINT ( 'NONE',  ( 10.00000000000000178, 100.0000000000000000, 0.000000000000000000 ) ) ;
#75 =( NAMED_UNIT ( * ) SI_UNIT ( $, .STERADIAN. ) SOLID_ANGLE_UNIT ( ) );
#76 = ADVANCED_BREP_SHAPE_REPRESENTATION ( '59491', ( #87, #268, #223 ), #197 ) ;
#77 = EDGE_CURVE ( 'NONE', #196, #105, #84, .T. ) ;
#78 =( GEOMETRIC_REPRESENTATION_CONTEXT ( 3 ) GLOBAL_UNCERTAINTY_ASSIGNED_CONTEXT ( ( #13 ) ) GLOBAL_UNIT_ASSIGNED_CONTEXT ( ( #281, #88, #171 ) ) REPRESENTATION_CONTEXT ( 'NONE', 'WORKASPACE' ) );
#79 = CARTESIAN_POINT ( 'NONE',  ( 0.000000000000000000, 0.000000000000000000, -10.00000000000000000 ) ) ;
#80 = EDGE_CURVE ( 'NONE', #114, #154, #116, .T. ) ;
#81 = ADVANCED_FACE ( 'NONE', ( #104 ), #59, .T. ) ;
#82 = PRODUCT ( '59491', '59491', '', ( #176 ) ) ;
#83 = FILL_AREA_STYLE_COLOUR ( '', #91 ) ;
#84 = CIRCLE ( 'NONE', #121, 10.00000000000000000 ) ;
#85 = MECHANICAL_DESIGN_GEOMETRIC_PRESENTATION_REPRESENTATION (  '', ( #180 ), #151 ) ;
#86 = MECHANICAL_DESIGN_GEOMETRIC_PRESENTATION_REPRESENTATION (  '', ( #28 ), #226 ) ;
#87 = MANIFOLD_SOLID_BREP ( 'Revolve - Cutting Edge', #27 ) ;
#88 =( NAMED_UNIT ( * ) PLANE_ANGLE_UNIT ( ) SI_UNIT ( $, .RADIAN. ) );
#89 = DIRECTION ( 'NONE',  ( -1.000000000000000000, 0.000000000000000000, 0.000000000000000000 ) ) ;
#90 = ORIENTED_EDGE ( 'NONE', *, *, #70, .T. ) ;
#91 = COLOUR_RGB ( '',0.7921568627450980005, 0.8196078431372548767, 0.9333333333333333481 ) ;
#92 = DIRECTION ( 'NONE',  ( -2.245185798436817151E-17, 1.000000000000000000, -0.000000000000000000 ) ) ;
#93 =( NAMED_UNIT ( * ) PLANE_ANGLE_UNIT ( ) SI_UNIT ( $, .RADIAN. ) );
#94 =( NAMED_UNIT ( * ) PLANE_ANGLE_UNIT ( ) SI_UNIT ( $, .RADIAN. ) );
#95 = STYLED_ITEM ( 'NONE', ( #129 ), #20 ) ;
#96 = ADVANCED_FACE ( 'NONE', ( #259 ), #238, .F. ) ;
#97 = PRODUCT_DEFINITION_FORMATION_WITH_SPECIFIED_SOURCE ( 'ANY', '', #82, .NOT_KNOWN. ) ;
#98 =( LENGTH_UNIT ( ) NAMED_UNIT ( * ) SI_UNIT ( .MILLI., .METRE. ) );
#99 = DIRECTION ( 'NONE',  ( 0.000000000000000000, 0.000000000000000000, -1.000000000000000000 ) ) ;
#100 = APPLICATION_CONTEXT ( 'automotive_design' ) ;
#101 = AXIS2_PLACEMENT_3D ( 'NONE', #7, #102, #272 ) ;
#102 = DIRECTION ( 'NONE',  ( -2.245185798436817151E-17, 1.000000000000000000, -0.000000000000000000 ) ) ;
#103 = ORIENTED_EDGE ( 'NONE', *, *, #29, .F. ) ;
#104 = FACE_OUTER_BOUND ( 'NONE', #71, .T. ) ;
#105 = VERTEX_POINT ( 'NONE', #16 ) ;
#106 = CLOSED_SHELL ( 'NONE', ( #189, #96, #182, #256 ) ) ;
#107 = CARTESIAN_POINT ( 'NONE',  ( 1.224646799147353256E-15, 0.000000000000000000, 10.00000000000000000 ) ) ;
#108 = ADVANCED_FACE ( 'NONE', ( #10 ), #46, .T. ) ;
#109 = CARTESIAN_POINT ( 'NONE',  ( 0.000000000000000000, 0.000000000000000000, 0.000000000000000000 ) ) ;
#110 = ORIENTED_EDGE ( 'NONE', *, *, #224, .F. ) ;
#111 = VECTOR ( 'NONE', #137, 1000.000000000000000 ) ;
#112 = FILL_AREA_STYLE ('',( #283 ) ) ;
#113 = EDGE_LOOP ( 'NONE', ( #67, #127, #157, #181 ) ) ;
#114 = VERTEX_POINT ( 'NONE', #277 ) ;
#115 = PRESENTATION_STYLE_ASSIGNMENT (( #241 ) ) ;
#116 = CIRCLE ( 'NONE', #101, 10.00000000000000355 ) ;
#117 = CARTESIAN_POINT ( 'NONE',  ( 10.00000000000000000, 100.0000000000000000, 1.224646799147353454E-15 ) ) ;
#118 = CIRCLE ( 'NONE', #229, 10.00000000000000000 ) ;
#119 = FACE_OUTER_BOUND ( 'NONE', #8, .T. ) ;
#120 = CARTESIAN_POINT ( 'NONE',  ( -10.00000000000000355, 100.0000000000000000, 0.000000000000000000 ) ) ;
#121 = AXIS2_PLACEMENT_3D ( 'NONE', #122, #203, #3 ) ;
#122 = CARTESIAN_POINT ( 'NONE',  ( 0.000000000000000000, 40.00000000000000000, 0.000000000000000000 ) ) ;
#123 = SURFACE_SIDE_STYLE ('',( #179 ) ) ;
#124 = DIRECTION ( 'NONE',  ( -0.000000000000000000, -1.000000000000000000, -0.000000000000000000 ) ) ;
#125 = EDGE_CURVE ( 'NONE', #252, #255, #54, .T. ) ;
#126 = MECHANICAL_DESIGN_GEOMETRIC_PRESENTATION_REPRESENTATION (  '', ( #53 ), #78 ) ;
#127 = ORIENTED_EDGE ( 'NONE', *, *, #248, .T. ) ;
#128 = STYLED_ITEM ( 'NONE', ( #167 ), #268 ) ;
#129 = PRESENTATION_STYLE_ASSIGNMENT (( #201 ) ) ;
#130 = ORIENTED_EDGE ( 'NONE', *, *, #125, .F. ) ;
#131 =( NAMED_UNIT ( * ) PLANE_ANGLE_UNIT ( ) SI_UNIT ( $, .RADIAN. ) );
#132 = EDGE_LOOP ( 'NONE', ( #185, #130 ) ) ;
#133 = UNCERTAINTY_MEASURE_WITH_UNIT (LENGTH_MEASURE( 1.000000000000000082E-05 ), #42, 'distance_accuracy_value', 'NONE');
#134 = CIRCLE ( 'NONE', #50, 10.00000000000000000 ) ;
#135 = DIRECTION ( 'NONE',  ( -1.000000000000000000, -2.245185798436817151E-17, 0.000000000000000000 ) ) ;
#136 = SURFACE_STYLE_FILL_AREA ( #112 ) ;
#137 = DIRECTION ( 'NONE',  ( -2.245185798436817151E-17, 1.000000000000000000, -0.000000000000000000 ) ) ;
#138 = CARTESIAN_POINT ( 'NONE',  ( 0.000000000000000000, 0.000000000000000000, 0.000000000000000000 ) ) ;
#139 =( NAMED_UNIT ( * ) PLANE_ANGLE_UNIT ( ) SI_UNIT ( $, .RADIAN. ) );
#140 = CARTESIAN_POINT ( 'NONE',  ( 0.000000000000000000, 0.000000000000000000, 0.000000000000000000 ) ) ;
#141 = MECHANICAL_DESIGN_GEOMETRIC_PRESENTATION_REPRESENTATION (  '', ( #254 ), #244 ) ;
#142 = CARTESIAN_POINT ( 'NONE',  ( 0.000000000000000000, 0.000000000000000000, -10.00000000000000000 ) ) ;
#143 =( LENGTH_UNIT ( ) NAMED_UNIT ( * ) SI_UNIT ( .MILLI., .METRE. ) );
#144 = PRESENTATION_LAYER_ASSIGNMENT (  '', '', ( #254 ) ) ;
#145 = APPLICATION_PROTOCOL_DEFINITION ( 'draft international standard', 'automotive_design', 1998, #100 ) ;
#146 = CARTESIAN_POINT ( 'NONE',  ( -1.347111479062090180E-15, 100.0000000000000000, 0.000000000000000000 ) ) ;
#147 = AXIS2_PLACEMENT_3D ( 'NONE', #22, #156, #135 ) ;
#148 = FILL_AREA_STYLE ('',( #17 ) ) ;
#149 = SHAPE_DEFINITION_REPRESENTATION ( #5, #76 ) ;
#150 = CARTESIAN_POINT ( 'NONE',  ( 0.000000000000000000, 40.00000000000000000, 0.000000000000000000 ) ) ;
#151 =( GEOMETRIC_REPRESENTATION_CONTEXT ( 3 ) GLOBAL_UNCERTAINTY_ASSIGNED_CONTEXT ( ( #172 ) ) GLOBAL_UNIT_ASSIGNED_CONTEXT ( ( #161, #94, #75 ) ) REPRESENTATION_CONTEXT ( 'NONE', 'WORKASPACE' ) );
#152 = AXIS2_PLACEMENT_3D ( 'NONE', #258, #92, #89 ) ;
#153 = PRODUCT_DEFINITION ( 'UNKNOWN', '', #97, #193 ) ;
#154 = VERTEX_POINT ( 'NONE', #14 ) ;
#155 = PRESENTATION_STYLE_ASSIGNMENT (( #191 ) ) ;
#156 = DIRECTION ( 'NONE',  ( -2.245185798436817151E-17, 1.000000000000000000, 0.000000000000000000 ) ) ;
#157 = ORIENTED_EDGE ( 'NONE', *, *, #80, .F. ) ;
#158 = ORIENTED_EDGE ( 'NONE', *, *, #80, .T. ) ;
#159 =( NAMED_UNIT ( * ) SI_UNIT ( $, .STERADIAN. ) SOLID_ANGLE_UNIT ( ) );
#160 = CARTESIAN_POINT ( 'NONE',  ( 0.000000000000000000, 0.000000000000000000, 0.000000000000000000 ) ) ;
#161 =( LENGTH_UNIT ( ) NAMED_UNIT ( * ) SI_UNIT ( .MILLI., .METRE. ) );
#162 = CIRCLE ( 'NONE', #38, 10.00000000000000000 ) ;
#163 = COLOUR_RGB ( '',1.000000000000000000, 0.000000000000000000, 0.000000000000000000 ) ;
#164 = DIRECTION ( 'NONE',  ( -2.245185798436817151E-17, 1.000000000000000000, -0.000000000000000000 ) ) ;
#165 =( LENGTH_UNIT ( ) NAMED_UNIT ( * ) SI_UNIT ( .MILLI., .METRE. ) );
#166 = ORIENTED_EDGE ( 'NONE', *, *, #77, .F. ) ;
#167 = PRESENTATION_STYLE_ASSIGNMENT (( #190 ) ) ;
#168 = CYLINDRICAL_SURFACE ( 'NONE', #270, 10.00000000000000178 ) ;
#169 = VERTEX_POINT ( 'NONE', #40 ) ;
#170 = AXIS2_PLACEMENT_3D ( 'NONE', #150, #247, #267 ) ;
#171 =( NAMED_UNIT ( * ) SI_UNIT ( $, .STERADIAN. ) SOLID_ANGLE_UNIT ( ) );
#172 = UNCERTAINTY_MEASURE_WITH_UNIT (LENGTH_MEASURE( 1.000000000000000082E-05 ), #161, 'distance_accuracy_value', 'NONE');
#173 = ORIENTED_EDGE ( 'NONE', *, *, #224, .T. ) ;
#174 = COLOUR_RGB ( '',1.000000000000000000, 0.000000000000000000, 0.000000000000000000 ) ;
#175 = PRESENTATION_LAYER_ASSIGNMENT (  '', '', ( #128 ) ) ;
#176 = PRODUCT_CONTEXT ( 'NONE', #100, 'mechanical' ) ;
#177 = CIRCLE ( 'NONE', #24, 10.00000000000000355 ) ;
#178 = CARTESIAN_POINT ( 'NONE',  ( -10.00000000000000000, 40.00000000000000000, 0.000000000000000000 ) ) ;
#179 = SURFACE_STYLE_FILL_AREA ( #148 ) ;
#180 = STYLED_ITEM ( 'NONE', ( #115 ), #81 ) ;
#181 = ORIENTED_EDGE ( 'NONE', *, *, #2, .F. ) ;
#182 = ADVANCED_FACE ( 'NONE', ( #211 ), #168, .T. ) ;
#183 = CARTESIAN_POINT ( 'NONE',  ( -1.347111479062090180E-15, 100.0000000000000000, 0.000000000000000000 ) ) ;
#184 = SURFACE_SIDE_STYLE ('',( #58 ) ) ;
#185 = ORIENTED_EDGE ( 'NONE', *, *, #33, .F. ) ;
#186 = UNCERTAINTY_MEASURE_WITH_UNIT (LENGTH_MEASURE( 1.000000000000000082E-05 ), #165, 'distance_accuracy_value', 'NONE');
#187 =( NAMED_UNIT ( * ) SI_UNIT ( $, .STERADIAN. ) SOLID_ANGLE_UNIT ( ) );
#188 = DIRECTION ( 'NONE',  ( -0.000000000000000000, -1.000000000000000000, -0.000000000000000000 ) ) ;
#189 = ADVANCED_FACE ( 'NONE', ( #66 ), #9, .T. ) ;
#190 = SURFACE_STYLE_USAGE ( .BOTH. , #184 ) ;
#191 = SURFACE_STYLE_USAGE ( .BOTH. , #212 ) ;
#192 = FILL_AREA_STYLE_COLOUR ( '', #233 ) ;
#193 = PRODUCT_DEFINITION_CONTEXT ( 'detailed design', #250, 'design' ) ;
#194 = ADVANCED_FACE ( 'NONE', ( #257 ), #235, .T. ) ;
#195 = LINE ( 'NONE', #117, #251 ) ;
#196 = VERTEX_POINT ( 'NONE', #49 ) ;
#197 =( GEOMETRIC_REPRESENTATION_CONTEXT ( 3 ) GLOBAL_UNCERTAINTY_ASSIGNED_CONTEXT ( ( #186 ) ) GLOBAL_UNIT_ASSIGNED_CONTEXT ( ( #165, #273, #6 ) ) REPRESENTATION_CONTEXT ( 'NONE', 'WORKASPACE' ) );
#198 = DIRECTION ( 'NONE',  ( -2.245185798436817151E-17, 1.000000000000000000, -0.000000000000000000 ) ) ;
#199 = DIRECTION ( 'NONE',  ( 1.000000000000000000, 0.000000000000000000, 0.000000000000000000 ) ) ;
#200 = DIRECTION ( 'NONE',  ( -0.000000000000000000, -1.000000000000000000, -0.000000000000000000 ) ) ;
#201 = SURFACE_STYLE_USAGE ( .BOTH. , #123 ) ;
#202 = AXIS2_PLACEMENT_3D ( 'NONE', #209, #57, #99 ) ;
#203 = DIRECTION ( 'NONE',  ( -0.000000000000000000, -1.000000000000000000, -0.000000000000000000 ) ) ;
#204 = DIRECTION ( 'NONE',  ( -1.000000000000000000, 0.000000000000000000, 0.000000000000000000 ) ) ;
#205 = CIRCLE ( 'NONE', #202, 10.00000000000000000 ) ;
#206 = AXIS2_PLACEMENT_3D ( 'NONE', #74, #266, #51 ) ;
#207 = PRODUCT_RELATED_PRODUCT_CATEGORY ( 'part', '', ( #82 ) ) ;
#208 = ORIENTED_EDGE ( 'NONE', *, *, #70, .F. ) ;
#209 = CARTESIAN_POINT ( 'NONE',  ( 0.000000000000000000, 40.00000000000000000, 0.000000000000000000 ) ) ;
#210 = EDGE_LOOP ( 'NONE', ( #166, #63 ) ) ;
#211 = FACE_OUTER_BOUND ( 'NONE', #237, .T. ) ;
#212 = SURFACE_SIDE_STYLE ('',( #136 ) ) ;
#213 = PRESENTATION_LAYER_ASSIGNMENT (  '', '', ( #53 ) ) ;
#214 =( GEOMETRIC_REPRESENTATION_CONTEXT ( 3 ) GLOBAL_UNCERTAINTY_ASSIGNED_CONTEXT ( ( #133 ) ) GLOBAL_UNIT_ASSIGNED_CONTEXT ( ( #42, #131, #187 ) ) REPRESENTATION_CONTEXT ( 'NONE', 'WORKASPACE' ) );
#215 = ORIENTED_EDGE ( 'NONE', *, *, #265, .T. ) ;
#216 = SURFACE_STYLE_FILL_AREA ( #41 ) ;
#217 = FACE_OUTER_BOUND ( 'NONE', #210, .T. ) ;
#218 = DIRECTION ( 'NONE',  ( -2.245185798436817151E-17, 1.000000000000000000, -0.000000000000000000 ) ) ;
#219 = SURFACE_STYLE_USAGE ( .BOTH. , #287 ) ;
#220 = FILL_AREA_STYLE_COLOUR ( '', #72 ) ;
#221 = DIRECTION ( 'NONE',  ( -0.000000000000000000, -1.000000000000000000, -0.000000000000000000 ) ) ;
#222 = VERTEX_POINT ( 'NONE', #142 ) ;
#223 = AXIS2_PLACEMENT_3D ( 'NONE', #138, #263, #199 ) ;
#224 = EDGE_CURVE ( 'NONE', #169, #222, #134, .T. ) ;
#225 = DIRECTION ( 'NONE',  ( -2.245185798436817151E-17, 1.000000000000000000, -0.000000000000000000 ) ) ;
#226 =( GEOMETRIC_REPRESENTATION_CONTEXT ( 3 ) GLOBAL_UNCERTAINTY_ASSIGNED_CONTEXT ( ( #231 ) ) GLOBAL_UNIT_ASSIGNED_CONTEXT ( ( #62, #139, #159 ) ) REPRESENTATION_CONTEXT ( 'NONE', 'WORKASPACE' ) );
#227 =( NAMED_UNIT ( * ) SI_UNIT ( $, .STERADIAN. ) SOLID_ANGLE_UNIT ( ) );
#228 = LINE ( 'NONE', #79, #282 ) ;
#229 = AXIS2_PLACEMENT_3D ( 'NONE', #160, #200, #1 ) ;
#230 = ORIENTED_EDGE ( 'NONE', *, *, #248, .F. ) ;
#231 = UNCERTAINTY_MEASURE_WITH_UNIT (LENGTH_MEASURE( 1.000000000000000082E-05 ), #62, 'distance_accuracy_value', 'NONE');
#232 = FILL_AREA_STYLE_COLOUR ( '', #163 ) ;
#233 = COLOUR_RGB ( '',1.000000000000000000, 0.000000000000000000, 0.000000000000000000 ) ;
#234 = AXIS2_PLACEMENT_3D ( 'NONE', #183, #218, #60 ) ;
#235 = PLANE ( 'NONE',  #239 ) ;
#236 = DIRECTION ( 'NONE',  ( 0.000000000000000000, 0.000000000000000000, -1.000000000000000000 ) ) ;
#237 = EDGE_LOOP ( 'NONE', ( #230, #276, #284, #208 ) ) ;
#238 = PLANE ( 'NONE',  #147 ) ;
#239 = AXIS2_PLACEMENT_3D ( 'NONE', #240, #242, #21 ) ;
#240 = CARTESIAN_POINT ( 'NONE',  ( 0.000000000000000000, 0.000000000000000000, 0.000000000000000000 ) ) ;
#241 = SURFACE_STYLE_USAGE ( .BOTH. , #279 ) ;
#242 = DIRECTION ( 'NONE',  ( 0.000000000000000000, -1.000000000000000000, -0.000000000000000000 ) ) ;
#243 = ORIENTED_EDGE ( 'NONE', *, *, #48, .T. ) ;
#244 =( GEOMETRIC_REPRESENTATION_CONTEXT ( 3 ) GLOBAL_UNCERTAINTY_ASSIGNED_CONTEXT ( ( #285 ) ) GLOBAL_UNIT_ASSIGNED_CONTEXT ( ( #143, #93, #45 ) ) REPRESENTATION_CONTEXT ( 'NONE', 'WORKASPACE' ) );
#245 = DIRECTION ( 'NONE',  ( 0.000000000000000000, 0.000000000000000000, -1.000000000000000000 ) ) ;
#246 = PRESENTATION_LAYER_ASSIGNMENT (  '', '', ( #95 ) ) ;
#247 = DIRECTION ( 'NONE',  ( 0.000000000000000000, 1.000000000000000000, 0.000000000000000000 ) ) ;
#248 = EDGE_CURVE ( 'NONE', #252, #154, #195, .T. ) ;
#249 = FILL_AREA_STYLE ('',( #83 ) ) ;
#250 = APPLICATION_CONTEXT ( 'automotive_design' ) ;
#251 = VECTOR ( 'NONE', #198, 1000.000000000000000 ) ;
#252 = VERTEX_POINT ( 'NONE', #26 ) ;
#253 = DIRECTION ( 'NONE',  ( -1.000000000000000000, 0.000000000000000000, 0.000000000000000000 ) ) ;
#254 = STYLED_ITEM ( 'NONE', ( #18 ), #87 ) ;
#255 = VERTEX_POINT ( 'NONE', #178 ) ;
#256 = ADVANCED_FACE ( 'NONE', ( #119 ), #262, .F. ) ;
#257 = FACE_OUTER_BOUND ( 'NONE', #68, .T. ) ;
#258 = CARTESIAN_POINT ( 'NONE',  ( 1.925929944387235853E-31, 40.00000000000000000, 0.000000000000000000 ) ) ;
#259 = FACE_OUTER_BOUND ( 'NONE', #132, .T. ) ;
#260 = DIRECTION ( 'NONE',  ( 0.000000000000000000, 0.000000000000000000, -1.000000000000000000 ) ) ;
#261 = APPLICATION_PROTOCOL_DEFINITION ( 'draft international standard', 'automotive_design', 1998, #250 ) ;
#262 = PLANE ( 'NONE',  #206 ) ;
#263 = DIRECTION ( 'NONE',  ( 0.000000000000000000, 0.000000000000000000, 1.000000000000000000 ) ) ;
#264 = DIRECTION ( 'NONE',  ( -0.000000000000000000, -1.000000000000000000, -0.000000000000000000 ) ) ;
#265 = EDGE_CURVE ( 'NONE', #222, #169, #118, .T. ) ;
#266 = DIRECTION ( 'NONE',  ( 2.245185798436817151E-17, -1.000000000000000000, 0.000000000000000000 ) ) ;
#267 = DIRECTION ( 'NONE',  ( 0.000000000000000000, -0.000000000000000000, 1.000000000000000000 ) ) ;
#268 = MANIFOLD_SOLID_BREP ( 'Revolve - Tool Body (Straight Shanked)', #106 ) ;
#269 = PRESENTATION_LAYER_ASSIGNMENT (  '', '', ( #180 ) ) ;
#270 = AXIS2_PLACEMENT_3D ( 'NONE', #36, #69, #253 ) ;
#271 = EDGE_CURVE ( 'NONE', #105, #169, #35, .T. ) ;
#272 = DIRECTION ( 'NONE',  ( -1.000000000000000000, 0.000000000000000000, 0.000000000000000000 ) ) ;
#273 =( NAMED_UNIT ( * ) PLANE_ANGLE_UNIT ( ) SI_UNIT ( $, .RADIAN. ) );
#274 = AXIS2_PLACEMENT_3D ( 'NONE', #140, #221, #260 ) ;
#275 = SURFACE_STYLE_USAGE ( .BOTH. , #15 ) ;
#276 = ORIENTED_EDGE ( 'NONE', *, *, #125, .T. ) ;
#277 = CARTESIAN_POINT ( 'NONE',  ( -10.00000000000000533, 100.0000000000000000, 0.000000000000000000 ) ) ;
#278 = ORIENTED_EDGE ( 'NONE', *, *, #29, .T. ) ;
#279 = SURFACE_SIDE_STYLE ('',( #12 ) ) ;
#280 = DIRECTION ( 'NONE',  ( -0.000000000000000000, -1.000000000000000000, -0.000000000000000000 ) ) ;
#281 =( LENGTH_UNIT ( ) NAMED_UNIT ( * ) SI_UNIT ( .MILLI., .METRE. ) );
#282 = VECTOR ( 'NONE', #124, 1000.000000000000000 ) ;
#283 = FILL_AREA_STYLE_COLOUR ( '', #174 ) ;
#284 = ORIENTED_EDGE ( 'NONE', *, *, #2, .T. ) ;
#285 = UNCERTAINTY_MEASURE_WITH_UNIT (LENGTH_MEASURE( 1.000000000000000082E-05 ), #143, 'distance_accuracy_value', 'NONE');
#286 = COLOUR_RGB ( '',1.000000000000000000, 0.000000000000000000, 0.000000000000000000 ) ;
#287 = SURFACE_SIDE_STYLE ('',( #19 ) ) ;
#288 = PRESENTATION_LAYER_ASSIGNMENT (  '', '', ( #28 ) ) ;
ENDSEC;
END-ISO-10303-21;
