ISO-10303-21;
HEADER;
FILE_DESCRIPTION (( 'STEP AP214' ),
    '1' );
FILE_NAME ('59908.STEP',
    '2023-06-22T23:56:51',
    ( '' ),
    ( '' ),
    'SwSTEP 2.0',
    'SolidWorks 2023',
    '' );
FILE_SCHEMA (( 'AUTOMOTIVE_DESIGN' ));
ENDSEC;

DATA;
#1 = EDGE_CURVE ( 'NONE', #275, #39, #88, .T. ) ;
#2 = FACE_OUTER_BOUND ( 'NONE', #239, .T. ) ;
#3 = AXIS2_PLACEMENT_3D ( 'NONE', #302, #76, #147 ) ;
#4 = APPLICATION_PROTOCOL_DEFINITION ( 'draft international standard', 'automotive_design', 1998, #41 ) ;
#5 = DIRECTION ( 'NONE',  ( 3.265724797726278260E-17, 1.000000000000000000, -0.000000000000000000 ) ) ;
#6 =( NAMED_UNIT ( * ) SI_UNIT ( $, .STERADIAN. ) SOLID_ANGLE_UNIT ( ) );
#7 = PRESENTATION_STYLE_ASSIGNMENT (( #246 ) ) ;
#8 = CARTESIAN_POINT ( 'NONE',  ( 6.123233995736772199E-17, 2.500000000000000000, 0.000000000000000000 ) ) ;
#9 = CIRCLE ( 'NONE', #102, 0.2500000000000000000 ) ;
#10 = DIMENSIONAL_EXPONENTS ( 1.000000000000000000, 0.000000000000000000, 0.000000000000000000, 0.000000000000000000, 0.000000000000000000, 0.000000000000000000, 0.000000000000000000 ) ;
#11 = CARTESIAN_POINT ( 'NONE',  ( 0.000000000000000000, 0.000000000000000000, 0.000000000000000000 ) ) ;
#12 = PRODUCT_DEFINITION_SHAPE ( 'NONE', 'NONE',  #268 ) ;
#13 =( LENGTH_UNIT ( ) NAMED_UNIT ( * ) SI_UNIT ( $, .METRE. ) );
#14 = SURFACE_STYLE_FILL_AREA ( #292 ) ;
#15 = FILL_AREA_STYLE ('',( #130 ) ) ;
#16 = ORIENTED_EDGE ( 'NONE', *, *, #1, .T. ) ;
#17 = SURFACE_SIDE_STYLE ('',( #38 ) ) ;
#18 = ORIENTED_EDGE ( 'NONE', *, *, #245, .T. ) ;
#19 = FACE_OUTER_BOUND ( 'NONE', #214, .T. ) ;
#20 = ORIENTED_EDGE ( 'NONE', *, *, #143, .T. ) ;
#21 = CARTESIAN_POINT ( 'NONE',  ( 0.000000000000000000, 0.000000000000000000, 0.000000000000000000 ) ) ;
#22 = SURFACE_SIDE_STYLE ('',( #260 ) ) ;
#23 = MECHANICAL_DESIGN_GEOMETRIC_PRESENTATION_REPRESENTATION (  '', ( #183 ), #176 ) ;
#24 = UNCERTAINTY_MEASURE_WITH_UNIT (LENGTH_MEASURE( 1.000000000000000082E-05 ), #272, 'distance_accuracy_value', 'NONE');
#25 = AXIS2_PLACEMENT_3D ( 'NONE', #166, #116, #224 ) ;
#26 = FILL_AREA_STYLE_COLOUR ( '', #206 ) ;
#27 = DIRECTION ( 'NONE',  ( 1.000000000000000000, -3.265724797726278260E-17, 0.000000000000000000 ) ) ;
#28 = CLOSED_SHELL ( 'NONE', ( #284, #54, #73, #229 ) ) ;
#29 = DIRECTION ( 'NONE',  ( 1.000000000000000000, 0.000000000000000000, 0.000000000000000000 ) ) ;
#30 = DIRECTION ( 'NONE',  ( -1.000000000000000000, 0.000000000000000000, 0.000000000000000000 ) ) ;
#31 = SURFACE_STYLE_FILL_AREA ( #151 ) ;
#32 = FILL_AREA_STYLE ('',( #26 ) ) ;
#33 = STYLED_ITEM ( 'NONE', ( #178 ), #229 ) ;
#34 = DIRECTION ( 'NONE',  ( -1.000000000000000000, 3.265724797726278260E-17, 0.000000000000000000 ) ) ;
#35 = ORIENTED_EDGE ( 'NONE', *, *, #119, .T. ) ;
#36 = DIRECTION ( 'NONE',  ( -0.000000000000000000, -1.000000000000000000, -0.000000000000000000 ) ) ;
#37 = CIRCLE ( 'NONE', #74, 0.2499999999999999167 ) ;
#38 = SURFACE_STYLE_FILL_AREA ( #63 ) ;
#39 = VERTEX_POINT ( 'NONE', #142 ) ;
#40 = LENGTH_MEASURE_WITH_UNIT ( LENGTH_MEASURE( 0.02539999999999999897 ), #305 );
#41 = APPLICATION_CONTEXT ( 'automotive_design' ) ;
#42 = ORIENTED_EDGE ( 'NONE', *, *, #153, .T. ) ;
#43 = AXIS2_PLACEMENT_3D ( 'NONE', #264, #174, #30 ) ;
#44 = DIRECTION ( 'NONE',  ( -0.000000000000000000, -1.000000000000000000, -0.000000000000000000 ) ) ;
#45 = EDGE_CURVE ( 'NONE', #61, #275, #9, .T. ) ;
#46 = CYLINDRICAL_SURFACE ( 'NONE', #107, 0.2500000000000000000 ) ;
#47 = DIRECTION ( 'NONE',  ( 0.000000000000000000, 1.000000000000000000, 0.000000000000000000 ) ) ;
#48 = CIRCLE ( 'NONE', #146, 0.2500000000000000000 ) ;
#49 = PRESENTATION_LAYER_ASSIGNMENT (  '', '', ( #183 ) ) ;
#50 = MECHANICAL_DESIGN_GEOMETRIC_PRESENTATION_REPRESENTATION (  '', ( #68 ), #202 ) ;
#51 =( NAMED_UNIT ( * ) PLANE_ANGLE_UNIT ( ) SI_UNIT ( $, .RADIAN. ) );
#52 =( NAMED_UNIT ( * ) PLANE_ANGLE_UNIT ( ) SI_UNIT ( $, .RADIAN. ) );
#53 = COLOUR_RGB ( '',1.000000000000000000, 0.000000000000000000, 0.000000000000000000 ) ;
#54 = ADVANCED_FACE ( 'NONE', ( #237 ), #164, .T. ) ;
#55 = CYLINDRICAL_SURFACE ( 'NONE', #165, 0.2499999999999999722 ) ;
#56 = PLANE ( 'NONE',  #160 ) ;
#57 = SURFACE_SIDE_STYLE ('',( #226 ) ) ;
#58 = APPLICATION_CONTEXT ( 'automotive_design' ) ;
#59 = AXIS2_PLACEMENT_3D ( 'NONE', #280, #241, #75 ) ;
#60 = CARTESIAN_POINT ( 'NONE',  ( 0.000000000000000000, 0.6250000000000000000, 0.000000000000000000 ) ) ;
#61 = VERTEX_POINT ( 'NONE', #279 ) ;
#62 = DIMENSIONAL_EXPONENTS ( 1.000000000000000000, 0.000000000000000000, 0.000000000000000000, 0.000000000000000000, 0.000000000000000000, 0.000000000000000000, 0.000000000000000000 ) ;
#63 = FILL_AREA_STYLE ('',( #84 ) ) ;
#64 = EDGE_LOOP ( 'NONE', ( #159, #71, #181, #109 ) ) ;
#65 = SURFACE_STYLE_USAGE ( .BOTH. , #17 ) ;
#66 = ORIENTED_EDGE ( 'NONE', *, *, #298, .F. ) ;
#67 = CYLINDRICAL_SURFACE ( 'NONE', #137, 0.2500000000000000000 ) ;
#68 = STYLED_ITEM ( 'NONE', ( #7 ), #195 ) ;
#69 = PRODUCT_DEFINITION_FORMATION_WITH_SPECIFIED_SOURCE ( 'ANY', '', #187, .NOT_KNOWN. ) ;
#70 = ORIENTED_EDGE ( 'NONE', *, *, #1, .F. ) ;
#71 = ORIENTED_EDGE ( 'NONE', *, *, #89, .T. ) ;
#72 =( NAMED_UNIT ( * ) SI_UNIT ( $, .STERADIAN. ) SOLID_ANGLE_UNIT ( ) );
#73 = ADVANCED_FACE ( 'NONE', ( #115 ), #46, .T. ) ;
#74 = AXIS2_PLACEMENT_3D ( 'NONE', #152, #269, #172 ) ;
#75 = DIRECTION ( 'NONE',  ( -1.000000000000000000, 0.000000000000000000, 0.000000000000000000 ) ) ;
#76 = DIRECTION ( 'NONE',  ( -0.000000000000000000, -1.000000000000000000, -0.000000000000000000 ) ) ;
#77 = CIRCLE ( 'NONE', #124, 0.2500000000000000000 ) ;
#78 = FACE_OUTER_BOUND ( 'NONE', #207, .T. ) ;
#79 = CARTESIAN_POINT ( 'NONE',  ( 0.2500000000000000000, 2.500000000000000000, 3.061616997868382402E-17 ) ) ;
#80 = CARTESIAN_POINT ( 'NONE',  ( 3.061616997868383018E-17, 0.6250000000000000000, 0.2500000000000000000 ) ) ;
#81 = DIRECTION ( 'NONE',  ( -3.265724797726278260E-17, -1.000000000000000000, 0.000000000000000000 ) ) ;
#82 = EDGE_CURVE ( 'NONE', #144, #163, #48, .T. ) ;
#83 = DIMENSIONAL_EXPONENTS ( 1.000000000000000000, 0.000000000000000000, 0.000000000000000000, 0.000000000000000000, 0.000000000000000000, 0.000000000000000000, 0.000000000000000000 ) ;
#84 = FILL_AREA_STYLE_COLOUR ( '', #218 ) ;
#85 = ORIENTED_EDGE ( 'NONE', *, *, #143, .F. ) ;
#86 = DIMENSIONAL_EXPONENTS ( 1.000000000000000000, 0.000000000000000000, 0.000000000000000000, 0.000000000000000000, 0.000000000000000000, 0.000000000000000000, 0.000000000000000000 ) ;
#87 = FACE_OUTER_BOUND ( 'NONE', #64, .T. ) ;
#88 = LINE ( 'NONE', #231, #91 ) ;
#89 = EDGE_CURVE ( 'NONE', #208, #163, #309, .T. ) ;
#90 = ORIENTED_EDGE ( 'NONE', *, *, #82, .T. ) ;
#91 = VECTOR ( 'NONE', #277, 39.37007874015748143 ) ;
#92 = PLANE ( 'NONE',  #191 ) ;
#93 = EDGE_LOOP ( 'NONE', ( #66, #273 ) ) ;
#94 =( NAMED_UNIT ( * ) SI_UNIT ( $, .STERADIAN. ) SOLID_ANGLE_UNIT ( ) );
#95 = CARTESIAN_POINT ( 'NONE',  ( 0.000000000000000000, 0.6250000000000000000, 0.000000000000000000 ) ) ;
#96 = CIRCLE ( 'NONE', #170, 0.2500000000000000000 ) ;
#97 = DIRECTION ( 'NONE',  ( 0.000000000000000000, 0.000000000000000000, -1.000000000000000000 ) ) ;
#98 = PLANE ( 'NONE',  #282 ) ;
#99 =( CONVERSION_BASED_UNIT ( 'INCH', #290 ) LENGTH_UNIT ( ) NAMED_UNIT ( #86 ) );
#100 = APPLICATION_PROTOCOL_DEFINITION ( 'draft international standard', 'automotive_design', 1998, #58 ) ;
#101 =( NAMED_UNIT ( * ) SI_UNIT ( $, .STERADIAN. ) SOLID_ANGLE_UNIT ( ) );
#102 = AXIS2_PLACEMENT_3D ( 'NONE', #158, #131, #104 ) ;
#103 = SURFACE_SIDE_STYLE ('',( #210 ) ) ;
#104 = DIRECTION ( 'NONE',  ( -1.000000000000000000, 0.000000000000000000, 0.000000000000000000 ) ) ;
#105 = SURFACE_STYLE_USAGE ( .BOTH. , #103 ) ;
#106 = SURFACE_SIDE_STYLE ('',( #14 ) ) ;
#107 = AXIS2_PLACEMENT_3D ( 'NONE', #120, #257, #148 ) ;
#108 = ORIENTED_EDGE ( 'NONE', *, *, #167, .T. ) ;
#109 = ORIENTED_EDGE ( 'NONE', *, *, #235, .F. ) ;
#110 = LINE ( 'NONE', #192, #301 ) ;
#111 = ORIENTED_EDGE ( 'NONE', *, *, #134, .T. ) ;
#112 = CLOSED_SHELL ( 'NONE', ( #220, #278, #122, #177 ) ) ;
#113 = DIRECTION ( 'NONE',  ( 0.000000000000000000, 0.000000000000000000, 1.000000000000000000 ) ) ;
#114 =( GEOMETRIC_REPRESENTATION_CONTEXT ( 3 ) GLOBAL_UNCERTAINTY_ASSIGNED_CONTEXT ( ( #145 ) ) GLOBAL_UNIT_ASSIGNED_CONTEXT ( ( #154, #162, #247 ) ) REPRESENTATION_CONTEXT ( 'NONE', 'WORKASPACE' ) );
#115 = FACE_OUTER_BOUND ( 'NONE', #232, .T. ) ;
#116 = DIRECTION ( 'NONE',  ( -0.000000000000000000, -1.000000000000000000, -0.000000000000000000 ) ) ;
#117 =( CONVERSION_BASED_UNIT ( 'INCH', #219 ) LENGTH_UNIT ( ) NAMED_UNIT ( #62 ) );
#118 =( GEOMETRIC_REPRESENTATION_CONTEXT ( 3 ) GLOBAL_UNCERTAINTY_ASSIGNED_CONTEXT ( ( #169 ) ) GLOBAL_UNIT_ASSIGNED_CONTEXT ( ( #238, #258, #72 ) ) REPRESENTATION_CONTEXT ( 'NONE', 'WORKASPACE' ) );
#119 = EDGE_CURVE ( 'NONE', #208, #249, #182, .T. ) ;
#120 = CARTESIAN_POINT ( 'NONE',  ( 0.000000000000000000, 0.000000000000000000, 0.000000000000000000 ) ) ;
#121 =( LENGTH_UNIT ( ) NAMED_UNIT ( * ) SI_UNIT ( $, .METRE. ) );
#122 = ADVANCED_FACE ( 'NONE', ( #303 ), #196, .T. ) ;
#123 = CARTESIAN_POINT ( 'NONE',  ( 0.000000000000000000, 0.000000000000000000, -0.2500000000000000000 ) ) ;
#124 = AXIS2_PLACEMENT_3D ( 'NONE', #140, #283, #255 ) ;
#125 =( CONVERSION_BASED_UNIT ( 'INCH', #205 ) LENGTH_UNIT ( ) NAMED_UNIT ( #132 ) );
#126 = SURFACE_SIDE_STYLE ('',( #31 ) ) ;
#127 = MECHANICAL_DESIGN_GEOMETRIC_PRESENTATION_REPRESENTATION (  '', ( #190 ), #189 ) ;
#128 =( GEOMETRIC_REPRESENTATION_CONTEXT ( 3 ) GLOBAL_UNCERTAINTY_ASSIGNED_CONTEXT ( ( #265 ) ) GLOBAL_UNIT_ASSIGNED_CONTEXT ( ( #99, #52, #133 ) ) REPRESENTATION_CONTEXT ( 'NONE', 'WORKASPACE' ) );
#129 = CARTESIAN_POINT ( 'NONE',  ( -0.2500000000000000000, 0.6250000000000000000, 0.000000000000000000 ) ) ;
#130 = FILL_AREA_STYLE_COLOUR ( '', #307 ) ;
#131 = DIRECTION ( 'NONE',  ( 3.265724797726278260E-17, 1.000000000000000000, -0.000000000000000000 ) ) ;
#132 = DIMENSIONAL_EXPONENTS ( 1.000000000000000000, 0.000000000000000000, 0.000000000000000000, 0.000000000000000000, 0.000000000000000000, 0.000000000000000000, 0.000000000000000000 ) ;
#133 =( NAMED_UNIT ( * ) SI_UNIT ( $, .STERADIAN. ) SOLID_ANGLE_UNIT ( ) );
#134 = EDGE_CURVE ( 'NONE', #163, #144, #286, .T. ) ;
#135 = SURFACE_STYLE_USAGE ( .BOTH. , #106 ) ;
#136 =( GEOMETRIC_REPRESENTATION_CONTEXT ( 3 ) GLOBAL_UNCERTAINTY_ASSIGNED_CONTEXT ( ( #293 ) ) GLOBAL_UNIT_ASSIGNED_CONTEXT ( ( #117, #263, #94 ) ) REPRESENTATION_CONTEXT ( 'NONE', 'WORKASPACE' ) );
#137 = AXIS2_PLACEMENT_3D ( 'NONE', #11, #36, #252 ) ;
#138 = CARTESIAN_POINT ( 'NONE',  ( 0.000000000000000000, 0.000000000000000000, 0.000000000000000000 ) ) ;
#139 = VERTEX_POINT ( 'NONE', #79 ) ;
#140 = CARTESIAN_POINT ( 'NONE',  ( 0.000000000000000000, 0.6250000000000000000, 0.000000000000000000 ) ) ;
#141 = DIMENSIONAL_EXPONENTS ( 1.000000000000000000, 0.000000000000000000, 0.000000000000000000, 0.000000000000000000, 0.000000000000000000, 0.000000000000000000, 0.000000000000000000 ) ;
#142 = CARTESIAN_POINT ( 'NONE',  ( -0.2499999999999998612, 2.500000000000000000, 0.000000000000000000 ) ) ;
#143 = EDGE_CURVE ( 'NONE', #39, #139, #175, .T. ) ;
#144 = VERTEX_POINT ( 'NONE', #123 ) ;
#145 = UNCERTAINTY_MEASURE_WITH_UNIT (LENGTH_MEASURE( 1.000000000000000082E-05 ), #154, 'distance_accuracy_value', 'NONE');
#146 = AXIS2_PLACEMENT_3D ( 'NONE', #221, #44, #97 ) ;
#147 = DIRECTION ( 'NONE',  ( 0.000000000000000000, 0.000000000000000000, -1.000000000000000000 ) ) ;
#148 = DIRECTION ( 'NONE',  ( 0.000000000000000000, 0.000000000000000000, -1.000000000000000000 ) ) ;
#149 =( LENGTH_UNIT ( ) NAMED_UNIT ( * ) SI_UNIT ( $, .METRE. ) );
#150 = CARTESIAN_POINT ( 'NONE',  ( 3.061616997868383018E-17, 0.000000000000000000, 0.2500000000000000000 ) ) ;
#151 = FILL_AREA_STYLE ('',( #173 ) ) ;
#152 = CARTESIAN_POINT ( 'NONE',  ( 6.123233995736772199E-17, 2.500000000000000000, 0.000000000000000000 ) ) ;
#153 = EDGE_CURVE ( 'NONE', #139, #39, #37, .T. ) ;
#154 =( CONVERSION_BASED_UNIT ( 'INCH', #211 ) LENGTH_UNIT ( ) NAMED_UNIT ( #141 ) );
#155 = PRESENTATION_LAYER_ASSIGNMENT (  '', '', ( #227 ) ) ;
#156 = DIMENSIONAL_EXPONENTS ( 1.000000000000000000, 0.000000000000000000, 0.000000000000000000, 0.000000000000000000, 0.000000000000000000, 0.000000000000000000, 0.000000000000000000 ) ;
#157 = ORIENTED_EDGE ( 'NONE', *, *, #45, .F. ) ;
#158 = CARTESIAN_POINT ( 'NONE',  ( 0.000000000000000000, 0.6250000000000000000, 0.000000000000000000 ) ) ;
#159 = ORIENTED_EDGE ( 'NONE', *, *, #298, .T. ) ;
#160 = AXIS2_PLACEMENT_3D ( 'NONE', #223, #81, #27 ) ;
#161 = STYLED_ITEM ( 'NONE', ( #180 ), #284 ) ;
#162 =( NAMED_UNIT ( * ) PLANE_ANGLE_UNIT ( ) SI_UNIT ( $, .RADIAN. ) );
#163 = VERTEX_POINT ( 'NONE', #150 ) ;
#164 = PLANE ( 'NONE',  #209 ) ;
#165 = AXIS2_PLACEMENT_3D ( 'NONE', #8, #291, #179 ) ;
#166 = CARTESIAN_POINT ( 'NONE',  ( 0.000000000000000000, 0.000000000000000000, 0.000000000000000000 ) ) ;
#167 = EDGE_CURVE ( 'NONE', #61, #139, #203, .T. ) ;
#168 =( LENGTH_UNIT ( ) NAMED_UNIT ( * ) SI_UNIT ( $, .METRE. ) );
#169 = UNCERTAINTY_MEASURE_WITH_UNIT (LENGTH_MEASURE( 1.000000000000000082E-05 ), #238, 'distance_accuracy_value', 'NONE');
#170 = AXIS2_PLACEMENT_3D ( 'NONE', #60, #276, #233 ) ;
#171 =( LENGTH_UNIT ( ) NAMED_UNIT ( * ) SI_UNIT ( $, .METRE. ) );
#172 = DIRECTION ( 'NONE',  ( -1.000000000000000000, 0.000000000000000000, 0.000000000000000000 ) ) ;
#173 = FILL_AREA_STYLE_COLOUR ( '', #53 ) ;
#174 = DIRECTION ( 'NONE',  ( 3.265724797726278260E-17, 1.000000000000000000, -0.000000000000000000 ) ) ;
#175 = CIRCLE ( 'NONE', #43, 0.2499999999999999167 ) ;
#176 =( GEOMETRIC_REPRESENTATION_CONTEXT ( 3 ) GLOBAL_UNCERTAINTY_ASSIGNED_CONTEXT ( ( #24 ) ) GLOBAL_UNIT_ASSIGNED_CONTEXT ( ( #272, #197, #6 ) ) REPRESENTATION_CONTEXT ( 'NONE', 'WORKASPACE' ) );
#177 = ADVANCED_FACE ( 'NONE', ( #244 ), #56, .F. ) ;
#178 = PRESENTATION_STYLE_ASSIGNMENT (( #225 ) ) ;
#179 = DIRECTION ( 'NONE',  ( -1.000000000000000000, 0.000000000000000000, 0.000000000000000000 ) ) ;
#180 = PRESENTATION_STYLE_ASSIGNMENT (( #65 ) ) ;
#181 = ORIENTED_EDGE ( 'NONE', *, *, #82, .F. ) ;
#182 = CIRCLE ( 'NONE', #3, 0.2500000000000000000 ) ;
#183 = STYLED_ITEM ( 'NONE', ( #213 ), #287 ) ;
#184 = UNCERTAINTY_MEASURE_WITH_UNIT (LENGTH_MEASURE( 1.000000000000000082E-05 ), #200, 'distance_accuracy_value', 'NONE');
#185 = DIRECTION ( 'NONE',  ( 3.265724797726278260E-17, 1.000000000000000000, -0.000000000000000000 ) ) ;
#186 = DIRECTION ( 'NONE',  ( -0.000000000000000000, -1.000000000000000000, -0.000000000000000000 ) ) ;
#187 = PRODUCT ( '59908', '59908', '', ( #222 ) ) ;
#188 = CARTESIAN_POINT ( 'NONE',  ( 0.000000000000000000, 0.6250000000000000000, -0.2500000000000000000 ) ) ;
#189 =( GEOMETRIC_REPRESENTATION_CONTEXT ( 3 ) GLOBAL_UNCERTAINTY_ASSIGNED_CONTEXT ( ( #184 ) ) GLOBAL_UNIT_ASSIGNED_CONTEXT ( ( #200, #243, #256 ) ) REPRESENTATION_CONTEXT ( 'NONE', 'WORKASPACE' ) );
#190 = STYLED_ITEM ( 'NONE', ( #308 ), #73 ) ;
#191 = AXIS2_PLACEMENT_3D ( 'NONE', #248, #185, #34 ) ;
#192 = CARTESIAN_POINT ( 'NONE',  ( 0.000000000000000000, 0.000000000000000000, -0.2500000000000000000 ) ) ;
#193 = ORIENTED_EDGE ( 'NONE', *, *, #45, .T. ) ;
#194 = FILL_AREA_STYLE_COLOUR ( '', #306 ) ;
#195 = MANIFOLD_SOLID_BREP ( 'Revolve - Cutting Edge', #28 ) ;
#196 = CYLINDRICAL_SURFACE ( 'NONE', #59, 0.2499999999999999722 ) ;
#197 =( NAMED_UNIT ( * ) PLANE_ANGLE_UNIT ( ) SI_UNIT ( $, .RADIAN. ) );
#198 = PRESENTATION_LAYER_ASSIGNMENT (  '', '', ( #33 ) ) ;
#199 = DIRECTION ( 'NONE',  ( 0.000000000000000000, -0.000000000000000000, 1.000000000000000000 ) ) ;
#200 =( CONVERSION_BASED_UNIT ( 'INCH', #259 ) LENGTH_UNIT ( ) NAMED_UNIT ( #83 ) );
#201 = CARTESIAN_POINT ( 'NONE',  ( 3.061616997868383018E-17, 0.000000000000000000, 0.2500000000000000000 ) ) ;
#202 =( GEOMETRIC_REPRESENTATION_CONTEXT ( 3 ) GLOBAL_UNCERTAINTY_ASSIGNED_CONTEXT ( ( #304 ) ) GLOBAL_UNIT_ASSIGNED_CONTEXT ( ( #125, #51, #101 ) ) REPRESENTATION_CONTEXT ( 'NONE', 'WORKASPACE' ) );
#203 = LINE ( 'NONE', #267, #288 ) ;
#204 = SHAPE_DEFINITION_REPRESENTATION ( #12, #262 ) ;
#205 = LENGTH_MEASURE_WITH_UNIT ( LENGTH_MEASURE( 0.02539999999999999897 ), #121 );
#206 = COLOUR_RGB ( '',0.7921568627450980005, 0.8196078431372548767, 0.9333333333333333481 ) ;
#207 = EDGE_LOOP ( 'NONE', ( #18, #108, #85, #70 ) ) ;
#208 = VERTEX_POINT ( 'NONE', #80 ) ;
#209 = AXIS2_PLACEMENT_3D ( 'NONE', #95, #47, #199 ) ;
#210 = SURFACE_STYLE_FILL_AREA ( #15 ) ;
#211 = LENGTH_MEASURE_WITH_UNIT ( LENGTH_MEASURE( 0.02539999999999999897 ), #230 );
#212 = PRODUCT_DEFINITION_CONTEXT ( 'detailed design', #41, 'design' ) ;
#213 = PRESENTATION_STYLE_ASSIGNMENT (( #105 ) ) ;
#214 = EDGE_LOOP ( 'NONE', ( #234, #157 ) ) ;
#215 = MECHANICAL_DESIGN_GEOMETRIC_PRESENTATION_REPRESENTATION (  '', ( #161 ), #114 ) ;
#216 = SURFACE_STYLE_USAGE ( .BOTH. , #22 ) ;
#217 = PRESENTATION_STYLE_ASSIGNMENT (( #135 ) ) ;
#218 = COLOUR_RGB ( '',1.000000000000000000, 0.000000000000000000, 0.000000000000000000 ) ;
#219 = LENGTH_MEASURE_WITH_UNIT ( LENGTH_MEASURE( 0.02539999999999999897 ), #171 );
#220 = ADVANCED_FACE ( 'NONE', ( #78 ), #55, .T. ) ;
#221 = CARTESIAN_POINT ( 'NONE',  ( 0.000000000000000000, 0.000000000000000000, 0.000000000000000000 ) ) ;
#222 = PRODUCT_CONTEXT ( 'NONE', #58, 'mechanical' ) ;
#223 = CARTESIAN_POINT ( 'NONE',  ( 0.2500000000000000000, 2.500000000000000000, 0.000000000000000000 ) ) ;
#224 = DIRECTION ( 'NONE',  ( 0.000000000000000000, 0.000000000000000000, -1.000000000000000000 ) ) ;
#225 = SURFACE_STYLE_USAGE ( .BOTH. , #126 ) ;
#226 = SURFACE_STYLE_FILL_AREA ( #32 ) ;
#227 = STYLED_ITEM ( 'NONE', ( #217 ), #54 ) ;
#228 = MECHANICAL_DESIGN_GEOMETRIC_PRESENTATION_REPRESENTATION (  '', ( #33 ), #128 ) ;
#229 = ADVANCED_FACE ( 'NONE', ( #2 ), #98, .T. ) ;
#230 =( LENGTH_UNIT ( ) NAMED_UNIT ( * ) SI_UNIT ( $, .METRE. ) );
#231 = CARTESIAN_POINT ( 'NONE',  ( -0.2499999999999998890, 2.500000000000000000, 0.000000000000000000 ) ) ;
#232 = EDGE_LOOP ( 'NONE', ( #253, #35, #271, #250 ) ) ;
#233 = DIRECTION ( 'NONE',  ( -1.000000000000000000, 0.000000000000000000, 0.000000000000000000 ) ) ;
#234 = ORIENTED_EDGE ( 'NONE', *, *, #245, .F. ) ;
#235 = EDGE_CURVE ( 'NONE', #249, #144, #110, .T. ) ;
#236 = DIRECTION ( 'NONE',  ( 0.000000000000000000, 0.000000000000000000, -1.000000000000000000 ) ) ;
#237 = FACE_OUTER_BOUND ( 'NONE', #93, .T. ) ;
#238 =( CONVERSION_BASED_UNIT ( 'INCH', #40 ) LENGTH_UNIT ( ) NAMED_UNIT ( #156 ) );
#239 = EDGE_LOOP ( 'NONE', ( #90, #111 ) ) ;
#240 = FILL_AREA_STYLE ('',( #194 ) ) ;
#241 = DIRECTION ( 'NONE',  ( 3.265724797726278260E-17, 1.000000000000000000, -0.000000000000000000 ) ) ;
#242 = PRESENTATION_LAYER_ASSIGNMENT (  '', '', ( #68 ) ) ;
#243 =( NAMED_UNIT ( * ) PLANE_ANGLE_UNIT ( ) SI_UNIT ( $, .RADIAN. ) );
#244 = FACE_OUTER_BOUND ( 'NONE', #300, .T. ) ;
#245 = EDGE_CURVE ( 'NONE', #275, #61, #96, .T. ) ;
#246 = SURFACE_STYLE_USAGE ( .BOTH. , #57 ) ;
#247 =( NAMED_UNIT ( * ) SI_UNIT ( $, .STERADIAN. ) SOLID_ANGLE_UNIT ( ) );
#248 = CARTESIAN_POINT ( 'NONE',  ( 1.333119806810542605E-34, 0.6250000000000000000, 0.000000000000000000 ) ) ;
#249 = VERTEX_POINT ( 'NONE', #188 ) ;
#250 = ORIENTED_EDGE ( 'NONE', *, *, #134, .F. ) ;
#251 = COLOUR_RGB ( '',1.000000000000000000, 0.000000000000000000, 0.000000000000000000 ) ;
#252 = DIRECTION ( 'NONE',  ( 0.000000000000000000, 0.000000000000000000, -1.000000000000000000 ) ) ;
#253 = ORIENTED_EDGE ( 'NONE', *, *, #89, .F. ) ;
#254 = FILL_AREA_STYLE_COLOUR ( '', #251 ) ;
#255 = DIRECTION ( 'NONE',  ( 0.000000000000000000, 0.000000000000000000, -1.000000000000000000 ) ) ;
#256 =( NAMED_UNIT ( * ) SI_UNIT ( $, .STERADIAN. ) SOLID_ANGLE_UNIT ( ) );
#257 = DIRECTION ( 'NONE',  ( -0.000000000000000000, -1.000000000000000000, -0.000000000000000000 ) ) ;
#258 =( NAMED_UNIT ( * ) PLANE_ANGLE_UNIT ( ) SI_UNIT ( $, .RADIAN. ) );
#259 = LENGTH_MEASURE_WITH_UNIT ( LENGTH_MEASURE( 0.02539999999999999897 ), #168 );
#260 = SURFACE_STYLE_FILL_AREA ( #240 ) ;
#261 = MECHANICAL_DESIGN_GEOMETRIC_PRESENTATION_REPRESENTATION (  '', ( #227 ), #136 ) ;
#262 = ADVANCED_BREP_SHAPE_REPRESENTATION ( '59908', ( #195, #287, #289 ), #118 ) ;
#263 =( NAMED_UNIT ( * ) PLANE_ANGLE_UNIT ( ) SI_UNIT ( $, .RADIAN. ) );
#264 = CARTESIAN_POINT ( 'NONE',  ( 6.123233995736772199E-17, 2.500000000000000000, 0.000000000000000000 ) ) ;
#265 = UNCERTAINTY_MEASURE_WITH_UNIT (LENGTH_MEASURE( 1.000000000000000082E-05 ), #99, 'distance_accuracy_value', 'NONE');
#266 = PRESENTATION_LAYER_ASSIGNMENT (  '', '', ( #161 ) ) ;
#267 = CARTESIAN_POINT ( 'NONE',  ( 0.2500000000000000555, 2.500000000000000000, 3.061616997868382402E-17 ) ) ;
#268 = PRODUCT_DEFINITION ( 'UNKNOWN', '', #69, #212 ) ;
#269 = DIRECTION ( 'NONE',  ( 3.265724797726278260E-17, 1.000000000000000000, -0.000000000000000000 ) ) ;
#270 = PRESENTATION_LAYER_ASSIGNMENT (  '', '', ( #190 ) ) ;
#271 = ORIENTED_EDGE ( 'NONE', *, *, #235, .T. ) ;
#272 =( CONVERSION_BASED_UNIT ( 'INCH', #294 ) LENGTH_UNIT ( ) NAMED_UNIT ( #10 ) );
#273 = ORIENTED_EDGE ( 'NONE', *, *, #119, .F. ) ;
#274 = PRODUCT_RELATED_PRODUCT_CATEGORY ( 'part', '', ( #187 ) ) ;
#275 = VERTEX_POINT ( 'NONE', #129 ) ;
#276 = DIRECTION ( 'NONE',  ( 3.265724797726278260E-17, 1.000000000000000000, -0.000000000000000000 ) ) ;
#277 = DIRECTION ( 'NONE',  ( 3.265724797726278260E-17, 1.000000000000000000, -0.000000000000000000 ) ) ;
#278 = ADVANCED_FACE ( 'NONE', ( #19 ), #92, .F. ) ;
#279 = CARTESIAN_POINT ( 'NONE',  ( 0.2500000000000000000, 0.6250000000000000000, 3.061616997868382402E-17 ) ) ;
#280 = CARTESIAN_POINT ( 'NONE',  ( 6.123233995736772199E-17, 2.500000000000000000, 0.000000000000000000 ) ) ;
#281 = VECTOR ( 'NONE', #285, 39.37007874015748143 ) ;
#282 = AXIS2_PLACEMENT_3D ( 'NONE', #138, #299, #236 ) ;
#283 = DIRECTION ( 'NONE',  ( -0.000000000000000000, -1.000000000000000000, -0.000000000000000000 ) ) ;
#284 = ADVANCED_FACE ( 'NONE', ( #87 ), #67, .T. ) ;
#285 = DIRECTION ( 'NONE',  ( -0.000000000000000000, -1.000000000000000000, -0.000000000000000000 ) ) ;
#286 = CIRCLE ( 'NONE', #25, 0.2500000000000000000 ) ;
#287 = MANIFOLD_SOLID_BREP ( 'Revolve - Tool Body (Straight Shanked)', #112 ) ;
#288 = VECTOR ( 'NONE', #5, 39.37007874015748143 ) ;
#289 = AXIS2_PLACEMENT_3D ( 'NONE', #21, #113, #29 ) ;
#290 = LENGTH_MEASURE_WITH_UNIT ( LENGTH_MEASURE( 0.02539999999999999897 ), #149 );
#291 = DIRECTION ( 'NONE',  ( 3.265724797726278260E-17, 1.000000000000000000, -0.000000000000000000 ) ) ;
#292 = FILL_AREA_STYLE ('',( #254 ) ) ;
#293 = UNCERTAINTY_MEASURE_WITH_UNIT (LENGTH_MEASURE( 1.000000000000000082E-05 ), #117, 'distance_accuracy_value', 'NONE');
#294 = LENGTH_MEASURE_WITH_UNIT ( LENGTH_MEASURE( 0.02539999999999999897 ), #13 );
#295 = ORIENTED_EDGE ( 'NONE', *, *, #167, .F. ) ;
#296 = EDGE_LOOP ( 'NONE', ( #295, #193, #16, #297 ) ) ;
#297 = ORIENTED_EDGE ( 'NONE', *, *, #153, .F. ) ;
#298 = EDGE_CURVE ( 'NONE', #249, #208, #77, .T. ) ;
#299 = DIRECTION ( 'NONE',  ( 0.000000000000000000, -1.000000000000000000, -0.000000000000000000 ) ) ;
#300 = EDGE_LOOP ( 'NONE', ( #20, #42 ) ) ;
#301 = VECTOR ( 'NONE', #186, 39.37007874015748143 ) ;
#302 = CARTESIAN_POINT ( 'NONE',  ( 0.000000000000000000, 0.6250000000000000000, 0.000000000000000000 ) ) ;
#303 = FACE_OUTER_BOUND ( 'NONE', #296, .T. ) ;
#304 = UNCERTAINTY_MEASURE_WITH_UNIT (LENGTH_MEASURE( 1.000000000000000082E-05 ), #125, 'distance_accuracy_value', 'NONE');
#305 =( LENGTH_UNIT ( ) NAMED_UNIT ( * ) SI_UNIT ( $, .METRE. ) );
#306 = COLOUR_RGB ( '',1.000000000000000000, 0.000000000000000000, 0.000000000000000000 ) ;
#307 = COLOUR_RGB ( '',0.7921568627450980005, 0.8196078431372548767, 0.9333333333333333481 ) ;
#308 = PRESENTATION_STYLE_ASSIGNMENT (( #216 ) ) ;
#309 = LINE ( 'NONE', #201, #281 ) ;
ENDSEC;
END-ISO-10303-21;
