ISO-10303-21;
HEADER;
FILE_DESCRIPTION (( 'STEP AP214' ),
    '1' );
FILE_NAME ('Micro_SFPM-040-60.STEP',
    '2021-09-02T07:01:09',
    ( '' ),
    ( '' ),
    'SwSTEP 2.0',
    'SolidWorks 2020',
    '' );
FILE_SCHEMA (( 'AUTOMOTIVE_DESIGN' ));
ENDSEC;

DATA;
#1 = APPLICATION_PROTOCOL_DEFINITION ( 'draft international standard', 'automotive_design', 1998, #103 ) ;
#2 = AXIS2_PLACEMENT_3D ( 'NONE', #208, #183, #21 ) ;
#3 = EDGE_CURVE ( 'NONE', #105, #133, #285, .T. ) ;
#4 = FILL_AREA_STYLE ('',( #71 ) ) ;
#5 = ORIENTED_EDGE ( 'NONE', *, *, #135, .F. ) ;
#6 = FILL_AREA_STYLE_COLOUR ( '', #24 ) ;
#7 = AXIS2_PLACEMENT_3D ( 'NONE', #140, #50, #230 ) ;
#8 = DIRECTION ( 'NONE',  ( 0.0000000000000000000, 0.0000000000000000000, -1.000000000000000000 ) ) ;
#9 = VERTEX_POINT ( 'NONE', #59 ) ;
#10 = DIRECTION ( 'NONE',  ( -1.224646799147353207E-16, -0.0000000000000000000, -1.000000000000000000 ) ) ;
#11 = CYLINDRICAL_SURFACE ( 'NONE', #228, 0.07866125999999999674 ) ;
#12 = DIMENSIONAL_EXPONENTS ( 1.000000000000000000, 0.0000000000000000000, 0.0000000000000000000, 0.0000000000000000000, 0.0000000000000000000, 0.0000000000000000000, 0.0000000000000000000 ) ;
#13 = CLOSED_SHELL ( 'NONE', ( #26, #257, #290, #224, #43, #201, #123, #221, #53, #22 ) ) ;
#14 = EDGE_CURVE ( 'NONE', #226, #282, #37, .T. ) ;
#15 = DIRECTION ( 'NONE',  ( -1.000000000000000000, 0.0000000000000000000, 0.0000000000000000000 ) ) ;
#16 = ORIENTED_EDGE ( 'NONE', *, *, #275, .F. ) ;
#17 = ORIENTED_EDGE ( 'NONE', *, *, #128, .F. ) ;
#18 = ORIENTED_EDGE ( 'NONE', *, *, #298, .T. ) ;
#19 = DIRECTION ( 'NONE',  ( -1.224646799147353207E-16, -0.0000000000000000000, -1.000000000000000000 ) ) ;
#20 = AXIS2_PLACEMENT_3D ( 'NONE', #73, #39, #78 ) ;
#21 = DIRECTION ( 'NONE',  ( -1.000000000000000000, 0.0000000000000000000, 0.0000000000000000000 ) ) ;
#22 = ADVANCED_FACE ( 'NONE', ( #101 ), #171, .F. ) ;
#23 =( CONVERSION_BASED_UNIT ( 'INCH', #255 ) LENGTH_UNIT ( ) NAMED_UNIT ( #96 ) );
#24 = COLOUR_RGB ( '',0.7921568627450980005, 0.8196078431372548767, 0.9333333333333333481 ) ;
#25 = UNCERTAINTY_MEASURE_WITH_UNIT (LENGTH_MEASURE( 1.000000000000000082E-05 ), #119, 'distance_accuracy_value', 'NONE');
#26 = ADVANCED_FACE ( 'NONE', ( #269 ), #11, .T. ) ;
#27 = CARTESIAN_POINT ( 'NONE',  ( 0.1031100000000002570, 1.354581824536888722E-17, 2.244094000000000033 ) ) ;
#28 = CONICAL_SURFACE ( 'NONE', #148, 0.07866125999999999674, 0.1745329251994338637 ) ;
#29 = AXIS2_PLACEMENT_3D ( 'NONE', #286, #35, #278 ) ;
#30 = VERTEX_POINT ( 'NONE', #288 ) ;
#31 = CARTESIAN_POINT ( 'NONE',  ( 1.238273348520836934E-16, 0.0000000000000000000, 1.011126921968824810 ) ) ;
#32 = ORIENTED_EDGE ( 'NONE', *, *, #234, .F. ) ;
#33 = ORIENTED_EDGE ( 'NONE', *, *, #207, .T. ) ;
#34 = AXIS2_PLACEMENT_3D ( 'NONE', #281, #167, #38 ) ;
#35 = DIRECTION ( 'NONE',  ( -1.224646799147353207E-16, -0.0000000000000000000, -1.000000000000000000 ) ) ;
#36 = ORIENTED_EDGE ( 'NONE', *, *, #14, .F. ) ;
#37 = LINE ( 'NONE', #289, #106 ) ;
#38 = DIRECTION ( 'NONE',  ( 1.000000000000000000, 0.0000000000000000000, 0.0000000000000000000 ) ) ;
#39 = DIRECTION ( 'NONE',  ( 0.0000000000000000000, 0.0000000000000000000, 1.000000000000000000 ) ) ;
#40 = CARTESIAN_POINT ( 'NONE',  ( 0.07866125999999999674, 9.633226027589770864E-18, -9.633226027589770864E-18 ) ) ;
#41 = ORIENTED_EDGE ( 'NONE', *, *, #213, .T. ) ;
#42 =( LENGTH_UNIT ( ) NAMED_UNIT ( * ) SI_UNIT ( $, .METRE. ) );
#43 = ADVANCED_FACE ( 'NONE', ( #174 ), #283, .T. ) ;
#44 = AXIS2_PLACEMENT_3D ( 'NONE', #152, #19, #132 ) ;
#45 = AXIS2_PLACEMENT_3D ( 'NONE', #214, #8, #143 ) ;
#46 = AXIS2_PLACEMENT_3D ( 'NONE', #125, #239, #195 ) ;
#47 = ORIENTED_EDGE ( 'NONE', *, *, #234, .T. ) ;
#48 = DIRECTION ( 'NONE',  ( -1.224646799147353207E-16, -0.0000000000000000000, -1.000000000000000000 ) ) ;
#49 = ORIENTED_EDGE ( 'NONE', *, *, #254, .F. ) ;
#50 = DIRECTION ( 'NONE',  ( 1.224646799147353207E-16, 0.0000000000000000000, 1.000000000000000000 ) ) ;
#51 = CARTESIAN_POINT ( 'NONE',  ( 0.0000000000000000000, 0.0000000000000000000, 2.244094000000000033 ) ) ;
#52 = STYLED_ITEM ( 'NONE', ( #144 ), #88 ) ;
#53 = ADVANCED_FACE ( 'NONE', ( #242 ), #219, .T. ) ;
#54 = CARTESIAN_POINT ( 'NONE',  ( 0.1181100000000001454, 1.446430334472940625E-17, 1.011126921968824810 ) ) ;
#55 = ORIENTED_EDGE ( 'NONE', *, *, #113, .F. ) ;
#56 = DIRECTION ( 'NONE',  ( -0.0000000000000000000, -0.0000000000000000000, -1.000000000000000000 ) ) ;
#57 = DIRECTION ( 'NONE',  ( 1.224646799147353207E-16, 0.0000000000000000000, 1.000000000000000000 ) ) ;
#58 =( NAMED_UNIT ( * ) SI_UNIT ( $, .STERADIAN. ) SOLID_ANGLE_UNIT ( ) );
#59 = CARTESIAN_POINT ( 'NONE',  ( -0.1181100000000000066, 0.0000000000000000000, 2.229093999999999465 ) ) ;
#60 = ORIENTED_EDGE ( 'NONE', *, *, #145, .T. ) ;
#61 = DIRECTION ( 'NONE',  ( -0.1736481776669311639, 2.126576849575783008E-17, 0.9848077530122080203 ) ) ;
#62 = DIRECTION ( 'NONE',  ( 0.7071067811865358044, 8.659560562354788645E-17, -0.7071067811865590080 ) ) ;
#63 = ORIENTED_EDGE ( 'NONE', *, *, #294, .F. ) ;
#64 = ORIENTED_EDGE ( 'NONE', *, *, #180, .T. ) ;
#65 = DIRECTION ( 'NONE',  ( 0.0000000000000000000, 0.0000000000000000000, -1.000000000000000000 ) ) ;
#66 = AXIS2_PLACEMENT_3D ( 'NONE', #31, #72, #100 ) ;
#67 = APPLICATION_PROTOCOL_DEFINITION ( 'draft international standard', 'automotive_design', 1998, #156 ) ;
#68 = CARTESIAN_POINT ( 'NONE',  ( 0.0000000000000000000, 0.0000000000000000000, 2.244094000000000033 ) ) ;
#69 = FACE_OUTER_BOUND ( 'NONE', #173, .T. ) ;
#70 = EDGE_CURVE ( 'NONE', #238, #30, #244, .T. ) ;
#71 = FILL_AREA_STYLE_COLOUR ( '', #197 ) ;
#72 = DIRECTION ( 'NONE',  ( -1.224646799147353207E-16, -0.0000000000000000000, -1.000000000000000000 ) ) ;
#73 = CARTESIAN_POINT ( 'NONE',  ( 0.0000000000000000000, 0.0000000000000000000, 0.0000000000000000000 ) ) ;
#74 = CARTESIAN_POINT ( 'NONE',  ( 0.0000000000000000000, 0.0000000000000000000, 2.244094000000000033 ) ) ;
#75 = EDGE_LOOP ( 'NONE', ( #121, #98, #63, #32 ) ) ;
#76 = ORIENTED_EDGE ( 'NONE', *, *, #180, .F. ) ;
#77 = LENGTH_MEASURE_WITH_UNIT ( LENGTH_MEASURE( 0.02539999999999999897 ), #42 );
#78 = DIRECTION ( 'NONE',  ( 1.000000000000000000, 0.0000000000000000000, -0.0000000000000000000 ) ) ;
#79 = DIRECTION ( 'NONE',  ( -1.000000000000000000, 0.0000000000000000000, 0.0000000000000000000 ) ) ;
#80 = CIRCLE ( 'NONE', #44, 0.07866125999999999674 ) ;
#81 = LINE ( 'NONE', #223, #259 ) ;
#82 = EDGE_CURVE ( 'NONE', #238, #105, #137, .T. ) ;
#83 = PRESENTATION_LAYER_ASSIGNMENT (  '', '', ( #52 ) ) ;
#84 = PRODUCT_CONTEXT ( 'NONE', #103, 'mechanical' ) ;
#85 = DIRECTION ( 'NONE',  ( 1.000000000000000000, 0.0000000000000000000, 0.0000000000000000000 ) ) ;
#86 = CARTESIAN_POINT ( 'NONE',  ( -0.1031100000000002570, 0.0000000000000000000, 2.244094000000000033 ) ) ;
#87 =( GEOMETRIC_REPRESENTATION_CONTEXT ( 3 ) GLOBAL_UNCERTAINTY_ASSIGNED_CONTEXT ( ( #136 ) ) GLOBAL_UNIT_ASSIGNED_CONTEXT ( ( #215, #264, #274 ) ) REPRESENTATION_CONTEXT ( 'NONE', 'WORKASPACE' ) );
#88 = MANIFOLD_SOLID_BREP ( 'Cut-Revolve1', #13 ) ;
#89 = CARTESIAN_POINT ( 'NONE',  ( -0.1181100000000000066, 0.0000000000000000000, 2.244094000000000033 ) ) ;
#90 = CARTESIAN_POINT ( 'NONE',  ( -0.07866125999999999674, 0.0000000000000000000, 1.926645205517954173E-17 ) ) ;
#91 = CARTESIAN_POINT ( 'NONE',  ( -0.07866125999999988572, 1.204876468615957931E-17, 0.7874019999999999353 ) ) ;
#92 = DIRECTION ( 'NONE',  ( -1.000000000000000000, 0.0000000000000000000, 1.224646799147352961E-16 ) ) ;
#93 = CIRCLE ( 'NONE', #178, 0.1031100000000002570 ) ;
#94 = SURFACE_STYLE_FILL_AREA ( #4 ) ;
#95 = ORIENTED_EDGE ( 'NONE', *, *, #249, .T. ) ;
#96 = DIMENSIONAL_EXPONENTS ( 1.000000000000000000, 0.0000000000000000000, 0.0000000000000000000, 0.0000000000000000000, 0.0000000000000000000, 0.0000000000000000000, 0.0000000000000000000 ) ;
#97 = CARTESIAN_POINT ( 'NONE',  ( 0.1181100000000000066, 1.446430334472939084E-17, 2.229093999999999465 ) ) ;
#98 = ORIENTED_EDGE ( 'NONE', *, *, #113, .T. ) ;
#99 = SURFACE_STYLE_FILL_AREA ( #246 ) ;
#100 = DIRECTION ( 'NONE',  ( 1.000000000000000000, 0.0000000000000000000, 0.0000000000000000000 ) ) ;
#101 = FACE_OUTER_BOUND ( 'NONE', #245, .T. ) ;
#102 = CIRCLE ( 'NONE', #45, 0.1181100000000000066 ) ;
#103 = APPLICATION_CONTEXT ( 'automotive_design' ) ;
#104 = DIMENSIONAL_EXPONENTS ( 1.000000000000000000, 0.0000000000000000000, 0.0000000000000000000, 0.0000000000000000000, 0.0000000000000000000, 0.0000000000000000000, 0.0000000000000000000 ) ;
#105 = VERTEX_POINT ( 'NONE', #252 ) ;
#106 = VECTOR ( 'NONE', #199, 39.37007874015748143 ) ;
#107 = AXIS2_PLACEMENT_3D ( 'NONE', #251, #231, #112 ) ;
#108 = EDGE_CURVE ( 'NONE', #133, #237, #80, .T. ) ;
#109 = SHAPE_DEFINITION_REPRESENTATION ( #126, #185 ) ;
#110 = CARTESIAN_POINT ( 'NONE',  ( 0.07866125999999999674, 9.633226027589770864E-18, 0.0000000000000000000 ) ) ;
#111 = VECTOR ( 'NONE', #159, 39.37007874015748143 ) ;
#112 = DIRECTION ( 'NONE',  ( -1.000000000000000000, 0.0000000000000000000, 0.0000000000000000000 ) ) ;
#113 = EDGE_CURVE ( 'NONE', #175, #226, #81, .T. ) ;
#114 = DIRECTION ( 'NONE',  ( 0.0000000000000000000, 0.0000000000000000000, 1.000000000000000000 ) ) ;
#115 = CARTESIAN_POINT ( 'NONE',  ( 0.0000000000000000000, 0.0000000000000000000, 2.244094000000000033 ) ) ;
#116 =( NAMED_UNIT ( * ) SI_UNIT ( $, .STERADIAN. ) SOLID_ANGLE_UNIT ( ) );
#117 = CONICAL_SURFACE ( 'NONE', #7, 0.07866125999999999674, 0.1745329251994338637 ) ;
#118 = DIRECTION ( 'NONE',  ( 1.000000000000000000, 0.0000000000000000000, 0.0000000000000000000 ) ) ;
#119 =( CONVERSION_BASED_UNIT ( 'INCH', #120 ) LENGTH_UNIT ( ) NAMED_UNIT ( #104 ) );
#120 = LENGTH_MEASURE_WITH_UNIT ( LENGTH_MEASURE( 0.02539999999999999897 ), #258 );
#121 = ORIENTED_EDGE ( 'NONE', *, *, #145, .F. ) ;
#122 = AXIS2_PLACEMENT_3D ( 'NONE', #68, #277, #162 ) ;
#123 = ADVANCED_FACE ( 'NONE', ( #153 ), #130, .T. ) ;
#124 = DIRECTION ( 'NONE',  ( -1.000000000000000000, 0.0000000000000000000, 1.224646799147352961E-16 ) ) ;
#125 = CARTESIAN_POINT ( 'NONE',  ( 0.0000000000000000000, 0.0000000000000000000, 2.244094000000000033 ) ) ;
#126 = PRODUCT_DEFINITION_SHAPE ( 'NONE', 'NONE',  #192 ) ;
#127 = EDGE_LOOP ( 'NONE', ( #158, #17, #41, #270 ) ) ;
#128 = EDGE_CURVE ( 'NONE', #105, #238, #164, .T. ) ;
#129 = CARTESIAN_POINT ( 'NONE',  ( 0.0000000000000000000, 0.0000000000000000000, 0.0000000000000000000 ) ) ;
#130 = CONICAL_SURFACE ( 'NONE', #107, 0.1031100000000002570, 0.7853981633974318477 ) ;
#131 = DIRECTION ( 'NONE',  ( -1.224646799147353207E-16, -0.0000000000000000000, -1.000000000000000000 ) ) ;
#132 = DIRECTION ( 'NONE',  ( -1.000000000000000000, 0.0000000000000000000, 1.224646799147352961E-16 ) ) ;
#133 = VERTEX_POINT ( 'NONE', #110 ) ;
#134 = CARTESIAN_POINT ( 'NONE',  ( 0.0000000000000000000, 0.0000000000000000000, 0.0000000000000000000 ) ) ;
#135 = EDGE_CURVE ( 'NONE', #238, #237, #299, .T. ) ;
#136 = UNCERTAINTY_MEASURE_WITH_UNIT (LENGTH_MEASURE( 1.000000000000000082E-05 ), #215, 'distance_accuracy_value', 'NONE');
#137 = CIRCLE ( 'NONE', #170, 0.07866125999999999674 ) ;
#138 = FACE_OUTER_BOUND ( 'NONE', #127, .T. ) ;
#139 =( GEOMETRIC_REPRESENTATION_CONTEXT ( 3 ) GLOBAL_UNCERTAINTY_ASSIGNED_CONTEXT ( ( #206 ) ) GLOBAL_UNIT_ASSIGNED_CONTEXT ( ( #23, #229, #116 ) ) REPRESENTATION_CONTEXT ( 'NONE', 'WORKASPACE' ) );
#140 = CARTESIAN_POINT ( 'NONE',  ( 9.642893389422242582E-17, 0.0000000000000000000, 0.7874019999999999353 ) ) ;
#141 = DIRECTION ( 'NONE',  ( 1.000000000000000000, 0.0000000000000000000, 0.0000000000000000000 ) ) ;
#142 = FACE_OUTER_BOUND ( 'NONE', #216, .T. ) ;
#143 = DIRECTION ( 'NONE',  ( 1.000000000000000000, 0.0000000000000000000, 0.0000000000000000000 ) ) ;
#144 = PRESENTATION_STYLE_ASSIGNMENT (( #248 ) ) ;
#145 = EDGE_CURVE ( 'NONE', #175, #147, #247, .T. ) ;
#146 = FACE_OUTER_BOUND ( 'NONE', #75, .T. ) ;
#147 = VERTEX_POINT ( 'NONE', #86 ) ;
#148 = AXIS2_PLACEMENT_3D ( 'NONE', #265, #57, #118 ) ;
#149 = PRODUCT ( 'Micro_SFPM-040-60', 'Micro_SFPM-040-60', '', ( #84 ) ) ;
#150 = DIRECTION ( 'NONE',  ( 0.0000000000000000000, 0.0000000000000000000, 1.000000000000000000 ) ) ;
#151 = ORIENTED_EDGE ( 'NONE', *, *, #70, .T. ) ;
#152 = CARTESIAN_POINT ( 'NONE',  ( 1.179729942015078748E-33, 0.0000000000000000000, 9.633226027589770864E-18 ) ) ;
#153 = FACE_OUTER_BOUND ( 'NONE', #198, .T. ) ;
#154 = DIRECTION ( 'NONE',  ( -1.224646799147353207E-16, -0.0000000000000000000, -1.000000000000000000 ) ) ;
#155 = ORIENTED_EDGE ( 'NONE', *, *, #213, .F. ) ;
#156 = APPLICATION_CONTEXT ( 'automotive_design' ) ;
#157 = CIRCLE ( 'NONE', #66, 0.1181100000000000066 ) ;
#158 = ORIENTED_EDGE ( 'NONE', *, *, #70, .F. ) ;
#159 = DIRECTION ( 'NONE',  ( -0.0000000000000000000, -0.0000000000000000000, -1.000000000000000000 ) ) ;
#160 = VECTOR ( 'NONE', #169, 39.37007874015748854 ) ;
#161 = LINE ( 'NONE', #256, #279 ) ;
#162 = DIRECTION ( 'NONE',  ( 1.000000000000000000, 0.0000000000000000000, -0.0000000000000000000 ) ) ;
#163 = PRESENTATION_STYLE_ASSIGNMENT (( #191 ) ) ;
#164 = CIRCLE ( 'NONE', #2, 0.07866125999999999674 ) ;
#165 = DIRECTION ( 'NONE',  ( -0.0000000000000000000, -0.0000000000000000000, -1.000000000000000000 ) ) ;
#166 = CARTESIAN_POINT ( 'NONE',  ( -0.07866125999999988572, 9.633226027589770864E-18, 0.7874019999999999353 ) ) ;
#167 = DIRECTION ( 'NONE',  ( -1.224646799147353207E-16, -0.0000000000000000000, -1.000000000000000000 ) ) ;
#168 = ORIENTED_EDGE ( 'NONE', *, *, #249, .F. ) ;
#169 = DIRECTION ( 'NONE',  ( -0.7071067811865358044, 0.0000000000000000000, -0.7071067811865590080 ) ) ;
#170 = AXIS2_PLACEMENT_3D ( 'NONE', #271, #131, #79 ) ;
#171 = PLANE ( 'NONE',  #20 ) ;
#172 = AXIS2_PLACEMENT_3D ( 'NONE', #209, #65, #85 ) ;
#173 = EDGE_LOOP ( 'NONE', ( #95, #60 ) ) ;
#174 = FACE_OUTER_BOUND ( 'NONE', #189, .T. ) ;
#175 = VERTEX_POINT ( 'NONE', #27 ) ;
#176 = CARTESIAN_POINT ( 'NONE',  ( 0.0000000000000000000, 0.0000000000000000000, 2.244094000000000033 ) ) ;
#177 = ORIENTED_EDGE ( 'NONE', *, *, #128, .T. ) ;
#178 = AXIS2_PLACEMENT_3D ( 'NONE', #74, #150, #235 ) ;
#179 = CIRCLE ( 'NONE', #29, 0.07866125999999999674 ) ;
#180 = EDGE_CURVE ( 'NONE', #9, #30, #297, .T. ) ;
#181 = DIRECTION ( 'NONE',  ( 0.0000000000000000000, 0.0000000000000000000, 1.000000000000000000 ) ) ;
#182 = DIRECTION ( 'NONE',  ( 0.1736481776669313581, 0.0000000000000000000, 0.9848077530122077983 ) ) ;
#183 = DIRECTION ( 'NONE',  ( -1.224646799147353207E-16, -0.0000000000000000000, -1.000000000000000000 ) ) ;
#184 =( GEOMETRIC_REPRESENTATION_CONTEXT ( 3 ) GLOBAL_UNCERTAINTY_ASSIGNED_CONTEXT ( ( #25 ) ) GLOBAL_UNIT_ASSIGNED_CONTEXT ( ( #119, #193, #58 ) ) REPRESENTATION_CONTEXT ( 'NONE', 'WORKASPACE' ) );
#185 = ADVANCED_BREP_SHAPE_REPRESENTATION ( 'Micro_SFPM-040-60', ( #88, #188 ), #184 ) ;
#186 = CYLINDRICAL_SURFACE ( 'NONE', #293, 0.1181100000000000066 ) ;
#187 = SURFACE_SIDE_STYLE ('',( #94 ) ) ;
#188 = AXIS2_PLACEMENT_3D ( 'NONE', #134, #114, #141 ) ;
#189 = EDGE_LOOP ( 'NONE', ( #36, #33, #64, #16 ) ) ;
#190 = ORIENTED_EDGE ( 'NONE', *, *, #82, .T. ) ;
#191 = SURFACE_STYLE_USAGE ( .BOTH. , #187 ) ;
#192 = PRODUCT_DEFINITION ( 'UNKNOWN', '', #233, #295 ) ;
#193 =( NAMED_UNIT ( * ) PLANE_ANGLE_UNIT ( ) SI_UNIT ( $, .RADIAN. ) );
#194 = CARTESIAN_POINT ( 'NONE',  ( 0.0000000000000000000, 0.0000000000000000000, 0.0000000000000000000 ) ) ;
#195 = DIRECTION ( 'NONE',  ( -1.000000000000000000, 0.0000000000000000000, 0.0000000000000000000 ) ) ;
#196 = ORIENTED_EDGE ( 'NONE', *, *, #135, .T. ) ;
#197 = COLOUR_RGB ( '',0.7921568627450980005, 0.8196078431372548767, 0.9333333333333333481 ) ;
#198 = EDGE_LOOP ( 'NONE', ( #55, #168, #47, #267 ) ) ;
#199 = DIRECTION ( 'NONE',  ( -0.0000000000000000000, -0.0000000000000000000, -1.000000000000000000 ) ) ;
#200 = ORIENTED_EDGE ( 'NONE', *, *, #108, .F. ) ;
#201 = ADVANCED_FACE ( 'NONE', ( #69 ), #276, .T. ) ;
#202 = VECTOR ( 'NONE', #48, 39.37007874015748143 ) ;
#203 = STYLED_ITEM ( 'NONE', ( #163 ), #185 ) ;
#204 = ORIENTED_EDGE ( 'NONE', *, *, #82, .F. ) ;
#205 = DIRECTION ( 'NONE',  ( 1.000000000000000000, 0.0000000000000000000, 0.0000000000000000000 ) ) ;
#206 = UNCERTAINTY_MEASURE_WITH_UNIT (LENGTH_MEASURE( 1.000000000000000082E-05 ), #23, 'distance_accuracy_value', 'NONE');
#207 = EDGE_CURVE ( 'NONE', #226, #9, #250, .T. ) ;
#208 = CARTESIAN_POINT ( 'NONE',  ( 9.642893389422242582E-17, 0.0000000000000000000, 0.7874019999999999353 ) ) ;
#209 = CARTESIAN_POINT ( 'NONE',  ( 0.0000000000000000000, 0.0000000000000000000, 2.229093999999999465 ) ) ;
#210 = AXIS2_PLACEMENT_3D ( 'NONE', #115, #181, #205 ) ;
#211 = LINE ( 'NONE', #243, #160 ) ;
#212 = VECTOR ( 'NONE', #10, 39.37007874015748143 ) ;
#213 = EDGE_CURVE ( 'NONE', #105, #282, #161, .T. ) ;
#214 = CARTESIAN_POINT ( 'NONE',  ( 0.0000000000000000000, 0.0000000000000000000, 2.229093999999999465 ) ) ;
#215 =( CONVERSION_BASED_UNIT ( 'INCH', #77 ) LENGTH_UNIT ( ) NAMED_UNIT ( #12 ) );
#216 = EDGE_LOOP ( 'NONE', ( #268, #253, #49, #76 ) ) ;
#217 = DIRECTION ( 'NONE',  ( -1.224646799147353207E-16, -0.0000000000000000000, -1.000000000000000000 ) ) ;
#218 = AXIS2_PLACEMENT_3D ( 'NONE', #176, #56, #15 ) ;
#219 = CYLINDRICAL_SURFACE ( 'NONE', #272, 0.07866125999999999674 ) ;
#220 = CONICAL_SURFACE ( 'NONE', #46, 0.1031100000000002570, 0.7853981633974318477 ) ;
#221 = ADVANCED_FACE ( 'NONE', ( #138 ), #117, .T. ) ;
#222 = ORIENTED_EDGE ( 'NONE', *, *, #298, .F. ) ;
#223 = CARTESIAN_POINT ( 'NONE',  ( 0.1031100000000002570, 1.262733314600838667E-17, 2.244094000000000033 ) ) ;
#224 = ADVANCED_FACE ( 'NONE', ( #142 ), #186, .T. ) ;
#225 = MECHANICAL_DESIGN_GEOMETRIC_PRESENTATION_REPRESENTATION (  '', ( #52 ), #87 ) ;
#226 = VERTEX_POINT ( 'NONE', #97 ) ;
#227 = CARTESIAN_POINT ( 'NONE',  ( -0.07866125999999999674, 0.0000000000000000000, 9.633226027589770864E-18 ) ) ;
#228 = AXIS2_PLACEMENT_3D ( 'NONE', #194, #217, #92 ) ;
#229 =( NAMED_UNIT ( * ) PLANE_ANGLE_UNIT ( ) SI_UNIT ( $, .RADIAN. ) );
#230 = DIRECTION ( 'NONE',  ( 1.000000000000000000, 0.0000000000000000000, 0.0000000000000000000 ) ) ;
#231 = DIRECTION ( 'NONE',  ( 0.0000000000000000000, 0.0000000000000000000, -1.000000000000000000 ) ) ;
#232 = CIRCLE ( 'NONE', #34, 0.1181100000000000066 ) ;
#233 = PRODUCT_DEFINITION_FORMATION_WITH_SPECIFIED_SOURCE ( 'ANY', '', #149, .NOT_KNOWN. ) ;
#234 = EDGE_CURVE ( 'NONE', #147, #9, #211, .T. ) ;
#235 = DIRECTION ( 'NONE',  ( 1.000000000000000000, 0.0000000000000000000, 0.0000000000000000000 ) ) ;
#236 = ORIENTED_EDGE ( 'NONE', *, *, #254, .T. ) ;
#237 = VERTEX_POINT ( 'NONE', #90 ) ;
#238 = VERTEX_POINT ( 'NONE', #91 ) ;
#239 = DIRECTION ( 'NONE',  ( 0.0000000000000000000, 0.0000000000000000000, -1.000000000000000000 ) ) ;
#240 = VECTOR ( 'NONE', #61, 39.37007874015747433 ) ;
#241 = EDGE_LOOP ( 'NONE', ( #204, #151, #236, #155 ) ) ;
#242 = FACE_OUTER_BOUND ( 'NONE', #291, .T. ) ;
#243 = CARTESIAN_POINT ( 'NONE',  ( -0.1031100000000002570, 0.0000000000000000000, 2.244094000000000033 ) ) ;
#244 = LINE ( 'NONE', #166, #240 ) ;
#245 = EDGE_LOOP ( 'NONE', ( #18, #287 ) ) ;
#246 = FILL_AREA_STYLE ('',( #6 ) ) ;
#247 = CIRCLE ( 'NONE', #210, 0.1031100000000002570 ) ;
#248 = SURFACE_STYLE_USAGE ( .BOTH. , #262 ) ;
#249 = EDGE_CURVE ( 'NONE', #147, #175, #93, .T. ) ;
#250 = CIRCLE ( 'NONE', #172, 0.1181100000000000066 ) ;
#251 = CARTESIAN_POINT ( 'NONE',  ( 0.0000000000000000000, 0.0000000000000000000, 2.244094000000000033 ) ) ;
#252 = CARTESIAN_POINT ( 'NONE',  ( 0.07866126000000009388, 0.0000000000000000000, 0.7874019999999999353 ) ) ;
#253 = ORIENTED_EDGE ( 'NONE', *, *, #14, .T. ) ;
#254 = EDGE_CURVE ( 'NONE', #30, #282, #232, .T. ) ;
#255 = LENGTH_MEASURE_WITH_UNIT ( LENGTH_MEASURE( 0.02539999999999999897 ), #284 );
#256 = CARTESIAN_POINT ( 'NONE',  ( 0.07866126000000009388, 0.0000000000000000000, 0.7874019999999999353 ) ) ;
#257 = ADVANCED_FACE ( 'NONE', ( #263 ), #28, .T. ) ;
#258 =( LENGTH_UNIT ( ) NAMED_UNIT ( * ) SI_UNIT ( $, .METRE. ) );
#259 = VECTOR ( 'NONE', #62, 39.37007874015748854 ) ;
#260 = PRODUCT_RELATED_PRODUCT_CATEGORY ( 'part', '', ( #149 ) ) ;
#261 = DIRECTION ( 'NONE',  ( -1.000000000000000000, 0.0000000000000000000, 0.0000000000000000000 ) ) ;
#262 = SURFACE_SIDE_STYLE ('',( #99 ) ) ;
#263 = FACE_OUTER_BOUND ( 'NONE', #241, .T. ) ;
#264 =( NAMED_UNIT ( * ) PLANE_ANGLE_UNIT ( ) SI_UNIT ( $, .RADIAN. ) );
#265 = CARTESIAN_POINT ( 'NONE',  ( 9.642893389422242582E-17, 0.0000000000000000000, 0.7874019999999999353 ) ) ;
#266 = ORIENTED_EDGE ( 'NONE', *, *, #3, .F. ) ;
#267 = ORIENTED_EDGE ( 'NONE', *, *, #207, .F. ) ;
#268 = ORIENTED_EDGE ( 'NONE', *, *, #294, .T. ) ;
#269 = FACE_OUTER_BOUND ( 'NONE', #273, .T. ) ;
#270 = ORIENTED_EDGE ( 'NONE', *, *, #275, .T. ) ;
#271 = CARTESIAN_POINT ( 'NONE',  ( 9.642893389422242582E-17, 0.0000000000000000000, 0.7874019999999999353 ) ) ;
#272 = AXIS2_PLACEMENT_3D ( 'NONE', #129, #154, #124 ) ;
#273 = EDGE_LOOP ( 'NONE', ( #190, #292, #222, #5 ) ) ;
#274 =( NAMED_UNIT ( * ) SI_UNIT ( $, .STERADIAN. ) SOLID_ANGLE_UNIT ( ) );
#275 = EDGE_CURVE ( 'NONE', #282, #30, #157, .T. ) ;
#276 = PLANE ( 'NONE',  #122 ) ;
#277 = DIRECTION ( 'NONE',  ( 0.0000000000000000000, 0.0000000000000000000, 1.000000000000000000 ) ) ;
#278 = DIRECTION ( 'NONE',  ( -1.000000000000000000, 0.0000000000000000000, 1.224646799147352961E-16 ) ) ;
#279 = VECTOR ( 'NONE', #182, 39.37007874015748143 ) ;
#280 = PRESENTATION_LAYER_ASSIGNMENT (  '', '', ( #203 ) ) ;
#281 = CARTESIAN_POINT ( 'NONE',  ( 1.238273348520836934E-16, 0.0000000000000000000, 1.011126921968824810 ) ) ;
#282 = VERTEX_POINT ( 'NONE', #54 ) ;
#283 = CYLINDRICAL_SURFACE ( 'NONE', #218, 0.1181100000000000066 ) ;
#284 =( LENGTH_UNIT ( ) NAMED_UNIT ( * ) SI_UNIT ( $, .METRE. ) );
#285 = LINE ( 'NONE', #40, #212 ) ;
#286 = CARTESIAN_POINT ( 'NONE',  ( 1.179729942015078748E-33, 0.0000000000000000000, 9.633226027589770864E-18 ) ) ;
#287 = ORIENTED_EDGE ( 'NONE', *, *, #108, .T. ) ;
#288 = CARTESIAN_POINT ( 'NONE',  ( -0.1181099999999998956, 0.0000000000000000000, 1.011126921968824810 ) ) ;
#289 = CARTESIAN_POINT ( 'NONE',  ( 0.1181100000000000066, 1.446430334472939084E-17, 2.244094000000000033 ) ) ;
#290 = ADVANCED_FACE ( 'NONE', ( #146 ), #220, .T. ) ;
#291 = EDGE_LOOP ( 'NONE', ( #266, #177, #196, #200 ) ) ;
#292 = ORIENTED_EDGE ( 'NONE', *, *, #3, .T. ) ;
#293 = AXIS2_PLACEMENT_3D ( 'NONE', #51, #165, #261 ) ;
#294 = EDGE_CURVE ( 'NONE', #9, #226, #102, .T. ) ;
#295 = PRODUCT_DEFINITION_CONTEXT ( 'detailed design', #156, 'design' ) ;
#296 = MECHANICAL_DESIGN_GEOMETRIC_PRESENTATION_REPRESENTATION (  '', ( #203 ), #139 ) ;
#297 = LINE ( 'NONE', #89, #111 ) ;
#298 = EDGE_CURVE ( 'NONE', #237, #133, #179, .T. ) ;
#299 = LINE ( 'NONE', #227, #202 ) ;
ENDSEC;
END-ISO-10303-21;
