ISO-10303-21;
HEADER;
FILE_DESCRIPTION (( 'STEP AP214' ),
    '1' );
FILE_NAME ('Micro_BEM-203-03X.STEP',
    '2021-09-03T13:06:09',
    ( '' ),
    ( '' ),
    'SwSTEP 2.0',
    'SolidWorks 2020',
    '' );
FILE_SCHEMA (( 'AUTOMOTIVE_DESIGN' ));
ENDSEC;

DATA;
#1 = LINE ( 'NONE', #53, #41 ) ;
#2 = AXIS2_PLACEMENT_3D ( 'NONE', #268, #136, #183 ) ;
#3 = PRODUCT_DEFINITION_CONTEXT ( 'detailed design', #120, 'design' ) ;
#4 = LENGTH_MEASURE_WITH_UNIT ( LENGTH_MEASURE( 0.02539999999999999897 ), #278 );
#5 = ADVANCED_FACE ( 'NONE', ( #51 ), #263, .T. ) ;
#6 = ORIENTED_EDGE ( 'NONE', *, *, #125, .F. ) ;
#7 = DIRECTION ( 'NONE',  ( -0.0000000000000000000, -0.0000000000000000000, -1.000000000000000000 ) ) ;
#8 = VERTEX_POINT ( 'NONE', #187 ) ;
#9 = EDGE_CURVE ( 'NONE', #20, #200, #23, .T. ) ;
#10 = AXIS2_PLACEMENT_3D ( 'NONE', #312, #48, #137 ) ;
#11 = AXIS2_PLACEMENT_3D ( 'NONE', #188, #92, #181 ) ;
#12 = ORIENTED_EDGE ( 'NONE', *, *, #61, .T. ) ;
#13 = ORIENTED_EDGE ( 'NONE', *, *, #15, .T. ) ;
#14 = CIRCLE ( 'NONE', #179, 0.1014484499999999956 ) ;
#15 = EDGE_CURVE ( 'NONE', #106, #134, #108, .T. ) ;
#16 = CARTESIAN_POINT ( 'NONE',  ( 1.242385195709603026E-17, 0.0000000000000000000, 0.1014484499999999956 ) ) ;
#17 = FACE_OUTER_BOUND ( 'NONE', #158, .T. ) ;
#18 = DIRECTION ( 'NONE',  ( 1.000000000000000000, 0.0000000000000000000, 0.0000000000000000000 ) ) ;
#19 = AXIS2_PLACEMENT_3D ( 'NONE', #101, #144, #105 ) ;
#20 = VERTEX_POINT ( 'NONE', #93 ) ;
#21 = CARTESIAN_POINT ( 'NONE',  ( -0.1250000000000000000, 0.0000000000000000000, 2.485000000000000320 ) ) ;
#22 =( NAMED_UNIT ( * ) SI_UNIT ( $, .STERADIAN. ) SOLID_ANGLE_UNIT ( ) );
#23 = CIRCLE ( 'NONE', #24, 0.1250000000000000000 ) ;
#24 = AXIS2_PLACEMENT_3D ( 'NONE', #292, #121, #215 ) ;
#25 = AXIS2_PLACEMENT_3D ( 'NONE', #265, #69, #49 ) ;
#26 = LINE ( 'NONE', #224, #235 ) ;
#27 = DIRECTION ( 'NONE',  ( -0.1736481776669312194, 2.126576849575783625E-17, 0.9848077530122080203 ) ) ;
#28 = FACE_OUTER_BOUND ( 'NONE', #65, .T. ) ;
#29 = CARTESIAN_POINT ( 'NONE',  ( -0.1100000000000001948, 0.0000000000000000000, 2.500000000000000000 ) ) ;
#30 = DIRECTION ( 'NONE',  ( -1.224646799147353207E-16, -0.0000000000000000000, -1.000000000000000000 ) ) ;
#31 = PRODUCT_DEFINITION_SHAPE ( 'NONE', 'NONE',  #197 ) ;
#32 = ADVANCED_FACE ( 'NONE', ( #46 ), #185, .T. ) ;
#33 = CARTESIAN_POINT ( 'NONE',  ( -0.1014484499999999817, 0.0000000000000000000, 0.1014484500000000095 ) ) ;
#34 = DIRECTION ( 'NONE',  ( -1.224646799147353207E-16, -0.0000000000000000000, -1.000000000000000000 ) ) ;
#35 = APPLICATION_PROTOCOL_DEFINITION ( 'draft international standard', 'automotive_design', 1998, #120 ) ;
#36 = AXIS2_PLACEMENT_3D ( 'NONE', #112, #73, #166 ) ;
#37 = CARTESIAN_POINT ( 'NONE',  ( -0.1014484499999999262, 1.386596847321897422E-17, 0.6250000000000000000 ) ) ;
#38 = ADVANCED_FACE ( 'NONE', ( #261 ), #171, .T. ) ;
#39 = VERTEX_POINT ( 'NONE', #95 ) ;
#40 = ORIENTED_EDGE ( 'NONE', *, *, #254, .T. ) ;
#41 = VECTOR ( 'NONE', #294, 39.37007874015748143 ) ;
#42 = ORIENTED_EDGE ( 'NONE', *, *, #15, .F. ) ;
#43 = ORIENTED_EDGE ( 'NONE', *, *, #243, .F. ) ;
#44 = ADVANCED_FACE ( 'NONE', ( #67 ), #266, .T. ) ;
#45 = DIMENSIONAL_EXPONENTS ( 1.000000000000000000, 0.0000000000000000000, 0.0000000000000000000, 0.0000000000000000000, 0.0000000000000000000, 0.0000000000000000000, 0.0000000000000000000 ) ;
#46 = FACE_OUTER_BOUND ( 'NONE', #157, .T. ) ;
#47 = AXIS2_PLACEMENT_3D ( 'NONE', #97, #30, #55 ) ;
#48 = DIRECTION ( 'NONE',  ( 0.0000000000000000000, -1.000000000000000000, 0.0000000000000000000 ) ) ;
#49 = DIRECTION ( 'NONE',  ( -1.000000000000000000, 0.0000000000000000000, 0.0000000000000000000 ) ) ;
#50 = UNCERTAINTY_MEASURE_WITH_UNIT (LENGTH_MEASURE( 1.000000000000000082E-05 ), #143, 'distance_accuracy_value', 'NONE');
#51 = FACE_OUTER_BOUND ( 'NONE', #111, .T. ) ;
#52 = EDGE_CURVE ( 'NONE', #106, #256, #274, .T. ) ;
#53 = CARTESIAN_POINT ( 'NONE',  ( 0.1014484499999999956, 1.242385195709603026E-17, -1.242385195709603026E-17 ) ) ;
#54 = CARTESIAN_POINT ( 'NONE',  ( 0.1100000000000001948, 1.438959988998141146E-17, 2.500000000000000000 ) ) ;
#55 = DIRECTION ( 'NONE',  ( -1.000000000000000000, 0.0000000000000000000, 1.224646799147353207E-16 ) ) ;
#56 = CARTESIAN_POINT ( 'NONE',  ( -0.1250000000000000000, 0.0000000000000000000, 2.500000000000000000 ) ) ;
#57 = DIRECTION ( 'NONE',  ( 0.0000000000000000000, 0.0000000000000000000, 1.000000000000000000 ) ) ;
#58 = DIRECTION ( 'NONE',  ( -1.000000000000000000, 0.0000000000000000000, 0.0000000000000000000 ) ) ;
#59 = VERTEX_POINT ( 'NONE', #210 ) ;
#60 = CONICAL_SURFACE ( 'NONE', #315, 0.1014484499999999956, 0.1745329251994339192 ) ;
#61 = EDGE_CURVE ( 'NONE', #282, #8, #155, .T. ) ;
#62 = ORIENTED_EDGE ( 'NONE', *, *, #237, .F. ) ;
#63 = ORIENTED_EDGE ( 'NONE', *, *, #52, .T. ) ;
#64 = VECTOR ( 'NONE', #107, 39.37007874015748143 ) ;
#65 = EDGE_LOOP ( 'NONE', ( #89, #178, #133, #40 ) ) ;
#66 = ADVANCED_FACE ( 'NONE', ( #17 ), #234, .T. ) ;
#67 = FACE_OUTER_BOUND ( 'NONE', #267, .T. ) ;
#68 = DIMENSIONAL_EXPONENTS ( 1.000000000000000000, 0.0000000000000000000, 0.0000000000000000000, 0.0000000000000000000, 0.0000000000000000000, 0.0000000000000000000, 0.0000000000000000000 ) ;
#69 = DIRECTION ( 'NONE',  ( 0.0000000000000000000, 0.0000000000000000000, -1.000000000000000000 ) ) ;
#70 = APPLICATION_PROTOCOL_DEFINITION ( 'draft international standard', 'automotive_design', 1998, #103 ) ;
#71 = STYLED_ITEM ( 'NONE', ( #275 ), #169 ) ;
#72 = CARTESIAN_POINT ( 'NONE',  ( 7.654042494670957853E-17, 0.0000000000000000000, 0.6250000000000000000 ) ) ;
#73 = DIRECTION ( 'NONE',  ( 0.0000000000000000000, 1.000000000000000000, 0.0000000000000000000 ) ) ;
#74 = ORIENTED_EDGE ( 'NONE', *, *, #9, .F. ) ;
#75 = VECTOR ( 'NONE', #27, 39.37007874015747433 ) ;
#76 =( NAMED_UNIT ( * ) SI_UNIT ( $, .STERADIAN. ) SOLID_ANGLE_UNIT ( ) );
#77 = EDGE_CURVE ( 'NONE', #39, #260, #14, .T. ) ;
#78 = FACE_OUTER_BOUND ( 'NONE', #232, .T. ) ;
#79 = DIRECTION ( 'NONE',  ( -1.000000000000000000, 0.0000000000000000000, 1.224646799147353207E-16 ) ) ;
#80 = UNCERTAINTY_MEASURE_WITH_UNIT (LENGTH_MEASURE( 1.000000000000000082E-05 ), #252, 'distance_accuracy_value', 'NONE');
#81 = VECTOR ( 'NONE', #128, 39.37007874015748143 ) ;
#82 = DIRECTION ( 'NONE',  ( -1.224646799147353207E-16, -0.0000000000000000000, -1.000000000000000000 ) ) ;
#83 = DIRECTION ( 'NONE',  ( -1.000000000000000000, 0.0000000000000000000, 0.0000000000000000000 ) ) ;
#84 = PRESENTATION_STYLE_ASSIGNMENT (( #123 ) ) ;
#85 = DIRECTION ( 'NONE',  ( -1.000000000000000000, 0.0000000000000000000, 1.683027188725076304E-16 ) ) ;
#86 = ADVANCED_FACE ( 'NONE', ( #290 ), #60, .T. ) ;
#87 = LENGTH_MEASURE_WITH_UNIT ( LENGTH_MEASURE( 0.02539999999999999897 ), #270 );
#88 = ORIENTED_EDGE ( 'NONE', *, *, #132, .F. ) ;
#89 = ORIENTED_EDGE ( 'NONE', *, *, #284, .F. ) ;
#90 = ORIENTED_EDGE ( 'NONE', *, *, #243, .T. ) ;
#91 =( NAMED_UNIT ( * ) SI_UNIT ( $, .STERADIAN. ) SOLID_ANGLE_UNIT ( ) );
#92 = DIRECTION ( 'NONE',  ( 0.0000000000000000000, 0.0000000000000000000, -1.000000000000000000 ) ) ;
#93 = CARTESIAN_POINT ( 'NONE',  ( 0.1250000000000000000, 1.530808498934191509E-17, 2.485000000000000320 ) ) ;
#94 = MECHANICAL_DESIGN_GEOMETRIC_PRESENTATION_REPRESENTATION (  '', ( #299 ), #147 ) ;
#95 = CARTESIAN_POINT ( 'NONE',  ( 0.1014484500000000650, 0.0000000000000000000, 0.6250000000000000000 ) ) ;
#96 = EDGE_LOOP ( 'NONE', ( #43, #6, #257, #74 ) ) ;
#97 = CARTESIAN_POINT ( 'NONE',  ( 0.0000000000000000000, 0.0000000000000000000, 0.0000000000000000000 ) ) ;
#98 = AXIS2_PLACEMENT_3D ( 'NONE', #141, #238, #163 ) ;
#99 = FACE_OUTER_BOUND ( 'NONE', #205, .T. ) ;
#100 = FACE_OUTER_BOUND ( 'NONE', #316, .T. ) ;
#101 = CARTESIAN_POINT ( 'NONE',  ( 1.242385195709603026E-17, 0.0000000000000000000, 0.1014484499999999956 ) ) ;
#102 = CARTESIAN_POINT ( 'NONE',  ( 0.1250000000000000833, 1.530808498934192433E-17, 0.7585674773388166869 ) ) ;
#103 = APPLICATION_CONTEXT ( 'automotive_design' ) ;
#104 = AXIS2_PLACEMENT_3D ( 'NONE', #199, #126, #321 ) ;
#105 = DIRECTION ( 'NONE',  ( 1.000000000000000000, 0.0000000000000000000, 0.0000000000000000000 ) ) ;
#106 = VERTEX_POINT ( 'NONE', #216 ) ;
#107 = DIRECTION ( 'NONE',  ( 0.7071067811865499042, 8.659560562354961208E-17, -0.7071067811865451302 ) ) ;
#108 = CIRCLE ( 'NONE', #10, 0.1014484499999999956 ) ;
#109 = AXIS2_PLACEMENT_3D ( 'NONE', #246, #193, #79 ) ;
#110 = ORIENTED_EDGE ( 'NONE', *, *, #262, .F. ) ;
#111 = EDGE_LOOP ( 'NONE', ( #213, #90, #110, #286 ) ) ;
#112 = CARTESIAN_POINT ( 'NONE',  ( 1.242385195709603026E-17, 0.0000000000000000000, 0.1014484499999999956 ) ) ;
#113 = MECHANICAL_DESIGN_GEOMETRIC_PRESENTATION_REPRESENTATION (  '', ( #71 ), #258 ) ;
#114 = EDGE_CURVE ( 'NONE', #39, #230, #276, .T. ) ;
#115 = DIRECTION ( 'NONE',  ( 1.224646799147353207E-16, 1.000000000000000000, -0.0000000000000000000 ) ) ;
#116 = DIRECTION ( 'NONE',  ( -1.224646799147353207E-16, -0.0000000000000000000, -1.000000000000000000 ) ) ;
#117 = ORIENTED_EDGE ( 'NONE', *, *, #202, .F. ) ;
#118 = DIRECTION ( 'NONE',  ( 1.000000000000000000, 0.0000000000000000000, 0.0000000000000000000 ) ) ;
#119 = AXIS2_PLACEMENT_3D ( 'NONE', #297, #324, #319 ) ;
#120 = APPLICATION_CONTEXT ( 'automotive_design' ) ;
#121 = DIRECTION ( 'NONE',  ( 0.0000000000000000000, 0.0000000000000000000, -1.000000000000000000 ) ) ;
#122 = EDGE_CURVE ( 'NONE', #260, #256, #26, .T. ) ;
#123 = SURFACE_STYLE_USAGE ( .BOTH. , #273 ) ;
#124 = LENGTH_MEASURE_WITH_UNIT ( LENGTH_MEASURE( 0.02539999999999999897 ), #148 );
#125 = EDGE_CURVE ( 'NONE', #8, #282, #214, .T. ) ;
#126 = DIRECTION ( 'NONE',  ( 0.0000000000000000000, 0.0000000000000000000, -1.000000000000000000 ) ) ;
#127 = CARTESIAN_POINT ( 'NONE',  ( 7.654042494670957853E-17, 0.0000000000000000000, 0.6250000000000000000 ) ) ;
#128 = DIRECTION ( 'NONE',  ( 0.1736481776669314137, 0.0000000000000000000, 0.9848077530122077983 ) ) ;
#129 = UNCERTAINTY_MEASURE_WITH_UNIT (LENGTH_MEASURE( 1.000000000000000082E-05 ), #225, 'distance_accuracy_value', 'NONE');
#130 = CIRCLE ( 'NONE', #119, 0.1014484499999999956 ) ;
#131 = CARTESIAN_POINT ( 'NONE',  ( 9.289772330602642653E-17, 0.0000000000000000000, 0.7585674773388166869 ) ) ;
#132 = EDGE_CURVE ( 'NONE', #20, #230, #150, .T. ) ;
#133 = ORIENTED_EDGE ( 'NONE', *, *, #114, .T. ) ;
#134 = VERTEX_POINT ( 'NONE', #271 ) ;
#135 = EDGE_LOOP ( 'NONE', ( #207, #13, #117 ) ) ;
#136 = DIRECTION ( 'NONE',  ( 0.0000000000000000000, 0.0000000000000000000, 1.000000000000000000 ) ) ;
#137 = DIRECTION ( 'NONE',  ( 0.0000000000000000000, 0.0000000000000000000, -1.000000000000000000 ) ) ;
#138 =( NAMED_UNIT ( * ) PLANE_ANGLE_UNIT ( ) SI_UNIT ( $, .RADIAN. ) );
#139 = AXIS2_PLACEMENT_3D ( 'NONE', #172, #57, #318 ) ;
#140 = DIMENSIONAL_EXPONENTS ( 1.000000000000000000, 0.0000000000000000000, 0.0000000000000000000, 0.0000000000000000000, 0.0000000000000000000, 0.0000000000000000000, 0.0000000000000000000 ) ;
#141 = CARTESIAN_POINT ( 'NONE',  ( 0.0000000000000000000, 0.0000000000000000000, 2.500000000000000000 ) ) ;
#142 = ORIENTED_EDGE ( 'NONE', *, *, #122, .F. ) ;
#143 =( CONVERSION_BASED_UNIT ( 'INCH', #124 ) LENGTH_UNIT ( ) NAMED_UNIT ( #45 ) );
#144 = DIRECTION ( 'NONE',  ( 0.0000000000000000000, 1.000000000000000000, 0.0000000000000000000 ) ) ;
#145 = EDGE_CURVE ( 'NONE', #39, #134, #1, .T. ) ;
#146 =( NAMED_UNIT ( * ) PLANE_ANGLE_UNIT ( ) SI_UNIT ( $, .RADIAN. ) );
#147 =( GEOMETRIC_REPRESENTATION_CONTEXT ( 3 ) GLOBAL_UNCERTAINTY_ASSIGNED_CONTEXT ( ( #50 ) ) GLOBAL_UNIT_ASSIGNED_CONTEXT ( ( #143, #146, #76 ) ) REPRESENTATION_CONTEXT ( 'NONE', 'WORKASPACE' ) );
#148 =( LENGTH_UNIT ( ) NAMED_UNIT ( * ) SI_UNIT ( $, .METRE. ) );
#149 = CARTESIAN_POINT ( 'NONE',  ( 0.0000000000000000000, 0.0000000000000000000, 2.500000000000000000 ) ) ;
#150 = LINE ( 'NONE', #189, #176 ) ;
#151 = LINE ( 'NONE', #29, #306 ) ;
#152 = CARTESIAN_POINT ( 'NONE',  ( 7.654042494670957853E-17, 0.0000000000000000000, 0.6250000000000000000 ) ) ;
#153 = PRODUCT_CONTEXT ( 'NONE', #103, 'mechanical' ) ;
#154 = ADVANCED_FACE ( 'NONE', ( #78 ), #217, .T. ) ;
#155 = CIRCLE ( 'NONE', #2, 0.1100000000000001948 ) ;
#156 = ORIENTED_EDGE ( 'NONE', *, *, #132, .T. ) ;
#157 = EDGE_LOOP ( 'NONE', ( #42, #63, #240 ) ) ;
#158 = EDGE_LOOP ( 'NONE', ( #231, #12 ) ) ;
#159 = AXIS2_PLACEMENT_3D ( 'NONE', #152, #279, #58 ) ;
#160 = ORIENTED_EDGE ( 'NONE', *, *, #262, .T. ) ;
#161 = ORIENTED_EDGE ( 'NONE', *, *, #202, .T. ) ;
#162 = DIRECTION ( 'NONE',  ( 1.000000000000000000, 0.0000000000000000000, -0.0000000000000000000 ) ) ;
#163 = DIRECTION ( 'NONE',  ( -1.000000000000000000, 0.0000000000000000000, 0.0000000000000000000 ) ) ;
#164 = PRODUCT_RELATED_PRODUCT_CATEGORY ( 'part', '', ( #283 ) ) ;
#165 = ORIENTED_EDGE ( 'NONE', *, *, #9, .T. ) ;
#166 = DIRECTION ( 'NONE',  ( 1.000000000000000000, 0.0000000000000000000, 0.0000000000000000000 ) ) ;
#167 = VECTOR ( 'NONE', #7, 39.37007874015748143 ) ;
#168 = SURFACE_STYLE_FILL_AREA ( #198 ) ;
#169 = ADVANCED_BREP_SHAPE_REPRESENTATION ( 'Micro_BEM-203-03X', ( #173, #220 ), #204 ) ;
#170 = CARTESIAN_POINT ( 'NONE',  ( 9.289772330602642653E-17, 0.0000000000000000000, 0.7585674773388166869 ) ) ;
#171 = CONICAL_SURFACE ( 'NONE', #11, 0.1100000000000001948, 0.7853981633974517207 ) ;
#172 = CARTESIAN_POINT ( 'NONE',  ( 0.0000000000000000000, 0.0000000000000000000, 2.500000000000000000 ) ) ;
#173 = MANIFOLD_SOLID_BREP ( 'Fillet1', #175 ) ;
#174 = CARTESIAN_POINT ( 'NONE',  ( -0.1014484499999999262, 1.242385195709603026E-17, 0.6250000000000000000 ) ) ;
#175 = CLOSED_SHELL ( 'NONE', ( #32, #223, #86, #5, #44, #308, #66, #38, #182, #154, #190 ) ) ;
#176 = VECTOR ( 'NONE', #242, 39.37007874015748143 ) ;
#177 = EDGE_LOOP ( 'NONE', ( #288, #310, #281, #317 ) ) ;
#178 = ORIENTED_EDGE ( 'NONE', *, *, #77, .F. ) ;
#179 = AXIS2_PLACEMENT_3D ( 'NONE', #209, #116, #212 ) ;
#180 = ORIENTED_EDGE ( 'NONE', *, *, #249, .T. ) ;
#181 = DIRECTION ( 'NONE',  ( -1.000000000000000000, 0.0000000000000000000, 0.0000000000000000000 ) ) ;
#182 = ADVANCED_FACE ( 'NONE', ( #28 ), #218, .T. ) ;
#183 = DIRECTION ( 'NONE',  ( 1.000000000000000000, 0.0000000000000000000, 0.0000000000000000000 ) ) ;
#184 = DIRECTION ( 'NONE',  ( 0.0000000000000000000, 0.0000000000000000000, 1.000000000000000000 ) ) ;
#185 = SPHERICAL_SURFACE ( 'NONE', #36, 0.1014484499999999956 ) ;
#186 = AXIS2_PLACEMENT_3D ( 'NONE', #291, #314, #162 ) ;
#187 = CARTESIAN_POINT ( 'NONE',  ( -0.1100000000000001948, 0.0000000000000000000, 2.500000000000000000 ) ) ;
#188 = CARTESIAN_POINT ( 'NONE',  ( 0.0000000000000000000, 0.0000000000000000000, 2.500000000000000000 ) ) ;
#189 = CARTESIAN_POINT ( 'NONE',  ( 0.1250000000000000000, 1.530808498934191509E-17, 2.500000000000000000 ) ) ;
#190 = ADVANCED_FACE ( 'NONE', ( #322 ), #244, .T. ) ;
#191 = COLOUR_RGB ( '',0.7921568627450980005, 0.8196078431372548767, 0.9333333333333333481 ) ;
#192 = CYLINDRICAL_SURFACE ( 'NONE', #109, 0.1014484499999999956 ) ;
#193 = DIRECTION ( 'NONE',  ( -1.224646799147353207E-16, -0.0000000000000000000, -1.000000000000000000 ) ) ;
#194 = FILL_AREA_STYLE ('',( #298 ) ) ;
#195 = DIRECTION ( 'NONE',  ( 1.224646799147353207E-16, 0.0000000000000000000, 1.000000000000000000 ) ) ;
#196 = CIRCLE ( 'NONE', #311, 0.1250000000000000000 ) ;
#197 = PRODUCT_DEFINITION ( 'UNKNOWN', '', #227, #3 ) ;
#198 = FILL_AREA_STYLE ('',( #251 ) ) ;
#199 = CARTESIAN_POINT ( 'NONE',  ( 0.0000000000000000000, 0.0000000000000000000, 2.485000000000000320 ) ) ;
#200 = VERTEX_POINT ( 'NONE', #21 ) ;
#201 = CARTESIAN_POINT ( 'NONE',  ( 1.242385195709603026E-17, 0.0000000000000000000, 0.1014484499999999956 ) ) ;
#202 = EDGE_CURVE ( 'NONE', #256, #134, #130, .T. ) ;
#203 = COLOUR_RGB ( '',0.7921568627450980005, 0.8196078431372548767, 0.9333333333333333481 ) ;
#204 =( GEOMETRIC_REPRESENTATION_CONTEXT ( 3 ) GLOBAL_UNCERTAINTY_ASSIGNED_CONTEXT ( ( #80 ) ) GLOBAL_UNIT_ASSIGNED_CONTEXT ( ( #252, #248, #22 ) ) REPRESENTATION_CONTEXT ( 'NONE', 'WORKASPACE' ) );
#205 = EDGE_LOOP ( 'NONE', ( #206, #307, #309, #142 ) ) ;
#206 = ORIENTED_EDGE ( 'NONE', *, *, #233, .T. ) ;
#207 = ORIENTED_EDGE ( 'NONE', *, *, #52, .F. ) ;
#208 = CIRCLE ( 'NONE', #293, 0.1250000000000000000 ) ;
#209 = CARTESIAN_POINT ( 'NONE',  ( 7.654042494670957853E-17, 0.0000000000000000000, 0.6250000000000000000 ) ) ;
#210 = CARTESIAN_POINT ( 'NONE',  ( -0.1249999999999999167, 0.0000000000000000000, 0.7585674773388166869 ) ) ;
#211 = CARTESIAN_POINT ( 'NONE',  ( 0.0000000000000000000, 0.0000000000000000000, 0.0000000000000000000 ) ) ;
#212 = DIRECTION ( 'NONE',  ( -1.000000000000000000, 0.0000000000000000000, 0.0000000000000000000 ) ) ;
#213 = ORIENTED_EDGE ( 'NONE', *, *, #61, .F. ) ;
#214 = CIRCLE ( 'NONE', #139, 0.1100000000000001948 ) ;
#215 = DIRECTION ( 'NONE',  ( 1.000000000000000000, 0.0000000000000000000, 0.0000000000000000000 ) ) ;
#216 = CARTESIAN_POINT ( 'NONE',  ( 1.863577793564404539E-17, 0.0000000000000000000, 0.0000000000000000000 ) ) ;
#217 = CYLINDRICAL_SURFACE ( 'NONE', #47, 0.1014484499999999956 ) ;
#218 = CONICAL_SURFACE ( 'NONE', #247, 0.1014484499999999956, 0.1745329251994339192 ) ;
#219 = SURFACE_SIDE_STYLE ('',( #296 ) ) ;
#220 = AXIS2_PLACEMENT_3D ( 'NONE', #211, #184, #118 ) ;
#221 = CYLINDRICAL_SURFACE ( 'NONE', #269, 0.1250000000000000000 ) ;
#222 = DIRECTION ( 'NONE',  ( 1.000000000000000000, 0.0000000000000000000, 0.0000000000000000000 ) ) ;
#223 = ADVANCED_FACE ( 'NONE', ( #99 ), #192, .T. ) ;
#224 = CARTESIAN_POINT ( 'NONE',  ( -0.1014484499999999956, 0.0000000000000000000, 1.242385195709603026E-17 ) ) ;
#225 =( CONVERSION_BASED_UNIT ( 'INCH', #4 ) LENGTH_UNIT ( ) NAMED_UNIT ( #140 ) );
#226 = AXIS2_PLACEMENT_3D ( 'NONE', #201, #245, #85 ) ;
#227 = PRODUCT_DEFINITION_FORMATION_WITH_SPECIFIED_SOURCE ( 'ANY', '', #283, .NOT_KNOWN. ) ;
#228 = ORIENTED_EDGE ( 'NONE', *, *, #254, .F. ) ;
#229 = LINE ( 'NONE', #174, #75 ) ;
#230 = VERTEX_POINT ( 'NONE', #102 ) ;
#231 = ORIENTED_EDGE ( 'NONE', *, *, #125, .T. ) ;
#232 = EDGE_LOOP ( 'NONE', ( #287, #259, #304, #161 ) ) ;
#233 = EDGE_CURVE ( 'NONE', #260, #39, #320, .T. ) ;
#234 = PLANE ( 'NONE',  #186 ) ;
#235 = VECTOR ( 'NONE', #82, 39.37007874015748143 ) ;
#236 = DIRECTION ( 'NONE',  ( -1.000000000000000000, 1.224646799147353207E-16, 0.0000000000000000000 ) ) ;
#237 = EDGE_CURVE ( 'NONE', #59, #230, #196, .T. ) ;
#238 = DIRECTION ( 'NONE',  ( -0.0000000000000000000, -0.0000000000000000000, -1.000000000000000000 ) ) ;
#239 = DIRECTION ( 'NONE',  ( 1.224646799147353207E-16, 0.0000000000000000000, 1.000000000000000000 ) ) ;
#240 = ORIENTED_EDGE ( 'NONE', *, *, #303, .F. ) ;
#241 = CIRCLE ( 'NONE', #104, 0.1250000000000000000 ) ;
#242 = DIRECTION ( 'NONE',  ( -0.0000000000000000000, -0.0000000000000000000, -1.000000000000000000 ) ) ;
#243 = EDGE_CURVE ( 'NONE', #282, #20, #272, .T. ) ;
#244 = SPHERICAL_SURFACE ( 'NONE', #19, 0.1014484499999999956 ) ;
#245 = DIRECTION ( 'NONE',  ( 1.224646799147353207E-16, 0.0000000000000000000, 1.000000000000000000 ) ) ;
#246 = CARTESIAN_POINT ( 'NONE',  ( 0.0000000000000000000, 0.0000000000000000000, 0.0000000000000000000 ) ) ;
#247 = AXIS2_PLACEMENT_3D ( 'NONE', #127, #195, #222 ) ;
#248 =( NAMED_UNIT ( * ) PLANE_ANGLE_UNIT ( ) SI_UNIT ( $, .RADIAN. ) );
#249 = EDGE_CURVE ( 'NONE', #200, #59, #305, .T. ) ;
#250 = DIRECTION ( 'NONE',  ( -1.224646799147353207E-16, -0.0000000000000000000, -1.000000000000000000 ) ) ;
#251 = FILL_AREA_STYLE_COLOUR ( '', #191 ) ;
#252 =( CONVERSION_BASED_UNIT ( 'INCH', #87 ) LENGTH_UNIT ( ) NAMED_UNIT ( #68 ) );
#253 = DIRECTION ( 'NONE',  ( 1.000000000000000000, 0.0000000000000000000, 0.0000000000000000000 ) ) ;
#254 = EDGE_CURVE ( 'NONE', #230, #59, #208, .T. ) ;
#255 = CIRCLE ( 'NONE', #226, 0.1014484499999999956 ) ;
#256 = VERTEX_POINT ( 'NONE', #33 ) ;
#257 = ORIENTED_EDGE ( 'NONE', *, *, #295, .T. ) ;
#258 =( GEOMETRIC_REPRESENTATION_CONTEXT ( 3 ) GLOBAL_UNCERTAINTY_ASSIGNED_CONTEXT ( ( #129 ) ) GLOBAL_UNIT_ASSIGNED_CONTEXT ( ( #225, #138, #91 ) ) REPRESENTATION_CONTEXT ( 'NONE', 'WORKASPACE' ) );
#259 = ORIENTED_EDGE ( 'NONE', *, *, #77, .T. ) ;
#260 = VERTEX_POINT ( 'NONE', #37 ) ;
#261 = FACE_OUTER_BOUND ( 'NONE', #96, .T. ) ;
#262 = EDGE_CURVE ( 'NONE', #200, #20, #241, .T. ) ;
#263 = CONICAL_SURFACE ( 'NONE', #25, 0.1100000000000001948, 0.7853981633974517207 ) ;
#264 = AXIS2_PLACEMENT_3D ( 'NONE', #16, #115, #236 ) ;
#265 = CARTESIAN_POINT ( 'NONE',  ( 0.0000000000000000000, 0.0000000000000000000, 2.500000000000000000 ) ) ;
#266 = CYLINDRICAL_SURFACE ( 'NONE', #98, 0.1250000000000000000 ) ;
#267 = EDGE_LOOP ( 'NONE', ( #160, #156, #62, #313 ) ) ;
#268 = CARTESIAN_POINT ( 'NONE',  ( 0.0000000000000000000, 0.0000000000000000000, 2.500000000000000000 ) ) ;
#269 = AXIS2_PLACEMENT_3D ( 'NONE', #149, #323, #83 ) ;
#270 =( LENGTH_UNIT ( ) NAMED_UNIT ( * ) SI_UNIT ( $, .METRE. ) );
#271 = CARTESIAN_POINT ( 'NONE',  ( 0.1014484500000000095, 1.242385195709603026E-17, 0.1014484499999999817 ) ) ;
#272 = LINE ( 'NONE', #300, #64 ) ;
#273 = SURFACE_SIDE_STYLE ('',( #168 ) ) ;
#274 = CIRCLE ( 'NONE', #264, 0.1014484499999999956 ) ;
#275 = PRESENTATION_STYLE_ASSIGNMENT (( #325 ) ) ;
#276 = LINE ( 'NONE', #301, #81 ) ;
#277 = SHAPE_DEFINITION_REPRESENTATION ( #31, #169 ) ;
#278 =( LENGTH_UNIT ( ) NAMED_UNIT ( * ) SI_UNIT ( $, .METRE. ) );
#279 = DIRECTION ( 'NONE',  ( -1.224646799147353207E-16, -0.0000000000000000000, -1.000000000000000000 ) ) ;
#280 = DIRECTION ( 'NONE',  ( 1.000000000000000000, 0.0000000000000000000, 0.0000000000000000000 ) ) ;
#281 = ORIENTED_EDGE ( 'NONE', *, *, #237, .T. ) ;
#282 = VERTEX_POINT ( 'NONE', #54 ) ;
#283 = PRODUCT ( 'Micro_BEM-203-03X', 'Micro_BEM-203-03X', '', ( #153 ) ) ;
#284 = EDGE_CURVE ( 'NONE', #260, #59, #229, .T. ) ;
#285 = PRESENTATION_LAYER_ASSIGNMENT (  '', '', ( #299 ) ) ;
#286 = ORIENTED_EDGE ( 'NONE', *, *, #295, .F. ) ;
#287 = ORIENTED_EDGE ( 'NONE', *, *, #145, .F. ) ;
#288 = ORIENTED_EDGE ( 'NONE', *, *, #233, .F. ) ;
#289 = PRESENTATION_LAYER_ASSIGNMENT (  '', '', ( #71 ) ) ;
#290 = FACE_OUTER_BOUND ( 'NONE', #177, .T. ) ;
#291 = CARTESIAN_POINT ( 'NONE',  ( 0.0000000000000000000, 0.0000000000000000000, 2.500000000000000000 ) ) ;
#292 = CARTESIAN_POINT ( 'NONE',  ( 0.0000000000000000000, 0.0000000000000000000, 2.485000000000000320 ) ) ;
#293 = AXIS2_PLACEMENT_3D ( 'NONE', #170, #250, #280 ) ;
#294 = DIRECTION ( 'NONE',  ( -1.224646799147353207E-16, -0.0000000000000000000, -1.000000000000000000 ) ) ;
#295 = EDGE_CURVE ( 'NONE', #8, #200, #151, .T. ) ;
#296 = SURFACE_STYLE_FILL_AREA ( #194 ) ;
#297 = CARTESIAN_POINT ( 'NONE',  ( 1.242385195709603026E-17, 0.0000000000000000000, 0.1014484499999999956 ) ) ;
#298 = FILL_AREA_STYLE_COLOUR ( '', #203 ) ;
#299 = STYLED_ITEM ( 'NONE', ( #84 ), #173 ) ;
#300 = CARTESIAN_POINT ( 'NONE',  ( 0.1100000000000001948, 1.347111479062090784E-17, 2.500000000000000000 ) ) ;
#301 = CARTESIAN_POINT ( 'NONE',  ( 0.1014484500000000650, 0.0000000000000000000, 0.6250000000000000000 ) ) ;
#302 = DIRECTION ( 'NONE',  ( -0.7071067811865499042, 0.0000000000000000000, -0.7071067811865451302 ) ) ;
#303 = EDGE_CURVE ( 'NONE', #134, #256, #255, .T. ) ;
#304 = ORIENTED_EDGE ( 'NONE', *, *, #122, .T. ) ;
#305 = LINE ( 'NONE', #56, #167 ) ;
#306 = VECTOR ( 'NONE', #302, 39.37007874015748143 ) ;
#307 = ORIENTED_EDGE ( 'NONE', *, *, #145, .T. ) ;
#308 = ADVANCED_FACE ( 'NONE', ( #100 ), #221, .T. ) ;
#309 = ORIENTED_EDGE ( 'NONE', *, *, #303, .T. ) ;
#310 = ORIENTED_EDGE ( 'NONE', *, *, #284, .T. ) ;
#311 = AXIS2_PLACEMENT_3D ( 'NONE', #131, #34, #253 ) ;
#312 = CARTESIAN_POINT ( 'NONE',  ( 1.242385195709603026E-17, 0.0000000000000000000, 0.1014484499999999956 ) ) ;
#313 = ORIENTED_EDGE ( 'NONE', *, *, #249, .F. ) ;
#314 = DIRECTION ( 'NONE',  ( 0.0000000000000000000, 0.0000000000000000000, 1.000000000000000000 ) ) ;
#315 = AXIS2_PLACEMENT_3D ( 'NONE', #72, #239, #18 ) ;
#316 = EDGE_LOOP ( 'NONE', ( #88, #165, #180, #228 ) ) ;
#317 = ORIENTED_EDGE ( 'NONE', *, *, #114, .F. ) ;
#318 = DIRECTION ( 'NONE',  ( 1.000000000000000000, 0.0000000000000000000, 0.0000000000000000000 ) ) ;
#319 = DIRECTION ( 'NONE',  ( -1.000000000000000000, 0.0000000000000000000, 1.683027188725076304E-16 ) ) ;
#320 = CIRCLE ( 'NONE', #159, 0.1014484499999999956 ) ;
#321 = DIRECTION ( 'NONE',  ( 1.000000000000000000, 0.0000000000000000000, 0.0000000000000000000 ) ) ;
#322 = FACE_OUTER_BOUND ( 'NONE', #135, .T. ) ;
#323 = DIRECTION ( 'NONE',  ( -0.0000000000000000000, -0.0000000000000000000, -1.000000000000000000 ) ) ;
#324 = DIRECTION ( 'NONE',  ( 1.224646799147353207E-16, 0.0000000000000000000, 1.000000000000000000 ) ) ;
#325 = SURFACE_STYLE_USAGE ( .BOTH. , #219 ) ;
ENDSEC;
END-ISO-10303-21;
