ISO-10303-21;
HEADER;
FILE_DESCRIPTION (( 'STEP AP214' ),
    '1' );
FILE_NAME ('Micro_BMRM-015-4.STEP',
    '2021-09-03T14:29:37',
    ( '' ),
    ( '' ),
    'SwSTEP 2.0',
    'SolidWorks 2020',
    '' );
FILE_SCHEMA (( 'AUTOMOTIVE_DESIGN' ));
ENDSEC;

DATA;
#1 = CARTESIAN_POINT ( 'NONE',  ( 0.07874000000000000443, 9.642868896486258509E-18, 1.953504000000000129 ) ) ;
#2 = CARTESIAN_POINT ( 'NONE',  ( 0.0000000000000000000, 0.0000000000000000000, 0.0000000000000000000 ) ) ;
#3 = DIRECTION ( 'NONE',  ( -1.000000000000000000, 0.0000000000000000000, 0.0000000000000000000 ) ) ;
#4 = CIRCLE ( 'NONE', #53, 0.02949797250000000398 ) ;
#5 = ADVANCED_FACE ( 'NONE', ( #94 ), #314, .T. ) ;
#6 = CIRCLE ( 'NONE', #183, 0.07874000000000000443 ) ;
#7 = AXIS2_PLACEMENT_3D ( 'NONE', #2, #259, #233 ) ;
#8 = EDGE_CURVE ( 'NONE', #193, #70, #225, .T. ) ;
#9 = ORIENTED_EDGE ( 'NONE', *, *, #83, .T. ) ;
#10 = CARTESIAN_POINT ( 'NONE',  ( 0.0000000000000000000, 0.0000000000000000000, 1.953504000000000129 ) ) ;
#11 = DIMENSIONAL_EXPONENTS ( 1.000000000000000000, 0.0000000000000000000, 0.0000000000000000000, 0.0000000000000000000, 0.0000000000000000000, 0.0000000000000000000, 0.0000000000000000000 ) ;
#12 = ORIENTED_EDGE ( 'NONE', *, *, #143, .T. ) ;
#13 = DIRECTION ( 'NONE',  ( 1.000000000000000000, 0.0000000000000000000, 0.0000000000000000000 ) ) ;
#14 = SHAPE_DEFINITION_REPRESENTATION ( #132, #141 ) ;
#15 = CIRCLE ( 'NONE', #165, 0.02949797249999999704 ) ;
#16 = ORIENTED_EDGE ( 'NONE', *, *, #25, .F. ) ;
#17 = DIRECTION ( 'NONE',  ( 1.000000000000000000, 0.0000000000000000000, 0.0000000000000000000 ) ) ;
#18 = ORIENTED_EDGE ( 'NONE', *, *, #45, .T. ) ;
#19 = SURFACE_STYLE_USAGE ( .BOTH. , #252 ) ;
#20 = FACE_OUTER_BOUND ( 'NONE', #115, .T. ) ;
#21 = FACE_OUTER_BOUND ( 'NONE', #60, .T. ) ;
#22 = VECTOR ( 'NONE', #147, 39.37007874015748143 ) ;
#23 = DIRECTION ( 'NONE',  ( -1.224646799147353207E-16, -0.0000000000000000000, -1.000000000000000000 ) ) ;
#24 = CARTESIAN_POINT ( 'NONE',  ( 3.612459760346164844E-18, 0.0000000000000000000, 0.02949797249999999704 ) ) ;
#25 = EDGE_CURVE ( 'NONE', #97, #238, #6, .T. ) ;
#26 = STYLED_ITEM ( 'NONE', ( #63 ), #316 ) ;
#27 = ADVANCED_FACE ( 'NONE', ( #20 ), #213, .T. ) ;
#28 = PRODUCT_RELATED_PRODUCT_CATEGORY ( 'part', '', ( #108 ) ) ;
#29 = COLOUR_RGB ( '',0.7921568627450980005, 0.8196078431372548767, 0.9333333333333333481 ) ;
#30 = APPLICATION_CONTEXT ( 'automotive_design' ) ;
#31 =( GEOMETRIC_REPRESENTATION_CONTEXT ( 3 ) GLOBAL_UNCERTAINTY_ASSIGNED_CONTEXT ( ( #56 ) ) GLOBAL_UNIT_ASSIGNED_CONTEXT ( ( #249, #195, #296 ) ) REPRESENTATION_CONTEXT ( 'NONE', 'WORKASPACE' ) );
#32 = FILL_AREA_STYLE ('',( #90 ) ) ;
#33 = ORIENTED_EDGE ( 'NONE', *, *, #83, .F. ) ;
#34 = DIRECTION ( 'NONE',  ( -0.7071067811865502373, 0.0000000000000000000, -0.7071067811865446862 ) ) ;
#35 = AXIS2_PLACEMENT_3D ( 'NONE', #198, #318, #50 ) ;
#36 = ORIENTED_EDGE ( 'NONE', *, *, #45, .F. ) ;
#37 =( NAMED_UNIT ( * ) PLANE_ANGLE_UNIT ( ) SI_UNIT ( $, .RADIAN. ) );
#38 = ORIENTED_EDGE ( 'NONE', *, *, #124, .T. ) ;
#39 = LENGTH_MEASURE_WITH_UNIT ( LENGTH_MEASURE( 0.02539999999999999897 ), #223 );
#40 = VECTOR ( 'NONE', #257, 39.37007874015748143 ) ;
#41 =( NAMED_UNIT ( * ) SI_UNIT ( $, .STERADIAN. ) SOLID_ANGLE_UNIT ( ) );
#42 = AXIS2_PLACEMENT_3D ( 'NONE', #10, #86, #17 ) ;
#43 = VERTEX_POINT ( 'NONE', #163 ) ;
#44 = CARTESIAN_POINT ( 'NONE',  ( 0.02949797250000002133, 0.0000000000000000000, 0.1653539999999999732 ) ) ;
#45 = EDGE_CURVE ( 'NONE', #218, #117, #135, .T. ) ;
#46 = SURFACE_STYLE_FILL_AREA ( #32 ) ;
#47 = ORIENTED_EDGE ( 'NONE', *, *, #134, .F. ) ;
#48 = DIRECTION ( 'NONE',  ( -1.224646799147353207E-16, -0.0000000000000000000, -1.000000000000000000 ) ) ;
#49 = AXIS2_PLACEMENT_3D ( 'NONE', #303, #74, #278 ) ;
#50 = DIRECTION ( 'NONE',  ( 1.000000000000000000, 0.0000000000000000000, 0.0000000000000000000 ) ) ;
#51 = FACE_OUTER_BOUND ( 'NONE', #298, .T. ) ;
#52 = CARTESIAN_POINT ( 'NONE',  ( 5.445017438126880810E-17, 0.0000000000000000000, 0.4446194153218638312 ) ) ;
#53 = AXIS2_PLACEMENT_3D ( 'NONE', #71, #201, #226 ) ;
#54 = EDGE_CURVE ( 'NONE', #218, #238, #234, .T. ) ;
#55 = CARTESIAN_POINT ( 'NONE',  ( 2.025002468262114287E-17, 0.0000000000000000000, 0.1653539999999999732 ) ) ;
#56 = UNCERTAINTY_MEASURE_WITH_UNIT (LENGTH_MEASURE( 1.000000000000000082E-05 ), #249, 'distance_accuracy_value', 'NONE');
#57 = ORIENTED_EDGE ( 'NONE', *, *, #306, .F. ) ;
#58 = AXIS2_PLACEMENT_3D ( 'NONE', #187, #103, #181 ) ;
#59 = AXIS2_PLACEMENT_3D ( 'NONE', #280, #236, #3 ) ;
#60 = EDGE_LOOP ( 'NONE', ( #266, #292 ) ) ;
#61 = CARTESIAN_POINT ( 'NONE',  ( 2.025002468262114287E-17, 0.0000000000000000000, 0.1653539999999999732 ) ) ;
#62 = ORIENTED_EDGE ( 'NONE', *, *, #186, .F. ) ;
#63 = PRESENTATION_STYLE_ASSIGNMENT (( #19 ) ) ;
#64 = EDGE_LOOP ( 'NONE', ( #47, #178, #85 ) ) ;
#65 = CYLINDRICAL_SURFACE ( 'NONE', #256, 0.07874000000000000443 ) ;
#66 = APPLICATION_CONTEXT ( 'automotive_design' ) ;
#67 = LENGTH_MEASURE_WITH_UNIT ( LENGTH_MEASURE( 0.02539999999999999897 ), #155 );
#68 = VECTOR ( 'NONE', #34, 39.37007874015748854 ) ;
#69 = ADVANCED_FACE ( 'NONE', ( #159 ), #232, .T. ) ;
#70 = VERTEX_POINT ( 'NONE', #1 ) ;
#71 = CARTESIAN_POINT ( 'NONE',  ( 3.612459760346164844E-18, 0.0000000000000000000, 0.02949797249999999704 ) ) ;
#72 = DIRECTION ( 'NONE',  ( 0.0000000000000000000, 0.0000000000000000000, 1.000000000000000000 ) ) ;
#73 = DIRECTION ( 'NONE',  ( 0.0000000000000000000, 1.000000000000000000, 0.0000000000000000000 ) ) ;
#74 = DIRECTION ( 'NONE',  ( -1.224646799147353207E-16, -0.0000000000000000000, -1.000000000000000000 ) ) ;
#75 = EDGE_CURVE ( 'NONE', #268, #197, #104, .T. ) ;
#76 = MECHANICAL_DESIGN_GEOMETRIC_PRESENTATION_REPRESENTATION (  '', ( #221 ), #247 ) ;
#77 = DIRECTION ( 'NONE',  ( -1.000000000000000000, 0.0000000000000000000, 0.0000000000000000000 ) ) ;
#78 = FACE_OUTER_BOUND ( 'NONE', #175, .T. ) ;
#79 = AXIS2_PLACEMENT_3D ( 'NONE', #300, #128, #302 ) ;
#80 = CARTESIAN_POINT ( 'NONE',  ( 0.07874000000000004607, 9.642868896486264672E-18, 0.4446194153218638312 ) ) ;
#81 = UNCERTAINTY_MEASURE_WITH_UNIT (LENGTH_MEASURE( 1.000000000000000082E-05 ), #145, 'distance_accuracy_value', 'NONE');
#82 = AXIS2_PLACEMENT_3D ( 'NONE', #304, #102, #77 ) ;
#83 = EDGE_CURVE ( 'NONE', #218, #268, #237, .T. ) ;
#84 = SURFACE_SIDE_STYLE ('',( #46 ) ) ;
#85 = ORIENTED_EDGE ( 'NONE', *, *, #262, .F. ) ;
#86 = DIRECTION ( 'NONE',  ( 0.0000000000000000000, 0.0000000000000000000, -1.000000000000000000 ) ) ;
#87 = DIRECTION ( 'NONE',  ( 0.0000000000000000000, 0.0000000000000000000, 1.000000000000000000 ) ) ;
#88 = ORIENTED_EDGE ( 'NONE', *, *, #54, .F. ) ;
#89 = DIRECTION ( 'NONE',  ( -1.224646799147353207E-16, -0.0000000000000000000, -1.000000000000000000 ) ) ;
#90 = FILL_AREA_STYLE_COLOUR ( '', #29 ) ;
#91 = ORIENTED_EDGE ( 'NONE', *, *, #124, .F. ) ;
#92 = DIRECTION ( 'NONE',  ( -1.000000000000000000, 0.0000000000000000000, 0.0000000000000000000 ) ) ;
#93 = EDGE_CURVE ( 'NONE', #193, #294, #131, .T. ) ;
#94 = FACE_OUTER_BOUND ( 'NONE', #64, .T. ) ;
#95 = LINE ( 'NONE', #176, #68 ) ;
#96 = LENGTH_MEASURE_WITH_UNIT ( LENGTH_MEASURE( 0.02539999999999999897 ), #125 );
#97 = VERTEX_POINT ( 'NONE', #80 ) ;
#98 = ORIENTED_EDGE ( 'NONE', *, *, #25, .T. ) ;
#99 = DIRECTION ( 'NONE',  ( 1.000000000000000000, 0.0000000000000000000, 0.0000000000000000000 ) ) ;
#100 = VECTOR ( 'NONE', #136, 39.37007874015748854 ) ;
#101 = PRODUCT_DEFINITION_FORMATION_WITH_SPECIFIED_SOURCE ( 'ANY', '', #108, .NOT_KNOWN. ) ;
#102 = DIRECTION ( 'NONE',  ( -1.224646799147353207E-16, -0.0000000000000000000, -1.000000000000000000 ) ) ;
#103 = DIRECTION ( 'NONE',  ( -0.0000000000000000000, -0.0000000000000000000, -1.000000000000000000 ) ) ;
#104 = LINE ( 'NONE', #106, #40 ) ;
#105 = DIRECTION ( 'NONE',  ( 1.224646799147353207E-16, 0.0000000000000000000, 1.000000000000000000 ) ) ;
#106 = CARTESIAN_POINT ( 'NONE',  ( 0.02949797250000000398, 3.612459760346164844E-18, -3.612459760346164844E-18 ) ) ;
#107 = AXIS2_PLACEMENT_3D ( 'NONE', #169, #87, #290 ) ;
#108 = PRODUCT ( 'Micro_BMRM-015-4', 'Micro_BMRM-015-4', '', ( #245 ) ) ;
#109 = FACE_OUTER_BOUND ( 'NONE', #227, .T. ) ;
#110 = CIRCLE ( 'NONE', #42, 0.07874000000000000443 ) ;
#111 = VECTOR ( 'NONE', #206, 39.37007874015748143 ) ;
#112 = CARTESIAN_POINT ( 'NONE',  ( -0.02949797249999999704, 0.0000000000000000000, 0.02949797250000000398 ) ) ;
#113 = VERTEX_POINT ( 'NONE', #241 ) ;
#114 = ADVANCED_FACE ( 'NONE', ( #285 ), #177, .T. ) ;
#115 = EDGE_LOOP ( 'NONE', ( #151, #122, #62, #246 ) ) ;
#116 = SURFACE_STYLE_USAGE ( .BOTH. , #84 ) ;
#117 = VERTEX_POINT ( 'NONE', #112 ) ;
#118 = DIRECTION ( 'NONE',  ( 1.000000000000000000, 0.0000000000000000000, -0.0000000000000000000 ) ) ;
#119 = ORIENTED_EDGE ( 'NONE', *, *, #137, .T. ) ;
#120 = SURFACE_STYLE_FILL_AREA ( #150 ) ;
#121 = VECTOR ( 'NONE', #244, 39.37007874015748143 ) ;
#122 = ORIENTED_EDGE ( 'NONE', *, *, #8, .T. ) ;
#123 = CARTESIAN_POINT ( 'NONE',  ( 0.0000000000000000000, 0.0000000000000000000, 1.953504000000000129 ) ) ;
#124 = EDGE_CURVE ( 'NONE', #117, #197, #215, .T. ) ;
#125 =( LENGTH_UNIT ( ) NAMED_UNIT ( * ) SI_UNIT ( $, .METRE. ) );
#126 = DIRECTION ( 'NONE',  ( -0.0000000000000000000, -0.0000000000000000000, -1.000000000000000000 ) ) ;
#127 = ADVANCED_FACE ( 'NONE', ( #78 ), #258, .T. ) ;
#128 = DIRECTION ( 'NONE',  ( 0.0000000000000000000, 0.0000000000000000000, -1.000000000000000000 ) ) ;
#129 = CARTESIAN_POINT ( 'NONE',  ( 0.0000000000000000000, 0.0000000000000000000, 1.968503999999999809 ) ) ;
#130 = EDGE_LOOP ( 'NONE', ( #88, #57, #243, #98 ) ) ;
#131 = CIRCLE ( 'NONE', #269, 0.06374000000000018540 ) ;
#132 = PRODUCT_DEFINITION_SHAPE ( 'NONE', 'NONE',  #162 ) ;
#133 = PRESENTATION_LAYER_ASSIGNMENT (  '', '', ( #26 ) ) ;
#134 = EDGE_CURVE ( 'NONE', #113, #197, #231, .T. ) ;
#135 = LINE ( 'NONE', #207, #138 ) ;
#136 = DIRECTION ( 'NONE',  ( 0.7071067811865502373, 8.659560562354966138E-17, -0.7071067811865446862 ) ) ;
#137 = EDGE_CURVE ( 'NONE', #43, #238, #211, .T. ) ;
#138 = VECTOR ( 'NONE', #23, 39.37007874015748143 ) ;
#139 = ADVANCED_FACE ( 'NONE', ( #109 ), #160, .T. ) ;
#140 = ADVANCED_FACE ( 'NONE', ( #305 ), #270, .T. ) ;
#141 = ADVANCED_BREP_SHAPE_REPRESENTATION ( 'Micro_BMRM-015-4', ( #316, #107 ), #308 ) ;
#142 = DIMENSIONAL_EXPONENTS ( 1.000000000000000000, 0.0000000000000000000, 0.0000000000000000000, 0.0000000000000000000, 0.0000000000000000000, 0.0000000000000000000, 0.0000000000000000000 ) ;
#143 = EDGE_CURVE ( 'NONE', #238, #97, #216, .T. ) ;
#144 = AXIS2_PLACEMENT_3D ( 'NONE', #319, #297, #265 ) ;
#145 =( CONVERSION_BASED_UNIT ( 'INCH', #96 ) LENGTH_UNIT ( ) NAMED_UNIT ( #312 ) );
#146 = ORIENTED_EDGE ( 'NONE', *, *, #143, .F. ) ;
#147 = DIRECTION ( 'NONE',  ( 0.1736481776669313304, 0.0000000000000000000, 0.9848077530122077983 ) ) ;
#148 = APPLICATION_PROTOCOL_DEFINITION ( 'draft international standard', 'automotive_design', 1998, #30 ) ;
#149 = ORIENTED_EDGE ( 'NONE', *, *, #301, .F. ) ;
#150 = FILL_AREA_STYLE ('',( #293 ) ) ;
#151 = ORIENTED_EDGE ( 'NONE', *, *, #93, .F. ) ;
#152 = CARTESIAN_POINT ( 'NONE',  ( 3.612459760346164844E-18, 0.0000000000000000000, 0.02949797249999999704 ) ) ;
#153 = EDGE_LOOP ( 'NONE', ( #149, #309, #91 ) ) ;
#154 = DIRECTION ( 'NONE',  ( -1.000000000000000000, 0.0000000000000000000, 0.0000000000000000000 ) ) ;
#155 =( LENGTH_UNIT ( ) NAMED_UNIT ( * ) SI_UNIT ( $, .METRE. ) );
#156 = ORIENTED_EDGE ( 'NONE', *, *, #54, .T. ) ;
#157 = PLANE ( 'NONE',  #291 ) ;
#158 = ADVANCED_FACE ( 'NONE', ( #325 ), #208, .T. ) ;
#159 = FACE_OUTER_BOUND ( 'NONE', #153, .T. ) ;
#160 = CYLINDRICAL_SURFACE ( 'NONE', #7, 0.02949797250000000398 ) ;
#161 = CIRCLE ( 'NONE', #322, 0.07874000000000000443 ) ;
#162 = PRODUCT_DEFINITION ( 'UNKNOWN', '', #101, #167 ) ;
#163 = CARTESIAN_POINT ( 'NONE',  ( -0.07874000000000000443, 0.0000000000000000000, 1.953504000000000129 ) ) ;
#164 = VECTOR ( 'NONE', #229, 39.37007874015747433 ) ;
#165 = AXIS2_PLACEMENT_3D ( 'NONE', #61, #89, #154 ) ;
#166 = CONICAL_SURFACE ( 'NONE', #144, 0.02949797249999999704, 0.1745329251994338360 ) ;
#167 = PRODUCT_DEFINITION_CONTEXT ( 'detailed design', #66, 'design' ) ;
#168 = ADVANCED_FACE ( 'NONE', ( #51 ), #65, .T. ) ;
#169 = CARTESIAN_POINT ( 'NONE',  ( 0.0000000000000000000, 0.0000000000000000000, 0.0000000000000000000 ) ) ;
#170 = EDGE_LOOP ( 'NONE', ( #33, #156, #12, #217 ) ) ;
#171 = CIRCLE ( 'NONE', #286, 0.02949797249999999704 ) ;
#172 = FACE_OUTER_BOUND ( 'NONE', #130, .T. ) ;
#173 = ORIENTED_EDGE ( 'NONE', *, *, #250, .T. ) ;
#174 = ORIENTED_EDGE ( 'NONE', *, *, #242, .T. ) ;
#175 = EDGE_LOOP ( 'NONE', ( #253, #203, #146, #315 ) ) ;
#176 = CARTESIAN_POINT ( 'NONE',  ( -0.06374000000000018540, 0.0000000000000000000, 1.968503999999999809 ) ) ;
#177 = CONICAL_SURFACE ( 'NONE', #188, 0.02949797249999999704, 0.1745329251994338360 ) ;
#178 = ORIENTED_EDGE ( 'NONE', *, *, #301, .T. ) ;
#179 = CARTESIAN_POINT ( 'NONE',  ( -0.02949797249999997623, 6.627664328416212062E-18, 0.1653539999999999732 ) ) ;
#180 = CARTESIAN_POINT ( 'NONE',  ( 0.06374000000000018540, 7.805898697765251255E-18, 1.968503999999999809 ) ) ;
#181 = DIRECTION ( 'NONE',  ( -1.000000000000000000, 0.0000000000000000000, 0.0000000000000000000 ) ) ;
#182 = DIRECTION ( 'NONE',  ( -1.000000000000000000, 0.0000000000000000000, 1.447052840699614406E-16 ) ) ;
#183 = AXIS2_PLACEMENT_3D ( 'NONE', #275, #48, #210 ) ;
#184 = AXIS2_PLACEMENT_3D ( 'NONE', #129, #295, #99 ) ;
#185 = DIRECTION ( 'NONE',  ( 1.000000000000000000, 0.0000000000000000000, 0.0000000000000000000 ) ) ;
#186 = EDGE_CURVE ( 'NONE', #43, #70, #110, .T. ) ;
#187 = CARTESIAN_POINT ( 'NONE',  ( 0.0000000000000000000, 0.0000000000000000000, 1.968503999999999809 ) ) ;
#188 = AXIS2_PLACEMENT_3D ( 'NONE', #55, #261, #239 ) ;
#189 = COLOUR_RGB ( '',0.7921568627450980005, 0.8196078431372548767, 0.9333333333333333481 ) ;
#190 = CLOSED_SHELL ( 'NONE', ( #5, #158, #114, #27, #127, #168, #202, #140, #209, #139, #69 ) ) ;
#191 = AXIS2_PLACEMENT_3D ( 'NONE', #324, #73, #323 ) ;
#192 =( CONVERSION_BASED_UNIT ( 'INCH', #67 ) LENGTH_UNIT ( ) NAMED_UNIT ( #11 ) );
#193 = VERTEX_POINT ( 'NONE', #194 ) ;
#194 = CARTESIAN_POINT ( 'NONE',  ( 0.06374000000000018540, 8.724383797125754882E-18, 1.968503999999999809 ) ) ;
#195 =( NAMED_UNIT ( * ) PLANE_ANGLE_UNIT ( ) SI_UNIT ( $, .RADIAN. ) );
#196 = MECHANICAL_DESIGN_GEOMETRIC_PRESENTATION_REPRESENTATION (  '', ( #26 ), #31 ) ;
#197 = VERTEX_POINT ( 'NONE', #228 ) ;
#198 = CARTESIAN_POINT ( 'NONE',  ( 3.612459760346164844E-18, 0.0000000000000000000, 0.02949797249999999704 ) ) ;
#199 = CARTESIAN_POINT ( 'NONE',  ( -0.07873999999999994892, 0.0000000000000000000, 0.4446194153218638312 ) ) ;
#200 = ORIENTED_EDGE ( 'NONE', *, *, #262, .T. ) ;
#201 = DIRECTION ( 'NONE',  ( 1.224646799147353207E-16, 0.0000000000000000000, 1.000000000000000000 ) ) ;
#202 = ADVANCED_FACE ( 'NONE', ( #21 ), #157, .T. ) ;
#203 = ORIENTED_EDGE ( 'NONE', *, *, #282, .T. ) ;
#204 = CARTESIAN_POINT ( 'NONE',  ( 0.07874000000000000443, 9.642868896486258509E-18, 1.968503999999999809 ) ) ;
#205 = CARTESIAN_POINT ( 'NONE',  ( 0.0000000000000000000, 0.0000000000000000000, 1.968503999999999809 ) ) ;
#206 = DIRECTION ( 'NONE',  ( -0.0000000000000000000, -0.0000000000000000000, -1.000000000000000000 ) ) ;
#207 = CARTESIAN_POINT ( 'NONE',  ( -0.02949797250000000398, 0.0000000000000000000, 3.612459760346164844E-18 ) ) ;
#208 = CYLINDRICAL_SURFACE ( 'NONE', #49, 0.02949797250000000398 ) ;
#209 = ADVANCED_FACE ( 'NONE', ( #172 ), #166, .T. ) ;
#210 = DIRECTION ( 'NONE',  ( 1.000000000000000000, 0.0000000000000000000, 0.0000000000000000000 ) ) ;
#211 = LINE ( 'NONE', #276, #111 ) ;
#212 = DIRECTION ( 'NONE',  ( 0.0000000000000000000, 0.0000000000000000000, -1.000000000000000000 ) ) ;
#213 = CONICAL_SURFACE ( 'NONE', #79, 0.06374000000000018540, 0.7853981633974522758 ) ;
#214 = DIRECTION ( 'NONE',  ( 1.000000000000000000, 0.0000000000000000000, 0.0000000000000000000 ) ) ;
#215 = CIRCLE ( 'NONE', #283, 0.02949797250000000398 ) ;
#216 = CIRCLE ( 'NONE', #284, 0.07874000000000000443 ) ;
#217 = ORIENTED_EDGE ( 'NONE', *, *, #281, .F. ) ;
#218 = VERTEX_POINT ( 'NONE', #179 ) ;
#219 = DIRECTION ( 'NONE',  ( 1.224646799147353207E-16, 1.000000000000000000, -0.0000000000000000000 ) ) ;
#220 = APPLICATION_PROTOCOL_DEFINITION ( 'draft international standard', 'automotive_design', 1998, #66 ) ;
#221 = STYLED_ITEM ( 'NONE', ( #224 ), #141 ) ;
#222 = EDGE_LOOP ( 'NONE', ( #9, #288, #200, #36 ) ) ;
#223 =( LENGTH_UNIT ( ) NAMED_UNIT ( * ) SI_UNIT ( $, .METRE. ) );
#224 = PRESENTATION_STYLE_ASSIGNMENT (( #116 ) ) ;
#225 = LINE ( 'NONE', #180, #100 ) ;
#226 = DIRECTION ( 'NONE',  ( -1.000000000000000000, 0.0000000000000000000, 1.447052840699614406E-16 ) ) ;
#227 = EDGE_LOOP ( 'NONE', ( #320, #310, #18, #38 ) ) ;
#228 = CARTESIAN_POINT ( 'NONE',  ( 0.02949797250000000745, 3.612459760346164844E-18, 0.02949797249999999357 ) ) ;
#229 = DIRECTION ( 'NONE',  ( -0.1736481776669311639, 2.126576849575782392E-17, 0.9848077530122080203 ) ) ;
#230 = CARTESIAN_POINT ( 'NONE',  ( 0.02949797250000002133, 0.0000000000000000000, 0.1653539999999999732 ) ) ;
#231 = CIRCLE ( 'NONE', #263, 0.02949797249999999704 ) ;
#232 = SPHERICAL_SURFACE ( 'NONE', #191, 0.02949797249999999704 ) ;
#233 = DIRECTION ( 'NONE',  ( -1.000000000000000000, 0.0000000000000000000, 1.224646799147352961E-16 ) ) ;
#234 = LINE ( 'NONE', #277, #164 ) ;
#235 = DIRECTION ( 'NONE',  ( 0.0000000000000000000, -1.000000000000000000, 0.0000000000000000000 ) ) ;
#236 = DIRECTION ( 'NONE',  ( 0.0000000000000000000, 0.0000000000000000000, -1.000000000000000000 ) ) ;
#237 = CIRCLE ( 'NONE', #82, 0.02949797249999999704 ) ;
#238 = VERTEX_POINT ( 'NONE', #199 ) ;
#239 = DIRECTION ( 'NONE',  ( 1.000000000000000000, 0.0000000000000000000, 0.0000000000000000000 ) ) ;
#240 = EDGE_CURVE ( 'NONE', #294, #193, #313, .T. ) ;
#241 = CARTESIAN_POINT ( 'NONE',  ( 5.418689640519246881E-18, 0.0000000000000000000, 0.0000000000000000000 ) ) ;
#242 = EDGE_CURVE ( 'NONE', #294, #43, #95, .T. ) ;
#243 = ORIENTED_EDGE ( 'NONE', *, *, #281, .T. ) ;
#244 = DIRECTION ( 'NONE',  ( -0.0000000000000000000, -0.0000000000000000000, -1.000000000000000000 ) ) ;
#245 = PRODUCT_CONTEXT ( 'NONE', #30, 'mechanical' ) ;
#246 = ORIENTED_EDGE ( 'NONE', *, *, #242, .F. ) ;
#247 =( GEOMETRIC_REPRESENTATION_CONTEXT ( 3 ) GLOBAL_UNCERTAINTY_ASSIGNED_CONTEXT ( ( #307 ) ) GLOBAL_UNIT_ASSIGNED_CONTEXT ( ( #192, #317, #41 ) ) REPRESENTATION_CONTEXT ( 'NONE', 'WORKASPACE' ) );
#248 = ORIENTED_EDGE ( 'NONE', *, *, #250, .F. ) ;
#249 =( CONVERSION_BASED_UNIT ( 'INCH', #39 ) LENGTH_UNIT ( ) NAMED_UNIT ( #142 ) );
#250 = EDGE_CURVE ( 'NONE', #70, #43, #161, .T. ) ;
#251 = ORIENTED_EDGE ( 'NONE', *, *, #240, .F. ) ;
#252 = SURFACE_SIDE_STYLE ('',( #120 ) ) ;
#253 = ORIENTED_EDGE ( 'NONE', *, *, #186, .T. ) ;
#254 = DIRECTION ( 'NONE',  ( 0.0000000000000000000, 0.0000000000000000000, 1.000000000000000000 ) ) ;
#255 = CARTESIAN_POINT ( 'NONE',  ( 3.612459760346164844E-18, 0.0000000000000000000, 0.02949797249999999704 ) ) ;
#256 = AXIS2_PLACEMENT_3D ( 'NONE', #267, #126, #92 ) ;
#257 = DIRECTION ( 'NONE',  ( -1.224646799147353207E-16, -0.0000000000000000000, -1.000000000000000000 ) ) ;
#258 = CYLINDRICAL_SURFACE ( 'NONE', #58, 0.07874000000000000443 ) ;
#259 = DIRECTION ( 'NONE',  ( -1.224646799147353207E-16, -0.0000000000000000000, -1.000000000000000000 ) ) ;
#260 = PRESENTATION_LAYER_ASSIGNMENT (  '', '', ( #221 ) ) ;
#261 = DIRECTION ( 'NONE',  ( 1.224646799147353207E-16, 0.0000000000000000000, 1.000000000000000000 ) ) ;
#262 = EDGE_CURVE ( 'NONE', #197, #117, #4, .T. ) ;
#263 = AXIS2_PLACEMENT_3D ( 'NONE', #24, #235, #212 ) ;
#264 = EDGE_LOOP ( 'NONE', ( #273, #251, #174, #248 ) ) ;
#265 = DIRECTION ( 'NONE',  ( 1.000000000000000000, 0.0000000000000000000, 0.0000000000000000000 ) ) ;
#266 = ORIENTED_EDGE ( 'NONE', *, *, #240, .T. ) ;
#267 = CARTESIAN_POINT ( 'NONE',  ( 0.0000000000000000000, 0.0000000000000000000, 1.968503999999999809 ) ) ;
#268 = VERTEX_POINT ( 'NONE', #44 ) ;
#269 = AXIS2_PLACEMENT_3D ( 'NONE', #205, #72, #214 ) ;
#270 = CONICAL_SURFACE ( 'NONE', #59, 0.06374000000000018540, 0.7853981633974522758 ) ;
#271 = ORIENTED_EDGE ( 'NONE', *, *, #282, .F. ) ;
#272 = DIRECTION ( 'NONE',  ( 0.0000000000000000000, 0.0000000000000000000, -1.000000000000000000 ) ) ;
#273 = ORIENTED_EDGE ( 'NONE', *, *, #8, .F. ) ;
#274 = LINE ( 'NONE', #230, #22 ) ;
#275 = CARTESIAN_POINT ( 'NONE',  ( 5.445017438126880810E-17, 0.0000000000000000000, 0.4446194153218638312 ) ) ;
#276 = CARTESIAN_POINT ( 'NONE',  ( -0.07874000000000000443, 0.0000000000000000000, 1.968503999999999809 ) ) ;
#277 = CARTESIAN_POINT ( 'NONE',  ( -0.02949797249999997623, 3.612459760346164844E-18, 0.1653539999999999732 ) ) ;
#278 = DIRECTION ( 'NONE',  ( -1.000000000000000000, 0.0000000000000000000, 1.224646799147352961E-16 ) ) ;
#279 = DIRECTION ( 'NONE',  ( -1.224646799147353207E-16, -0.0000000000000000000, -1.000000000000000000 ) ) ;
#280 = CARTESIAN_POINT ( 'NONE',  ( 0.0000000000000000000, 0.0000000000000000000, 1.968503999999999809 ) ) ;
#281 = EDGE_CURVE ( 'NONE', #268, #97, #274, .T. ) ;
#282 = EDGE_CURVE ( 'NONE', #70, #97, #321, .T. ) ;
#283 = AXIS2_PLACEMENT_3D ( 'NONE', #255, #105, #182 ) ;
#284 = AXIS2_PLACEMENT_3D ( 'NONE', #52, #279, #185 ) ;
#285 = FACE_OUTER_BOUND ( 'NONE', #170, .T. ) ;
#286 = AXIS2_PLACEMENT_3D ( 'NONE', #152, #219, #311 ) ;
#287 =( NAMED_UNIT ( * ) SI_UNIT ( $, .STERADIAN. ) SOLID_ANGLE_UNIT ( ) );
#288 = ORIENTED_EDGE ( 'NONE', *, *, #75, .T. ) ;
#289 = CARTESIAN_POINT ( 'NONE',  ( 0.0000000000000000000, 0.0000000000000000000, 1.968503999999999809 ) ) ;
#290 = DIRECTION ( 'NONE',  ( 1.000000000000000000, 0.0000000000000000000, 0.0000000000000000000 ) ) ;
#291 = AXIS2_PLACEMENT_3D ( 'NONE', #289, #254, #118 ) ;
#292 = ORIENTED_EDGE ( 'NONE', *, *, #93, .T. ) ;
#293 = FILL_AREA_STYLE_COLOUR ( '', #189 ) ;
#294 = VERTEX_POINT ( 'NONE', #299 ) ;
#295 = DIRECTION ( 'NONE',  ( 0.0000000000000000000, 0.0000000000000000000, 1.000000000000000000 ) ) ;
#296 =( NAMED_UNIT ( * ) SI_UNIT ( $, .STERADIAN. ) SOLID_ANGLE_UNIT ( ) );
#297 = DIRECTION ( 'NONE',  ( 1.224646799147353207E-16, 0.0000000000000000000, 1.000000000000000000 ) ) ;
#298 = EDGE_LOOP ( 'NONE', ( #271, #173, #119, #16 ) ) ;
#299 = CARTESIAN_POINT ( 'NONE',  ( -0.06374000000000018540, 0.0000000000000000000, 1.968503999999999809 ) ) ;
#300 = CARTESIAN_POINT ( 'NONE',  ( 0.0000000000000000000, 0.0000000000000000000, 1.968503999999999809 ) ) ;
#301 = EDGE_CURVE ( 'NONE', #113, #117, #171, .T. ) ;
#302 = DIRECTION ( 'NONE',  ( -1.000000000000000000, 0.0000000000000000000, 0.0000000000000000000 ) ) ;
#303 = CARTESIAN_POINT ( 'NONE',  ( 0.0000000000000000000, 0.0000000000000000000, 0.0000000000000000000 ) ) ;
#304 = CARTESIAN_POINT ( 'NONE',  ( 2.025002468262114287E-17, 0.0000000000000000000, 0.1653539999999999732 ) ) ;
#305 = FACE_OUTER_BOUND ( 'NONE', #264, .T. ) ;
#306 = EDGE_CURVE ( 'NONE', #268, #218, #15, .T. ) ;
#307 = UNCERTAINTY_MEASURE_WITH_UNIT (LENGTH_MEASURE( 1.000000000000000082E-05 ), #192, 'distance_accuracy_value', 'NONE');
#308 =( GEOMETRIC_REPRESENTATION_CONTEXT ( 3 ) GLOBAL_UNCERTAINTY_ASSIGNED_CONTEXT ( ( #81 ) ) GLOBAL_UNIT_ASSIGNED_CONTEXT ( ( #145, #37, #287 ) ) REPRESENTATION_CONTEXT ( 'NONE', 'WORKASPACE' ) );
#309 = ORIENTED_EDGE ( 'NONE', *, *, #134, .T. ) ;
#310 = ORIENTED_EDGE ( 'NONE', *, *, #306, .T. ) ;
#311 = DIRECTION ( 'NONE',  ( -1.000000000000000000, 1.224646799147353454E-16, 0.0000000000000000000 ) ) ;
#312 = DIMENSIONAL_EXPONENTS ( 1.000000000000000000, 0.0000000000000000000, 0.0000000000000000000, 0.0000000000000000000, 0.0000000000000000000, 0.0000000000000000000, 0.0000000000000000000 ) ;
#313 = CIRCLE ( 'NONE', #184, 0.06374000000000018540 ) ;
#314 = SPHERICAL_SURFACE ( 'NONE', #35, 0.02949797249999999704 ) ;
#315 = ORIENTED_EDGE ( 'NONE', *, *, #137, .F. ) ;
#316 = MANIFOLD_SOLID_BREP ( 'Fillet1', #190 ) ;
#317 =( NAMED_UNIT ( * ) PLANE_ANGLE_UNIT ( ) SI_UNIT ( $, .RADIAN. ) );
#318 = DIRECTION ( 'NONE',  ( 0.0000000000000000000, 1.000000000000000000, 0.0000000000000000000 ) ) ;
#319 = CARTESIAN_POINT ( 'NONE',  ( 2.025002468262114287E-17, 0.0000000000000000000, 0.1653539999999999732 ) ) ;
#320 = ORIENTED_EDGE ( 'NONE', *, *, #75, .F. ) ;
#321 = LINE ( 'NONE', #204, #121 ) ;
#322 = AXIS2_PLACEMENT_3D ( 'NONE', #123, #272, #13 ) ;
#323 = DIRECTION ( 'NONE',  ( 1.000000000000000000, 0.0000000000000000000, 0.0000000000000000000 ) ) ;
#324 = CARTESIAN_POINT ( 'NONE',  ( 3.612459760346164844E-18, 0.0000000000000000000, 0.02949797249999999704 ) ) ;
#325 = FACE_OUTER_BOUND ( 'NONE', #222, .T. ) ;
ENDSEC;
END-ISO-10303-21;
