ISO-10303-21;
HEADER;
FILE_DESCRIPTION (( 'STEP AP214' ),
    '1' );
FILE_NAME ('Micro_EMS-062-2X.STEP',
    '2021-09-01T17:33:51',
    ( '' ),
    ( '' ),
    'SwSTEP 2.0',
    'SolidWorks 2020',
    '' );
FILE_SCHEMA (( 'AUTOMOTIVE_DESIGN' ));
ENDSEC;

DATA;
#1 = EDGE_CURVE ( 'NONE', #5, #238, #141, .T. ) ;
#2 =( NAMED_UNIT ( * ) PLANE_ANGLE_UNIT ( ) SI_UNIT ( $, .RADIAN. ) );
#3 = CARTESIAN_POINT ( 'NONE',  ( 4.474917996329784544E-17, 0.0000000000000000000, 0.3654047844199155848 ) ) ;
#4 =( GEOMETRIC_REPRESENTATION_CONTEXT ( 3 ) GLOBAL_UNCERTAINTY_ASSIGNED_CONTEXT ( ( #6 ) ) GLOBAL_UNIT_ASSIGNED_CONTEXT ( ( #134, #191, #18 ) ) REPRESENTATION_CONTEXT ( 'NONE', 'WORKASPACE' ) );
#5 = VERTEX_POINT ( 'NONE', #166 ) ;
#6 = UNCERTAINTY_MEASURE_WITH_UNIT (LENGTH_MEASURE( 1.000000000000000082E-05 ), #134, 'distance_accuracy_value', 'NONE');
#7 = MANIFOLD_SOLID_BREP ( 'Cut-Revolve1', #38 ) ;
#8 = DIRECTION ( 'NONE',  ( 0.0000000000000000000, 0.0000000000000000000, -1.000000000000000000 ) ) ;
#9 = CARTESIAN_POINT ( 'NONE',  ( 0.04750000000000064587, 5.817072295950006528E-18, 1.500000000000000222 ) ) ;
#10 = CARTESIAN_POINT ( 'NONE',  ( 0.0000000000000000000, 0.0000000000000000000, 1.500000000000000222 ) ) ;
#11 = ORIENTED_EDGE ( 'NONE', *, *, #252, .T. ) ;
#12 = EDGE_CURVE ( 'NONE', #138, #287, #89, .T. ) ;
#13 = ORIENTED_EDGE ( 'NONE', *, *, #247, .F. ) ;
#14 = ORIENTED_EDGE ( 'NONE', *, *, #210, .T. ) ;
#15 = AXIS2_PLACEMENT_3D ( 'NONE', #104, #201, #250 ) ;
#16 = ORIENTED_EDGE ( 'NONE', *, *, #125, .T. ) ;
#17 = CARTESIAN_POINT ( 'NONE',  ( 0.06250000000000006939, 7.654042494670963708E-18, 0.3654047844199155848 ) ) ;
#18 =( NAMED_UNIT ( * ) SI_UNIT ( $, .STERADIAN. ) SOLID_ANGLE_UNIT ( ) );
#19 = CARTESIAN_POINT ( 'NONE',  ( 0.0000000000000000000, 0.0000000000000000000, 0.0000000000000000000 ) ) ;
#20 = VECTOR ( 'NONE', #277, 39.37007874015748854 ) ;
#21 = EDGE_CURVE ( 'NONE', #189, #212, #223, .T. ) ;
#22 = CARTESIAN_POINT ( 'NONE',  ( 4.474917996329784544E-17, 0.0000000000000000000, 0.3654047844199155848 ) ) ;
#23 = DIRECTION ( 'NONE',  ( 1.000000000000000000, 0.0000000000000000000, 0.0000000000000000000 ) ) ;
#24 = CIRCLE ( 'NONE', #75, 0.06250000000000002776 ) ;
#25 = MECHANICAL_DESIGN_GEOMETRIC_PRESENTATION_REPRESENTATION (  '', ( #220 ), #67 ) ;
#26 = ADVANCED_FACE ( 'NONE', ( #51 ), #171, .T. ) ;
#27 = ORIENTED_EDGE ( 'NONE', *, *, #181, .F. ) ;
#28 = VECTOR ( 'NONE', #197, 39.37007874015748143 ) ;
#29 = PRESENTATION_LAYER_ASSIGNMENT (  '', '', ( #220 ) ) ;
#30 = UNCERTAINTY_MEASURE_WITH_UNIT (LENGTH_MEASURE( 1.000000000000000082E-05 ), #53, 'distance_accuracy_value', 'NONE');
#31 = ORIENTED_EDGE ( 'NONE', *, *, #158, .F. ) ;
#32 = FACE_OUTER_BOUND ( 'NONE', #227, .T. ) ;
#33 = AXIS2_PLACEMENT_3D ( 'NONE', #10, #211, #86 ) ;
#34 = ADVANCED_FACE ( 'NONE', ( #175 ), #153, .T. ) ;
#35 = PRODUCT_DEFINITION_FORMATION_WITH_SPECIFIED_SOURCE ( 'ANY', '', #129, .NOT_KNOWN. ) ;
#36 = DIRECTION ( 'NONE',  ( -0.1736481776669311916, 2.126576849575783316E-17, 0.9848077530122080203 ) ) ;
#37 = SURFACE_SIDE_STYLE ('',( #282 ) ) ;
#38 = CLOSED_SHELL ( 'NONE', ( #279, #268, #242, #26, #101, #195, #34, #139, #232, #91 ) ) ;
#39 = LENGTH_MEASURE_WITH_UNIT ( LENGTH_MEASURE( 0.02539999999999999897 ), #163 );
#40 = ORIENTED_EDGE ( 'NONE', *, *, #1, .F. ) ;
#41 = COLOUR_RGB ( '',0.7921568627450980005, 0.8196078431372548767, 0.9333333333333333481 ) ;
#42 = VECTOR ( 'NONE', #100, 39.37007874015748143 ) ;
#43 = CARTESIAN_POINT ( 'NONE',  ( 0.0000000000000000000, 0.0000000000000000000, 1.500000000000000222 ) ) ;
#44 = PRODUCT_CONTEXT ( 'NONE', #273, 'mechanical' ) ;
#45 = DIRECTION ( 'NONE',  ( 0.1736481776669313859, 0.0000000000000000000, 0.9848077530122077983 ) ) ;
#46 = SHAPE_DEFINITION_REPRESENTATION ( #269, #237 ) ;
#47 = CARTESIAN_POINT ( 'NONE',  ( 0.0000000000000000000, 0.0000000000000000000, 0.0000000000000000000 ) ) ;
#48 = EDGE_CURVE ( 'NONE', #212, #189, #182, .T. ) ;
#49 = AXIS2_PLACEMENT_3D ( 'NONE', #174, #99, #148 ) ;
#50 = VECTOR ( 'NONE', #126, 39.37007874015748143 ) ;
#51 = FACE_OUTER_BOUND ( 'NONE', #230, .T. ) ;
#52 = DIRECTION ( 'NONE',  ( 0.0000000000000000000, 0.0000000000000000000, 1.000000000000000000 ) ) ;
#53 =( CONVERSION_BASED_UNIT ( 'INCH', #147 ) LENGTH_UNIT ( ) NAMED_UNIT ( #294 ) );
#54 = CARTESIAN_POINT ( 'NONE',  ( 0.0000000000000000000, 0.0000000000000000000, 1.500000000000000222 ) ) ;
#55 = CIRCLE ( 'NONE', #60, 0.06250000000000002776 ) ;
#56 = DIRECTION ( 'NONE',  ( -1.224646799147353700E-16, -0.0000000000000000000, -1.000000000000000000 ) ) ;
#57 = LENGTH_MEASURE_WITH_UNIT ( LENGTH_MEASURE( 0.02539999999999999897 ), #128 );
#58 = CARTESIAN_POINT ( 'NONE',  ( 2.302335982397025094E-17, 0.0000000000000000000, 0.1880000000000000282 ) ) ;
#59 = VECTOR ( 'NONE', #66, 39.37007874015748854 ) ;
#60 = AXIS2_PLACEMENT_3D ( 'NONE', #217, #8, #61 ) ;
#61 = DIRECTION ( 'NONE',  ( 1.000000000000000000, 0.0000000000000000000, 0.0000000000000000000 ) ) ;
#62 = ORIENTED_EDGE ( 'NONE', *, *, #181, .T. ) ;
#63 = VERTEX_POINT ( 'NONE', #17 ) ;
#64 = PRODUCT_RELATED_PRODUCT_CATEGORY ( 'part', '', ( #129 ) ) ;
#65 = CYLINDRICAL_SURFACE ( 'NONE', #103, 0.03121875000000000691 ) ;
#66 = DIRECTION ( 'NONE',  ( 0.7071067811865462405, 8.659560562354916834E-17, -0.7071067811865486830 ) ) ;
#67 =( GEOMETRIC_REPRESENTATION_CONTEXT ( 3 ) GLOBAL_UNCERTAINTY_ASSIGNED_CONTEXT ( ( #30 ) ) GLOBAL_UNIT_ASSIGNED_CONTEXT ( ( #53, #151, #102 ) ) REPRESENTATION_CONTEXT ( 'NONE', 'WORKASPACE' ) );
#68 = ORIENTED_EDGE ( 'NONE', *, *, #168, .F. ) ;
#69 = DIRECTION ( 'NONE',  ( 0.0000000000000000000, 0.0000000000000000000, -1.000000000000000000 ) ) ;
#70 = ORIENTED_EDGE ( 'NONE', *, *, #21, .T. ) ;
#71 = DIRECTION ( 'NONE',  ( 1.000000000000000000, 0.0000000000000000000, 0.0000000000000000000 ) ) ;
#72 = FACE_OUTER_BOUND ( 'NONE', #256, .T. ) ;
#73 = CIRCLE ( 'NONE', #236, 0.03121875000000000691 ) ;
#74 = LINE ( 'NONE', #176, #130 ) ;
#75 = AXIS2_PLACEMENT_3D ( 'NONE', #3, #107, #278 ) ;
#76 = DIRECTION ( 'NONE',  ( -1.224646799147353700E-16, -0.0000000000000000000, -1.000000000000000000 ) ) ;
#77 = AXIS2_PLACEMENT_3D ( 'NONE', #88, #261, #254 ) ;
#78 =( LENGTH_UNIT ( ) NAMED_UNIT ( * ) SI_UNIT ( $, .METRE. ) );
#79 = FACE_OUTER_BOUND ( 'NONE', #290, .T. ) ;
#80 = EDGE_LOOP ( 'NONE', ( #13, #68, #133, #244 ) ) ;
#81 = CARTESIAN_POINT ( 'NONE',  ( 4.682062571497491304E-34, 0.0000000000000000000, 3.823194226088145228E-18 ) ) ;
#82 = ORIENTED_EDGE ( 'NONE', *, *, #48, .F. ) ;
#83 = AXIS2_PLACEMENT_3D ( 'NONE', #94, #190, #295 ) ;
#84 = EDGE_CURVE ( 'NONE', #115, #63, #96, .T. ) ;
#85 = PRESENTATION_STYLE_ASSIGNMENT (( #111 ) ) ;
#86 = DIRECTION ( 'NONE',  ( -1.000000000000000000, 0.0000000000000000000, 0.0000000000000000000 ) ) ;
#87 = EDGE_LOOP ( 'NONE', ( #109, #213, #93, #229 ) ) ;
#88 = CARTESIAN_POINT ( 'NONE',  ( 0.0000000000000000000, 0.0000000000000000000, 0.0000000000000000000 ) ) ;
#89 = LINE ( 'NONE', #136, #20 ) ;
#90 = VECTOR ( 'NONE', #45, 39.37007874015748143 ) ;
#91 = ADVANCED_FACE ( 'NONE', ( #142 ), #123, .F. ) ;
#92 = CARTESIAN_POINT ( 'NONE',  ( 2.302335982397025094E-17, 0.0000000000000000000, 0.1880000000000000282 ) ) ;
#93 = ORIENTED_EDGE ( 'NONE', *, *, #21, .F. ) ;
#94 = CARTESIAN_POINT ( 'NONE',  ( 0.0000000000000000000, 0.0000000000000000000, 1.500000000000000222 ) ) ;
#95 = DIRECTION ( 'NONE',  ( -1.000000000000000000, 0.0000000000000000000, 0.0000000000000000000 ) ) ;
#96 = CIRCLE ( 'NONE', #265, 0.06250000000000002776 ) ;
#97 = FACE_OUTER_BOUND ( 'NONE', #87, .T. ) ;
#98 = EDGE_CURVE ( 'NONE', #276, #63, #291, .T. ) ;
#99 = DIRECTION ( 'NONE',  ( -1.224646799147353700E-16, -0.0000000000000000000, -1.000000000000000000 ) ) ;
#100 = DIRECTION ( 'NONE',  ( -1.224646799147353700E-16, -0.0000000000000000000, -1.000000000000000000 ) ) ;
#101 = ADVANCED_FACE ( 'NONE', ( #72 ), #144, .T. ) ;
#102 =( NAMED_UNIT ( * ) SI_UNIT ( $, .STERADIAN. ) SOLID_ANGLE_UNIT ( ) );
#103 = AXIS2_PLACEMENT_3D ( 'NONE', #161, #228, #280 ) ;
#104 = CARTESIAN_POINT ( 'NONE',  ( 0.0000000000000000000, 0.0000000000000000000, 1.500000000000000222 ) ) ;
#105 = DIRECTION ( 'NONE',  ( 1.000000000000000000, 0.0000000000000000000, 0.0000000000000000000 ) ) ;
#106 = CARTESIAN_POINT ( 'NONE',  ( -0.06250000000000002776, 0.0000000000000000000, 1.485000000000000764 ) ) ;
#107 = DIRECTION ( 'NONE',  ( -1.224646799147353700E-16, -0.0000000000000000000, -1.000000000000000000 ) ) ;
#108 = ORIENTED_EDGE ( 'NONE', *, *, #98, .F. ) ;
#109 = ORIENTED_EDGE ( 'NONE', *, *, #155, .T. ) ;
#110 = SURFACE_SIDE_STYLE ('',( #262 ) ) ;
#111 = SURFACE_STYLE_USAGE ( .BOTH. , #37 ) ;
#112 = AXIS2_PLACEMENT_3D ( 'NONE', #43, #267, #292 ) ;
#113 = ORIENTED_EDGE ( 'NONE', *, *, #210, .F. ) ;
#114 = ORIENTED_EDGE ( 'NONE', *, *, #121, .T. ) ;
#115 = VERTEX_POINT ( 'NONE', #297 ) ;
#116 = CIRCLE ( 'NONE', #271, 0.04750000000000064587 ) ;
#117 = AXIS2_PLACEMENT_3D ( 'NONE', #47, #298, #105 ) ;
#118 = FACE_OUTER_BOUND ( 'NONE', #241, .T. ) ;
#119 = DIRECTION ( 'NONE',  ( 0.0000000000000000000, 0.0000000000000000000, 1.000000000000000000 ) ) ;
#120 = CARTESIAN_POINT ( 'NONE',  ( -0.03121875000000000691, 0.0000000000000000000, 3.823194226088145998E-18 ) ) ;
#121 = EDGE_CURVE ( 'NONE', #215, #189, #172, .T. ) ;
#122 = APPLICATION_CONTEXT ( 'automotive_design' ) ;
#123 = PLANE ( 'NONE',  #173 ) ;
#124 = DIRECTION ( 'NONE',  ( -0.0000000000000000000, -0.0000000000000000000, -1.000000000000000000 ) ) ;
#125 = EDGE_CURVE ( 'NONE', #238, #63, #74, .T. ) ;
#126 = DIRECTION ( 'NONE',  ( -0.0000000000000000000, -0.0000000000000000000, -1.000000000000000000 ) ) ;
#127 = LINE ( 'NONE', #253, #50 ) ;
#128 =( LENGTH_UNIT ( ) NAMED_UNIT ( * ) SI_UNIT ( $, .METRE. ) );
#129 = PRODUCT ( 'Micro_EMS-062-2X', 'Micro_EMS-062-2X', '', ( #44 ) ) ;
#130 = VECTOR ( 'NONE', #124, 39.37007874015748143 ) ;
#131 = ORIENTED_EDGE ( 'NONE', *, *, #296, .T. ) ;
#132 = FILL_AREA_STYLE ('',( #188 ) ) ;
#133 = ORIENTED_EDGE ( 'NONE', *, *, #98, .T. ) ;
#134 =( CONVERSION_BASED_UNIT ( 'INCH', #39 ) LENGTH_UNIT ( ) NAMED_UNIT ( #222 ) );
#135 = CONICAL_SURFACE ( 'NONE', #33, 0.04750000000000064587, 0.7853981633974466137 ) ;
#136 = CARTESIAN_POINT ( 'NONE',  ( -0.04750000000000064587, 0.0000000000000000000, 1.500000000000000222 ) ) ;
#137 = CARTESIAN_POINT ( 'NONE',  ( 0.0000000000000000000, 0.0000000000000000000, 1.485000000000000764 ) ) ;
#138 = VERTEX_POINT ( 'NONE', #192 ) ;
#139 = ADVANCED_FACE ( 'NONE', ( #272 ), #288, .T. ) ;
#140 = ORIENTED_EDGE ( 'NONE', *, *, #84, .F. ) ;
#141 = LINE ( 'NONE', #9, #59 ) ;
#142 = FACE_OUTER_BOUND ( 'NONE', #240, .T. ) ;
#143 = VECTOR ( 'NONE', #36, 39.37007874015747433 ) ;
#144 = CYLINDRICAL_SURFACE ( 'NONE', #83, 0.06250000000000002776 ) ;
#145 = DIRECTION ( 'NONE',  ( 1.000000000000000000, 0.0000000000000000000, 0.0000000000000000000 ) ) ;
#146 = DIRECTION ( 'NONE',  ( 1.000000000000000000, 0.0000000000000000000, 0.0000000000000000000 ) ) ;
#147 = LENGTH_MEASURE_WITH_UNIT ( LENGTH_MEASURE( 0.02539999999999999897 ), #78 );
#148 = DIRECTION ( 'NONE',  ( -1.000000000000000000, 0.0000000000000000000, 1.224646799147353947E-16 ) ) ;
#149 = EDGE_CURVE ( 'NONE', #276, #212, #202, .T. ) ;
#150 = DIRECTION ( 'NONE',  ( 0.0000000000000000000, 0.0000000000000000000, -1.000000000000000000 ) ) ;
#151 =( NAMED_UNIT ( * ) PLANE_ANGLE_UNIT ( ) SI_UNIT ( $, .RADIAN. ) );
#152 = DIRECTION ( 'NONE',  ( 0.0000000000000000000, 0.0000000000000000000, 1.000000000000000000 ) ) ;
#153 = CONICAL_SURFACE ( 'NONE', #260, 0.04750000000000064587, 0.7853981633974466137 ) ;
#154 = AXIS2_PLACEMENT_3D ( 'NONE', #92, #218, #71 ) ;
#155 = EDGE_CURVE ( 'NONE', #215, #276, #214, .T. ) ;
#156 = DIRECTION ( 'NONE',  ( -1.000000000000000000, 0.0000000000000000000, 0.0000000000000000000 ) ) ;
#157 = CIRCLE ( 'NONE', #15, 0.04750000000000064587 ) ;
#158 = EDGE_CURVE ( 'NONE', #63, #115, #24, .T. ) ;
#159 = CARTESIAN_POINT ( 'NONE',  ( -0.03121874999999998609, 5.738618360379552157E-18, 0.1880000000000000282 ) ) ;
#160 = ORIENTED_EDGE ( 'NONE', *, *, #12, .T. ) ;
#161 = CARTESIAN_POINT ( 'NONE',  ( 0.0000000000000000000, 0.0000000000000000000, 0.0000000000000000000 ) ) ;
#162 = SURFACE_STYLE_USAGE ( .BOTH. , #110 ) ;
#163 =( LENGTH_UNIT ( ) NAMED_UNIT ( * ) SI_UNIT ( $, .METRE. ) );
#164 = PRESENTATION_LAYER_ASSIGNMENT (  '', '', ( #283 ) ) ;
#165 = PRESENTATION_STYLE_ASSIGNMENT (( #162 ) ) ;
#166 = CARTESIAN_POINT ( 'NONE',  ( 0.04750000000000064587, 6.735557395310483192E-18, 1.500000000000000222 ) ) ;
#167 = MECHANICAL_DESIGN_GEOMETRIC_PRESENTATION_REPRESENTATION (  '', ( #283 ), #4 ) ;
#168 = EDGE_CURVE ( 'NONE', #276, #215, #73, .T. ) ;
#169 = FILL_AREA_STYLE_COLOUR ( '', #41 ) ;
#170 = ORIENTED_EDGE ( 'NONE', *, *, #1, .T. ) ;
#171 = CYLINDRICAL_SURFACE ( 'NONE', #112, 0.06250000000000002776 ) ;
#172 = LINE ( 'NONE', #120, #42 ) ;
#173 = AXIS2_PLACEMENT_3D ( 'NONE', #19, #119, #216 ) ;
#174 = CARTESIAN_POINT ( 'NONE',  ( 4.682062571497491304E-34, 0.0000000000000000000, 3.823194226088145228E-18 ) ) ;
#175 = FACE_OUTER_BOUND ( 'NONE', #209, .T. ) ;
#176 = CARTESIAN_POINT ( 'NONE',  ( 0.06250000000000002776, 7.654042494670959086E-18, 1.500000000000000222 ) ) ;
#177 = AXIS2_PLACEMENT_3D ( 'NONE', #58, #281, #146 ) ;
#178 = DIRECTION ( 'NONE',  ( -1.000000000000000000, 0.0000000000000000000, 0.0000000000000000000 ) ) ;
#179 = EDGE_CURVE ( 'NONE', #138, #5, #116, .T. ) ;
#180 = CARTESIAN_POINT ( 'NONE',  ( 0.03121875000000000691, 3.823194226088144458E-18, -3.823194226088145998E-18 ) ) ;
#181 = EDGE_CURVE ( 'NONE', #5, #138, #157, .T. ) ;
#182 = CIRCLE ( 'NONE', #49, 0.03121874999999999997 ) ;
#183 = ORIENTED_EDGE ( 'NONE', *, *, #179, .T. ) ;
#184 = PRODUCT_DEFINITION_CONTEXT ( 'detailed design', #122, 'design' ) ;
#185 = LINE ( 'NONE', #258, #143 ) ;
#186 = ORIENTED_EDGE ( 'NONE', *, *, #247, .T. ) ;
#187 = AXIS2_PLACEMENT_3D ( 'NONE', #81, #248, #264 ) ;
#188 = FILL_AREA_STYLE_COLOUR ( '', #208 ) ;
#189 = VERTEX_POINT ( 'NONE', #274 ) ;
#190 = DIRECTION ( 'NONE',  ( -0.0000000000000000000, -0.0000000000000000000, -1.000000000000000000 ) ) ;
#191 =( NAMED_UNIT ( * ) PLANE_ANGLE_UNIT ( ) SI_UNIT ( $, .RADIAN. ) );
#192 = CARTESIAN_POINT ( 'NONE',  ( -0.04750000000000064587, 0.0000000000000000000, 1.500000000000000222 ) ) ;
#193 = CARTESIAN_POINT ( 'NONE',  ( 0.03121874999999999997, 3.823194226088143687E-18, -4.739000847409537175E-34 ) ) ;
#194 = DIMENSIONAL_EXPONENTS ( 1.000000000000000000, 0.0000000000000000000, 0.0000000000000000000, 0.0000000000000000000, 0.0000000000000000000, 0.0000000000000000000, 0.0000000000000000000 ) ;
#195 = ADVANCED_FACE ( 'NONE', ( #79 ), #299, .T. ) ;
#196 = APPLICATION_PROTOCOL_DEFINITION ( 'draft international standard', 'automotive_design', 1998, #122 ) ;
#197 = DIRECTION ( 'NONE',  ( -1.224646799147353700E-16, -0.0000000000000000000, -1.000000000000000000 ) ) ;
#198 = AXIS2_PLACEMENT_3D ( 'NONE', #54, #152, #235 ) ;
#199 = APPLICATION_PROTOCOL_DEFINITION ( 'draft international standard', 'automotive_design', 1998, #273 ) ;
#200 =( CONVERSION_BASED_UNIT ( 'INCH', #57 ) LENGTH_UNIT ( ) NAMED_UNIT ( #194 ) );
#201 = DIRECTION ( 'NONE',  ( 0.0000000000000000000, 0.0000000000000000000, 1.000000000000000000 ) ) ;
#202 = LINE ( 'NONE', #180, #28 ) ;
#203 = ORIENTED_EDGE ( 'NONE', *, *, #155, .F. ) ;
#204 = PRODUCT_DEFINITION ( 'UNKNOWN', '', #35, #184 ) ;
#205 = UNCERTAINTY_MEASURE_WITH_UNIT (LENGTH_MEASURE( 1.000000000000000082E-05 ), #200, 'distance_accuracy_value', 'NONE');
#206 = ORIENTED_EDGE ( 'NONE', *, *, #149, .F. ) ;
#207 = AXIS2_PLACEMENT_3D ( 'NONE', #224, #56, #156 ) ;
#208 = COLOUR_RGB ( '',0.7921568627450980005, 0.8196078431372548767, 0.9333333333333333481 ) ;
#209 = EDGE_LOOP ( 'NONE', ( #40, #263, #160, #231 ) ) ;
#210 = EDGE_CURVE ( 'NONE', #287, #238, #55, .T. ) ;
#211 = DIRECTION ( 'NONE',  ( 0.0000000000000000000, 0.0000000000000000000, -1.000000000000000000 ) ) ;
#212 = VERTEX_POINT ( 'NONE', #193 ) ;
#213 = ORIENTED_EDGE ( 'NONE', *, *, #149, .T. ) ;
#214 = CIRCLE ( 'NONE', #207, 0.03121875000000000691 ) ;
#215 = VERTEX_POINT ( 'NONE', #159 ) ;
#216 = DIRECTION ( 'NONE',  ( 1.000000000000000000, 0.0000000000000000000, -0.0000000000000000000 ) ) ;
#217 = CARTESIAN_POINT ( 'NONE',  ( 0.0000000000000000000, 0.0000000000000000000, 1.485000000000000764 ) ) ;
#218 = DIRECTION ( 'NONE',  ( 1.224646799147353700E-16, 0.0000000000000000000, 1.000000000000000000 ) ) ;
#219 = AXIS2_PLACEMENT_3D ( 'NONE', #137, #69, #145 ) ;
#220 = STYLED_ITEM ( 'NONE', ( #165 ), #237 ) ;
#221 = CARTESIAN_POINT ( 'NONE',  ( 0.03121875000000002773, 0.0000000000000000000, 0.1880000000000000282 ) ) ;
#222 = DIMENSIONAL_EXPONENTS ( 1.000000000000000000, 0.0000000000000000000, 0.0000000000000000000, 0.0000000000000000000, 0.0000000000000000000, 0.0000000000000000000, 0.0000000000000000000 ) ;
#223 = CIRCLE ( 'NONE', #187, 0.03121874999999999997 ) ;
#224 = CARTESIAN_POINT ( 'NONE',  ( 2.302335982397025094E-17, 0.0000000000000000000, 0.1880000000000000282 ) ) ;
#225 = ORIENTED_EDGE ( 'NONE', *, *, #168, .T. ) ;
#226 = ORIENTED_EDGE ( 'NONE', *, *, #125, .F. ) ;
#227 = EDGE_LOOP ( 'NONE', ( #27, #170, #113, #243 ) ) ;
#228 = DIRECTION ( 'NONE',  ( -1.224646799147353700E-16, -0.0000000000000000000, -1.000000000000000000 ) ) ;
#229 = ORIENTED_EDGE ( 'NONE', *, *, #121, .F. ) ;
#230 = EDGE_LOOP ( 'NONE', ( #14, #16, #140, #285 ) ) ;
#231 = ORIENTED_EDGE ( 'NONE', *, *, #252, .F. ) ;
#232 = ADVANCED_FACE ( 'NONE', ( #286 ), #65, .T. ) ;
#233 = FILL_AREA_STYLE ('',( #169 ) ) ;
#234 = CARTESIAN_POINT ( 'NONE',  ( 0.0000000000000000000, 0.0000000000000000000, 1.500000000000000222 ) ) ;
#235 = DIRECTION ( 'NONE',  ( 1.000000000000000000, 0.0000000000000000000, -0.0000000000000000000 ) ) ;
#236 = AXIS2_PLACEMENT_3D ( 'NONE', #270, #76, #178 ) ;
#237 = ADVANCED_BREP_SHAPE_REPRESENTATION ( 'Micro_EMS-062-2X', ( #7, #117 ), #289 ) ;
#238 = VERTEX_POINT ( 'NONE', #239 ) ;
#239 = CARTESIAN_POINT ( 'NONE',  ( 0.06250000000000002776, 7.654042494670959086E-18, 1.485000000000000764 ) ) ;
#240 = EDGE_LOOP ( 'NONE', ( #70, #284 ) ) ;
#241 = EDGE_LOOP ( 'NONE', ( #203, #186, #257, #108 ) ) ;
#242 = ADVANCED_FACE ( 'NONE', ( #32 ), #135, .T. ) ;
#243 = ORIENTED_EDGE ( 'NONE', *, *, #12, .F. ) ;
#244 = ORIENTED_EDGE ( 'NONE', *, *, #158, .T. ) ;
#245 = DIRECTION ( 'NONE',  ( 1.000000000000000000, 0.0000000000000000000, 0.0000000000000000000 ) ) ;
#246 = DIRECTION ( 'NONE',  ( -1.224646799147353700E-16, -0.0000000000000000000, -1.000000000000000000 ) ) ;
#247 = EDGE_CURVE ( 'NONE', #215, #115, #185, .T. ) ;
#248 = DIRECTION ( 'NONE',  ( -1.224646799147353700E-16, -0.0000000000000000000, -1.000000000000000000 ) ) ;
#249 = CARTESIAN_POINT ( 'NONE',  ( 0.0000000000000000000, 0.0000000000000000000, 1.500000000000000222 ) ) ;
#250 = DIRECTION ( 'NONE',  ( 1.000000000000000000, 0.0000000000000000000, 0.0000000000000000000 ) ) ;
#251 = CIRCLE ( 'NONE', #219, 0.06250000000000002776 ) ;
#252 = EDGE_CURVE ( 'NONE', #238, #287, #251, .T. ) ;
#253 = CARTESIAN_POINT ( 'NONE',  ( -0.06250000000000002776, 0.0000000000000000000, 1.500000000000000222 ) ) ;
#254 = DIRECTION ( 'NONE',  ( -1.000000000000000000, 0.0000000000000000000, 1.224646799147353700E-16 ) ) ;
#255 = CONICAL_SURFACE ( 'NONE', #154, 0.03121875000000000691, 0.1745329251994338915 ) ;
#256 = EDGE_LOOP ( 'NONE', ( #226, #11, #131, #31 ) ) ;
#257 = ORIENTED_EDGE ( 'NONE', *, *, #84, .T. ) ;
#258 = CARTESIAN_POINT ( 'NONE',  ( -0.03121874999999998609, 3.823194226088144458E-18, 0.1880000000000000282 ) ) ;
#259 = EDGE_LOOP ( 'NONE', ( #206, #225, #114, #82 ) ) ;
#260 = AXIS2_PLACEMENT_3D ( 'NONE', #234, #150, #95 ) ;
#261 = DIRECTION ( 'NONE',  ( -1.224646799147353700E-16, -0.0000000000000000000, -1.000000000000000000 ) ) ;
#262 = SURFACE_STYLE_FILL_AREA ( #132 ) ;
#263 = ORIENTED_EDGE ( 'NONE', *, *, #179, .F. ) ;
#264 = DIRECTION ( 'NONE',  ( -1.000000000000000000, 0.0000000000000000000, 1.224646799147353947E-16 ) ) ;
#265 = AXIS2_PLACEMENT_3D ( 'NONE', #22, #246, #245 ) ;
#266 = CYLINDRICAL_SURFACE ( 'NONE', #77, 0.03121875000000000691 ) ;
#267 = DIRECTION ( 'NONE',  ( -0.0000000000000000000, -0.0000000000000000000, -1.000000000000000000 ) ) ;
#268 = ADVANCED_FACE ( 'NONE', ( #118 ), #255, .T. ) ;
#269 = PRODUCT_DEFINITION_SHAPE ( 'NONE', 'NONE',  #204 ) ;
#270 = CARTESIAN_POINT ( 'NONE',  ( 2.302335982397025094E-17, 0.0000000000000000000, 0.1880000000000000282 ) ) ;
#271 = AXIS2_PLACEMENT_3D ( 'NONE', #249, #52, #23 ) ;
#272 = FACE_OUTER_BOUND ( 'NONE', #80, .T. ) ;
#273 = APPLICATION_CONTEXT ( 'automotive_design' ) ;
#274 = CARTESIAN_POINT ( 'NONE',  ( -0.03121874999999999997, 0.0000000000000000000, 7.646388452176290456E-18 ) ) ;
#275 =( NAMED_UNIT ( * ) SI_UNIT ( $, .STERADIAN. ) SOLID_ANGLE_UNIT ( ) );
#276 = VERTEX_POINT ( 'NONE', #293 ) ;
#277 = DIRECTION ( 'NONE',  ( -0.7071067811865462405, 0.0000000000000000000, -0.7071067811865486830 ) ) ;
#278 = DIRECTION ( 'NONE',  ( 1.000000000000000000, 0.0000000000000000000, 0.0000000000000000000 ) ) ;
#279 = ADVANCED_FACE ( 'NONE', ( #97 ), #266, .T. ) ;
#280 = DIRECTION ( 'NONE',  ( -1.000000000000000000, 0.0000000000000000000, 1.224646799147353700E-16 ) ) ;
#281 = DIRECTION ( 'NONE',  ( 1.224646799147353700E-16, 0.0000000000000000000, 1.000000000000000000 ) ) ;
#282 = SURFACE_STYLE_FILL_AREA ( #233 ) ;
#283 = STYLED_ITEM ( 'NONE', ( #85 ), #7 ) ;
#284 = ORIENTED_EDGE ( 'NONE', *, *, #48, .T. ) ;
#285 = ORIENTED_EDGE ( 'NONE', *, *, #296, .F. ) ;
#286 = FACE_OUTER_BOUND ( 'NONE', #259, .T. ) ;
#287 = VERTEX_POINT ( 'NONE', #106 ) ;
#288 = CONICAL_SURFACE ( 'NONE', #177, 0.03121875000000000691, 0.1745329251994338915 ) ;
#289 =( GEOMETRIC_REPRESENTATION_CONTEXT ( 3 ) GLOBAL_UNCERTAINTY_ASSIGNED_CONTEXT ( ( #205 ) ) GLOBAL_UNIT_ASSIGNED_CONTEXT ( ( #200, #2, #275 ) ) REPRESENTATION_CONTEXT ( 'NONE', 'WORKASPACE' ) );
#290 = EDGE_LOOP ( 'NONE', ( #183, #62 ) ) ;
#291 = LINE ( 'NONE', #221, #90 ) ;
#292 = DIRECTION ( 'NONE',  ( -1.000000000000000000, 0.0000000000000000000, 0.0000000000000000000 ) ) ;
#293 = CARTESIAN_POINT ( 'NONE',  ( 0.03121875000000002773, 0.0000000000000000000, 0.1880000000000000282 ) ) ;
#294 = DIMENSIONAL_EXPONENTS ( 1.000000000000000000, 0.0000000000000000000, 0.0000000000000000000, 0.0000000000000000000, 0.0000000000000000000, 0.0000000000000000000, 0.0000000000000000000 ) ;
#295 = DIRECTION ( 'NONE',  ( -1.000000000000000000, 0.0000000000000000000, 0.0000000000000000000 ) ) ;
#296 = EDGE_CURVE ( 'NONE', #287, #115, #127, .T. ) ;
#297 = CARTESIAN_POINT ( 'NONE',  ( -0.06249999999999997918, 0.0000000000000000000, 0.3654047844199155848 ) ) ;
#298 = DIRECTION ( 'NONE',  ( 0.0000000000000000000, 0.0000000000000000000, 1.000000000000000000 ) ) ;
#299 = PLANE ( 'NONE',  #198 ) ;
ENDSEC;
END-ISO-10303-21;
